  0
SECTION
  2
HEADER
  9
$ACADVER
  1
AC1009
  9
$INSBASE
 10
680.3633151974235034
 20
112.4280562150569978
 30
0.0
  9
$EXTMIN
 10
677.9703867714779335
 20
112.419964479882907
 30
-0.0015258207003583
  9
$EXTMAX
 10
682.722056289323973
 20
115.4648587154539001
 30
0.0000000349246037
  9
$LIMMIN
 10
0.0
 20
0.0
  9
$LIMMAX
 10
11.6929133858000007
 20
8.2677165353999982
  9
$ORTHOMODE
 70
     0
  9
$REGENMODE
 70
     1
  9
$FILLMODE
 70
     1
  9
$QTEXTMODE
 70
     0
  9
$MIRRTEXT
 70
     0
  9
$DRAGMODE
 70
     2
  9
$LTSCALE
 40
0.6431102362
  9
$OSMODE
 70
  4095
  9
$ATTMODE
 70
     1
  9
$TEXTSIZE
 40
0.2
  9
$TRACEWID
 40
0.05
  9
$TEXTSTYLE
  7
STANDARD
  9
$CLAYER
  8
0
  9
$CELTYPE
  6
BYLAYER
  9
$CECOLOR
 62
   256
  9
$DIMSCALE
 40
1.0
  9
$DIMASZ
 40
0.1875
  9
$DIMEXO
 40
0.0625
  9
$DIMDLI
 40
0.4443307087
  9
$DIMRND
 40
0.0
  9
$DIMDLE
 40
0.0
  9
$DIMEXE
 40
0.125
  9
$DIMTP
 40
0.01
  9
$DIMTM
 40
0.01
  9
$DIMTXT
 40
1.0
  9
$DIMCEN
 40
0.1052362205
  9
$DIMTSZ
 40
0.0
  9
$DIMTOL
 70
     1
  9
$DIMLIM
 70
     0
  9
$DIMTIH
 70
     0
  9
$DIMTOH
 70
     1
  9
$DIMSE1
 70
     0
  9
$DIMSE2
 70
     0
  9
$DIMTAD
 70
     0
  9
$DIMZIN
 70
     0
  9
$DIMBLK
  1

  9
$DIMASO
 70
     1
  9
$DIMSHO
 70
     1
  9
$DIMPOST
  1
\X
  9
$DIMAPOST
  1

  9
$DIMALT
 70
     1
  9
$DIMALTD
 70
     2
  9
$DIMALTF
 40
25.3999999999999986
  9
$DIMLFAC
 40
1.0
  9
$DIMTOFL
 70
     0
  9
$DIMTVP
 40
0.0
  9
$DIMTIX
 70
     0
  9
$DIMSOXD
 70
     0
  9
$DIMSAH
 70
     0
  9
$DIMBLK1
  1

  9
$DIMBLK2
  1

  9
$DIMSTYLE
  2
STANDARD
  9
$DIMCLRD
 70
     0
  9
$DIMCLRE
 70
     0
  9
$DIMCLRT
 70
     0
  9
$DIMTFAC
 40
1.0
  9
$DIMGAP
 40
0.09
  9
$LUNITS
 70
     2
  9
$LUPREC
 70
     4
  9
$SKETCHINC
 40
0.1
  9
$FILLETRAD
 40
0.0
  9
$AUNITS
 70
     0
  9
$AUPREC
 70
     0
  9
$MENU
  1
.
  9
$ELEVATION
 40
0.0
  9
$PELEVATION
 40
0.0
  9
$THICKNESS
 40
0.0
  9
$LIMCHECK
 70
     0
  9
$BLIPMODE
 70
     0
  9
$CHAMFERA
 40
0.0
  9
$CHAMFERB
 40
0.0
  9
$SKPOLY
 70
     0
  9
$TDCREATE
 40
2458172.5207638889551163
  9
$TDUPDATE
 40
2459115.4475925927981734
  9
$TDINDWG
 40
0.3894567361
  9
$TDUSRTIMER
 40
0.3894567361
  9
$USRTIMER
 70
     1
  9
$ANGBASE
 50
0.0
  9
$ANGDIR
 70
     0
  9
$PDMODE
 70
     0
  9
$PDSIZE
 40
0.3125
  9
$PLINEWID
 40
0.0
  9
$COORDS
 70
     1
  9
$SPLFRAME
 70
     0
  9
$SPLINETYPE
 70
     6
  9
$SPLINESEGS
 70
     8
  9
$ATTDIA
 70
     1
  9
$ATTREQ
 70
     1
  9
$HANDLING
 70
     1
  9
$HANDSEED
  5
A972
  9
$SURFTAB1
 70
     6
  9
$SURFTAB2
 70
     6
  9
$SURFTYPE
 70
     6
  9
$SURFU
 70
     6
  9
$SURFV
 70
     6
  9
$UCSNAME
  2

  9
$UCSORG
 10
0.0
 20
0.0
 30
0.0
  9
$UCSXDIR
 10
1.0
 20
0.0
 30
0.0
  9
$UCSYDIR
 10
0.0
 20
1.0
 30
0.0
  9
$PUCSNAME
  2

  9
$PUCSORG
 10
0.0
 20
0.0
 30
0.0
  9
$PUCSXDIR
 10
1.0
 20
0.0
 30
0.0
  9
$PUCSYDIR
 10
0.0
 20
1.0
 30
0.0
  9
$USERI1
 70
     0
  9
$USERI2
 70
     0
  9
$USERI3
 70
     0
  9
$USERI4
 70
     0
  9
$USERI5
 70
     0
  9
$USERR1
 40
0.0
  9
$USERR2
 40
0.0
  9
$USERR3
 40
0.0
  9
$USERR4
 40
0.0
  9
$USERR5
 40
0.0
  9
$WORLDVIEW
 70
     1
  9
$SHADEDGE
 70
     3
  9
$SHADEDIF
 70
    70
  9
$TILEMODE
 70
     1
  9
$MAXACTVP
 70
    64
  9
$PLIMCHECK
 70
     0
  9
$PEXTMIN
 10
1.0000000000000000E+20
 20
1.0000000000000000E+20
 30
1.0000000000000000E+20
  9
$PEXTMAX
 10
-1.0000000000000000E+20
 20
-1.0000000000000000E+20
 30
-1.0000000000000000E+20
  9
$PLIMMIN
 10
0.0
 20
0.0
  9
$PLIMMAX
 10
12.0
 20
9.0
  9
$UNITMODE
 70
     0
  9
$VISRETAIN
 70
     1
  9
$PLINEGEN
 70
     0
  9
$PSLTSCALE
 70
     1
  0
ENDSEC
  0
SECTION
  2
TABLES
  0
TABLE
  2
VPORT
 70
     1
  0
VPORT
  2
*ACTIVE
 70
     0
 10
0.0
 20
0.0
 11
1.0
 21
1.0
 12
213.6040198225709048
 22
24.8092644777386298
 13
0.0
 23
0.0
 14
1.0
 24
1.0
 15
0.0
 25
0.0
 16
0.0
 26
0.0
 36
24.1179433675886514
 17
466.74220170783002
 27
89.133147119929788
 37
0.0
 40
3.082254901038076
 41
2.7561475409836058
 42
50.0
 43
0.0
 44
0.0
 50
0.0
 51
0.0
 71
     0
 72
   100
 73
     1
 74
     1
 75
     0
 76
     0
 77
     0
 78
     0
  0
ENDTAB
  0
TABLE
  2
LTYPE
 70
     2
  0
LTYPE
  2
CONTINUOUS
 70
     0
  3
Solid line
 72
    65
 73
     0
 40
0.0
  0
LTYPE
  2
PHANTOM2
 70
     0
  3
___ _ _ ___ _ _ ___ _ _ ___ _ _
 72
    65
 73
     6
 40
1.25
 49
0.625
 49
-0.125
 49
0.125
 49
-0.125
 49
0.125
 49
-0.125
  0
ENDTAB
  0
TABLE
  2
LAYER
 70
     2
  0
LAYER
  2
0
 70
     0
 62
   255
  6
CONTINUOUS
  0
LAYER
  2
DEFPOINTS
 70
     0
 62
     7
  6
CONTINUOUS
  0
ENDTAB
  0
TABLE
  2
STYLE
 70
     1
  0
STYLE
  2
STANDARD
 70
     0
 40
0.0
 41
0.8
 50
0.0
 71
     0
 42
0.2
  3
txt
  4

  0
ENDTAB
  0
TABLE
  2
VIEW
 70
     0
  0
ENDTAB
  0
TABLE
  2
UCS
 70
     0
  0
ENDTAB
  0
TABLE
  2
APPID
 70
    11
  0
APPID
  2
ACAD
 70
     0
  0
APPID
  2
ACAD_MLEADERVER
 70
     0
  0
APPID
  2
ACAD_EXEMPT_FROM_CAD_STANDARDS
 70
     0
  0
APPID
  2
ACAD_DSTYLE_DIMJAG
 70
     0
  0
APPID
  2
ACAD_DSTYLE_DIMTALN
 70
     0
  0
APPID
  2
ACAD_NAV_VCDISPLAY
 70
     0
  0
APPID
  2
ACAECLAYERSTANDARD
 70
     0
  0
APPID
  2
ACCMTRANSPARENCY
 70
     0
  0
APPID
  2
DCO15
 70
     0
  0
APPID
  2
ACDBATTR
 70
     0
  0
APPID
  2
ACADANNOTATIVE
 70
     0
  0
ENDTAB
  0
TABLE
  2
DIMSTYLE
 70
     1
  0
DIMSTYLE
  2
STANDARD
 70
     0
  3

  4

  5

  6

  7

 40
1.0
 41
0.1875
 42
0.0625
 43
0.38
 44
0.125
 45
0.0
 46
0.0
 47
0.01
 48
0.01
140
0.15625
141
0.09
142
0.0
143
25.3999999999999986
144
1.0
145
0.0
146
1.0
147
0.09
 71
     1
 72
     0
 73
     1
 74
     1
 75
     0
 76
     0
 77
     0
 78
     4
170
     0
171
     2
172
     0
173
     0
174
     0
175
     0
176
     0
177
     0
178
     0
  0
ENDTAB
  0
ENDSEC
  0
SECTION
  2
BLOCKS
  0
BLOCK
  8
0
  2
$MODEL_SPACE
 70
     0
 10
0.0
 20
0.0
 30
0.0
  3
$MODEL_SPACE
  1

  0
ENDBLK
  5
21
  8
0
  0
BLOCK
 67
     1
  8
0
  2
$PAPER_SPACE
 70
     0
 10
0.0
 20
0.0
 30
0.0
  3
$PAPER_SPACE
  1

  0
ENDBLK
  5
1D
 67
     1
  8
0
  0
ENDSEC
  0
SECTION
  2
ENTITIES
  0
ATTDEF
  5
829
  8
DEFPOINTS
 10
680.3598402618436012
 20
112.4255436036371947
 30
0.0
 40
0.001
  1
K-97905T
  3

  2
MODELNUMBER
 70
     0
1001
ACDBATTR
1070
     0
1070
     1
  0
ATTDEF
  5
82A
  8
DEFPOINTS
 10
680.3598402618436012
 20
112.4238769369705011
 30
0.0
 40
0.001
  1

  3

  2
TRADENAME
 70
     0
1001
ACDBATTR
1070
     0
1070
     1
  0
ATTDEF
  5
82B
  8
DEFPOINTS
 10
680.3598402618436012
 20
112.422210270303907
 30
0.0
 40
0.001
  1
MOUNTING BASE
  3

  2
PRODUCT
 70
     0
1001
ACDBATTR
1070
     0
1070
     1
  0
LINE
  5
A8A2
  8
0
 10
681.7917071870233485
 20
115.4595522780570036
 30
0.0
 11
678.9183337996233831
 21
115.4595522780570036
 31
0.0
  0
LINE
  5
A8A3
  8
0
 10
678.878642540523515
 20
113.9438042465569936
 30
0.0
 11
678.9183337996233831
 21
115.4595522780570036
 31
0.0
  0
LINE
  5
A8A4
  8
0
 10
681.7917071870233485
 20
115.4595522780570036
 30
0.0
 11
681.8313984460233996
 21
113.9438042465569936
 31
0.0
  0
LINE
  5
A8A5
  8
0
 10
678.5439968712234986
 20
113.9438042465569936
 30
0.0
 11
682.1660432602234323
 21
113.9438042465569936
 31
0.0
  0
LINE
  5
A8A6
  8
0
 10
682.1660432602234323
 20
113.9438042465569936
 30
0.0
 11
682.1660432602234323
 21
113.8847491284570026
 31
0.0
  0
LINE
  5
A8A7
  8
0
 10
682.1660432602234323
 20
113.8847491284570026
 30
0.0
 11
678.5439968712234986
 21
113.8847491284570026
 31
0.0
  0
LINE
  5
A8A8
  8
0
 10
678.5439968712234986
 20
113.8847491284570026
 30
0.0
 11
678.5439968712234986
 21
113.9438042465569936
 31
0.0
  0
LINE
  5
A8A9
  8
0
 10
678.0094051771234263
 20
112.5461664513569957
 30
0.0
 11
682.7172252177233531
 21
112.5461664513569957
 31
0.0
  0
LINE
  5
A8AA
  8
0
 10
682.7172252177233531
 20
112.5461664513569957
 30
0.0
 11
682.7172252177233531
 21
112.4280562150569978
 31
0.0
  0
LINE
  5
A8AB
  8
0
 10
682.7172252177233531
 20
112.4280562150569978
 30
0.0
 11
678.0094051771234263
 21
112.4280562150569978
 31
0.0
  0
LINE
  5
A8AC
  8
0
 10
678.0094051771234263
 20
112.4280562150569978
 30
0.0
 11
678.0094051771234263
 21
112.5461664513569957
 31
0.0
  0
LINE
  5
A8AD
  8
0
 10
678.721162225623516
 20
112.7889473867570018
 30
0.0
 11
678.721162225623516
 21
113.8847491284570026
 31
0.0
  0
LINE
  5
A8AE
  8
0
 10
678.7253802828247444
 20
112.779897299804702
 30
0.0
 11
678.7256891269485095
 21
113.8847491284570026
 31
0.0
  0
LINE
  5
A8AF
  8
0
 10
678.7253802828247444
 20
112.779897299804702
 30
0.0
 11
678.721162225623516
 21
112.7889473867570018
 31
0.0
  0
LINE
  5
A8B0
  8
0
 10
678.8272622520439654
 20
112.7430168450569994
 30
0.0
 11
678.9377398214902541
 21
112.7430168450569994
 31
0.0
  0
LINE
  5
A8B1
  8
0
 10
680.058034494907929
 20
112.8217570024570051
 30
0.0
 11
680.65200649173903
 21
112.8217570024570051
 31
0.0
  0
ARC
  5
A8B2
  8
0
 10
678.826730042610734
 20
112.9007133109619048
 30
0.0
 40
0.1576973639785404
 50
230.0079249585232049
 51
270.1933666578823932
  0
ARC
  5
A8B3
  8
0
 10
679.1960346886114621
 20
112.6354899699926051
 30
0.0
 40
0.1401232449285941
 50
182.4407842447018027
 51
219.6029722919286939
  0
ARC
  5
A8B4
  8
0
 10
678.9380068788616427
 20
112.6248947693761977
 30
0.0
 40
0.1181223775700696
 50
2.2453068350129999
 51
90.1295374645204106
  0
ARC
  5
A8B5
  8
0
 10
680.0580089525363974
 20
112.625075963652705
 30
0.0
 40
0.1966810404628403
 50
89.992559224234256
 51
117.7016281458595017
  0
ARC
  5
A8B6
  8
0
 10
680.0581292864841316
 20
112.6248467770817996
 30
0.0
 40
0.1969398970703341
 50
117.7016281458595017
 51
177.6687658840507993
  0
ARC
  5
A8B7
  8
0
 10
679.7232572298743207
 20
112.6349099871667931
 30
0.0
 40
0.1381104036230513
 50
320.0173927407374777
 51
359.1485257411389966
  0
LINE
  5
A8B8
  8
0
 10
679.0201876671734453
 20
113.7666388922570064
 30
0.0
 11
681.6898533194735137
 21
113.7666388922570064
 31
0.0
  0
LINE
  5
A8B9
  8
0
 10
678.9414876671735328
 20
113.8453388922570042
 30
0.0
 11
678.9414876671735328
 21
113.8847491284570026
 31
0.0
  0
LINE
  5
A8BA
  8
0
 10
679.2587110541734319
 20
113.8453388922570042
 30
0.0
 11
679.2587110541734319
 21
113.8847491284570026
 31
0.0
  0
LINE
  5
A8BB
  8
0
 10
678.9957321855234795
 20
113.8453388922570042
 30
0.0
 11
678.9957321855234795
 21
113.8847491284570026
 31
0.0
  0
ARC
  5
A8BC
  8
0
 10
679.0744321855235057
 20
113.8453388922570042
 30
0.0
 40
0.0787
 50
179.9999999999992042
 51
270.0
  0
ARC
  5
A8BD
  8
0
 10
679.0201876671734453
 20
113.8453388922570042
 30
0.0
 40
0.0787
 50
179.9999999999992042
 51
270.0
  0
ARC
  5
A8BE
  8
0
 10
679.1800110541735194
 20
113.8453388922570042
 30
0.0
 40
0.0787
 50
270.0
 51
359.9999999999984084
  0
ARC
  5
A8BF
  8
0
 10
679.1539245720354074
 20
113.7080016379584038
 30
0.0
 40
0.0641781282215973
 50
359.747503297979506
 51
66.0167238471659203
  0
ARC
  5
A8C0
  8
0
 10
678.4410954264760676
 20
113.2394565889423035
 30
0.0
 40
0.7778608618984536
 50
345.0572589255035041
 51
1.04449444705019
  0
ARC
  5
A8C1
  8
0
 10
677.6380949696734888
 20
113.3302012909748981
 30
0.0
 40
1.581617755935133
 50
333.7036583905816087
 51
349.3860606819882832
  0
LINE
  5
A8C2
  8
0
 10
679.2188270394602796
 20
113.253636103686901
 30
0.0
 11
679.2181020770640316
 21
113.7077188123574985
 31
0.0
  0
LINE
  5
A8C3
  8
0
 10
679.9003892268309528
 20
113.5338482348577998
 30
0.0
 11
679.8916166389312821
 21
112.7300078975732021
 31
0.0
  0
LINE
  5
A8C4
  8
0
 10
680.0297399406463228
 20
113.5338539278498047
 30
0.0
 11
680.0204314318217484
 21
112.9180704768814962
 31
0.0
  0
LINE
  5
A8C5
  8
0
 10
679.5501595590992565
 20
113.7518751127570056
 30
0.0
 11
681.1598814275477025
 21
113.7518751127570056
 31
0.0
  0
LINE
  5
A8C6
  8
0
 10
679.8028717055323114
 20
113.7272693075122021
 30
0.0
 11
680.9071692811146477
 21
113.7272693075122021
 31
0.0
  0
LINE
  5
A8C7
  8
0
 10
679.8028717055323114
 20
113.7272693075122021
 30
0.0
 11
679.5501595590992565
 21
113.7518751127570056
 31
0.0
  0
ARC
  5
A8C8
  8
0
 10
680.0888111818829884
 20
113.5412057199846032
 30
0.0
 40
0.1885655475770255
 50
99.3438963773326407
 51
182.2361448720616011
  0
ARC
  5
A8C9
  8
0
 10
680.2258782043951442
 20
113.538789290208598
 30
0.0
 40
0.196200347369788
 50
106.1265014617852955
 51
181.4414103506053948
  0
ARC
  5
A8CA
  8
0
 10
679.8499418061545612
 20
112.9170097311915981
 30
0.0
 40
0.1704929254882428
 50
318.9014492813905122
 51
0.3564760420199892
  0
LINE
  5
A8CB
  8
0
 10
681.9888787610234431
 20
112.7889473867570018
 30
0.0
 11
681.9888787610234431
 21
113.8847491284570026
 31
0.0
  0
LINE
  5
A8CC
  8
0
 10
681.9846607038221009
 20
112.779897299804702
 30
0.0
 11
681.9843518596984495
 21
113.8847491284570026
 31
0.0
  0
LINE
  5
A8CD
  8
0
 10
681.9846607038221009
 20
112.779897299804702
 30
0.0
 11
681.9888787610234431
 21
112.7889473867570018
 31
0.0
  0
LINE
  5
A8CE
  8
0
 10
681.8827787346028799
 20
112.7430168450569994
 30
0.0
 11
681.7723011651564775
 21
112.7430168450569994
 31
0.0
  0
ARC
  5
A8CF
  8
0
 10
681.883310944036225
 20
112.9007133109619048
 30
0.0
 40
0.1576973639785404
 50
269.8066333421177205
 51
309.9920750414768236
  0
ARC
  5
A8D0
  8
0
 10
681.5140062980352695
 20
112.6354899699926051
 30
0.0
 40
0.1401232449285941
 50
320.3970277080712776
 51
357.5592157552982258
  0
ARC
  5
A8D1
  8
0
 10
681.77203410778543
 20
112.6248947693761977
 30
0.0
 40
0.1181223775700696
 50
89.8704625354796036
 51
177.7546931649870032
  0
ARC
  5
A8D2
  8
0
 10
680.652032034110448
 20
112.625075963652705
 30
0.0
 40
0.1966810404628403
 50
62.2983718541404698
 51
90.007440775765744
  0
ARC
  5
A8D3
  8
0
 10
680.6519117001628274
 20
112.6248467770817996
 30
0.0
 40
0.1969398970703341
 50
2.3312341159491332
 51
62.2983718541404698
  0
ARC
  5
A8D4
  8
0
 10
680.9867837567726383
 20
112.6349099871667931
 30
0.0
 40
0.1381104036230513
 50
180.8514742588610034
 51
219.9826072592618118
  0
LINE
  5
A8D5
  8
0
 10
681.7685533194734262
 20
113.8453388922570042
 30
0.0
 11
681.7685533194734262
 21
113.8847491284570026
 31
0.0
  0
LINE
  5
A8D6
  8
0
 10
681.4513299324735272
 20
113.8453388922570042
 30
0.0
 11
681.4513299324735272
 21
113.8847491284570026
 31
0.0
  0
LINE
  5
A8D7
  8
0
 10
681.7143088011234795
 20
113.8453388922570042
 30
0.0
 11
681.7143088011234795
 21
113.8847491284570026
 31
0.0
  0
ARC
  5
A8D8
  8
0
 10
681.6356088011234533
 20
113.8453388922570042
 30
0.0
 40
0.0787
 50
270.0
 51
0.0000000000008142
  0
ARC
  5
A8D9
  8
0
 10
681.6898533194735137
 20
113.8453388922570042
 30
0.0
 40
0.0787
 50
270.0
 51
0.0000000000008142
  0
ARC
  5
A8DA
  8
0
 10
681.5300299324734397
 20
113.8453388922570042
 30
0.0
 40
0.0787
 50
180.0000000000015916
 51
270.0
  0
ARC
  5
A8DB
  8
0
 10
681.5561164146115516
 20
113.7080016379584038
 30
0.0
 40
0.0641781282215973
 50
113.9832761528340939
 51
180.2524967020204087
  0
ARC
  5
A8DC
  8
0
 10
682.2689455601706641
 20
113.2394565889423035
 30
0.0
 40
0.7778608618984536
 50
178.955505552949802
 51
194.9427410744964959
  0
ARC
  5
A8DD
  8
0
 10
683.0719460169733566
 20
113.3302012909748981
 30
0.0
 40
1.581617755935133
 50
190.6139393180116031
 51
206.2963416094183913
  0
LINE
  5
A8DE
  8
0
 10
681.4912139471864521
 20
113.253636103686901
 30
0.0
 11
681.4919389095830411
 21
113.7077188123574985
 31
0.0
  0
LINE
  5
A8DF
  8
0
 10
680.8096517598158925
 20
113.5338482348577998
 30
0.0
 11
680.818424347715677
 21
112.7300078975732021
 31
0.0
  0
LINE
  5
A8E0
  8
0
 10
680.6803010460006362
 20
113.5338539278498047
 30
0.0
 11
680.6896095548250969
 21
112.9180704768814962
 31
0.0
  0
LINE
  5
A8E1
  8
0
 10
680.9071692811146477
 20
113.7272693075122021
 30
0.0
 11
681.1598814275477025
 21
113.7518751127570056
 31
0.0
  0
ARC
  5
A8E2
  8
0
 10
680.6212298047639706
 20
113.5412057199846032
 30
0.0
 40
0.1885655475770255
 50
357.7638551279383137
 51
80.6561036226673593
  0
ARC
  5
A8E3
  8
0
 10
680.4841627822518149
 20
113.538789290208598
 30
0.0
 40
0.196200347369788
 50
358.5585896493946052
 51
73.8734985382146903
  0
ARC
  5
A8E4
  8
0
 10
680.8600991804921705
 20
112.9170097311915981
 30
0.0
 40
0.1704929254882428
 50
179.6435239579799941
 51
221.0985507186094878
  0
LINE
  5
A8E6
  8
0
 10
679.3971918751341263
 20
113.6568602115602005
 30
0.0
 11
679.3818592323199255
 21
112.6359912570508044
 31
0.0
  0
LINE
  5
A8E7
  8
0
 10
681.3128504709325171
 20
113.6568582136777934
 30
0.0
 11
681.3281791185246448
 21
112.6361643668749934
 31
0.0
  0
ARC
  5
A8E8
  8
0
 10
683.4921937913334204
 20
120.2105052081803933
 30
0.0
 40
6.8668467051315716
 50
250.1445558954191881
 51
251.2589000351057962
  0
ARC
  5
A8E9
  8
0
 10
681.1097174280421314
 20
113.581937498203402
 30
0.0
 40
0.2165089991688634
 50
20.2452776316935399
 51
35.5238842503805969
  0
ARC
  5
A8EA
  8
0
 10
679.5998048776174301
 20
113.5822141821230957
 30
0.0
 40
0.2159260486510057
 50
144.4558877881935075
 51
159.7753562463292951
  0
ARC
  5
A8EB
  8
0
 10
675.7739096707216504
 20
124.3341362814425963
 30
0.0
 40
11.2358495300418699
 50
288.9577671709679976
 51
289.6387972020339134
  0
ARC
  5
A8EC
  8
0
 10
679.5496357838453605
 20
112.6327648678752951
 30
0.0
 40
0.1678075708330436
 50
178.8983222083703879
 51
211.0681903138747089
  0
ARC
  5
A8ED
  8
0
 10
681.1598797284736975
 20
112.6328339575275947
 30
0.0
 40
0.1683323388952225
 50
329.0119348397964245
 51
1.13365531514967
  0
ENDSEC
  0
EOF
