  0
SECTION
  2
HEADER
  9
$ACADVER
  1
AC1009
  9
$INSBASE
 10
96.1513025888927473
 20
-28.3846169565833684
 30
0.0
  9
$EXTMIN
 10
90.6688443209126547
 20
-28.3846169566833701
 30
0.0
  9
$EXTMAX
 10
97.1552395967872542
 20
-19.7566642006479789
 30
0.0
  9
$LIMMIN
 10
0.0
 20
0.0
  9
$LIMMAX
 10
11.6929133858000007
 20
8.2677165353999982
  9
$ORTHOMODE
 70
     0
  9
$REGENMODE
 70
     1
  9
$FILLMODE
 70
     1
  9
$QTEXTMODE
 70
     0
  9
$MIRRTEXT
 70
     0
  9
$DRAGMODE
 70
     2
  9
$LTSCALE
 40
0.6431102362
  9
$OSMODE
 70
  3839
  9
$ATTMODE
 70
     1
  9
$TEXTSIZE
 40
0.2
  9
$TRACEWID
 40
0.05
  9
$TEXTSTYLE
  7
STANDARD
  9
$CLAYER
  8
0
  9
$CELTYPE
  6
BYLAYER
  9
$CECOLOR
 62
   256
  9
$DIMSCALE
 40
1.0
  9
$DIMASZ
 40
0.1875
  9
$DIMEXO
 40
0.0625
  9
$DIMDLI
 40
0.4443307087
  9
$DIMRND
 40
0.0
  9
$DIMDLE
 40
0.0
  9
$DIMEXE
 40
0.125
  9
$DIMTP
 40
0.01
  9
$DIMTM
 40
0.01
  9
$DIMTXT
 40
1.0
  9
$DIMCEN
 40
0.1052362205
  9
$DIMTSZ
 40
0.0
  9
$DIMTOL
 70
     1
  9
$DIMLIM
 70
     0
  9
$DIMTIH
 70
     1
  9
$DIMTOH
 70
     1
  9
$DIMSE1
 70
     0
  9
$DIMSE2
 70
     0
  9
$DIMTAD
 70
     0
  9
$DIMZIN
 70
     0
  9
$DIMBLK
  1

  9
$DIMASO
 70
     1
  9
$DIMSHO
 70
     1
  9
$DIMPOST
  1
\X
  9
$DIMAPOST
  1

  9
$DIMALT
 70
     1
  9
$DIMALTD
 70
     2
  9
$DIMALTF
 40
25.3999999999999986
  9
$DIMLFAC
 40
1.0
  9
$DIMTOFL
 70
     0
  9
$DIMTVP
 40
0.0
  9
$DIMTIX
 70
     0
  9
$DIMSOXD
 70
     0
  9
$DIMSAH
 70
     0
  9
$DIMBLK1
  1

  9
$DIMBLK2
  1

  9
$DIMSTYLE
  2
STANDARD
  9
$DIMCLRD
 70
     0
  9
$DIMCLRE
 70
     0
  9
$DIMCLRT
 70
     0
  9
$DIMTFAC
 40
1.0
  9
$DIMGAP
 40
0.09
  9
$LUNITS
 70
     2
  9
$LUPREC
 70
     4
  9
$SKETCHINC
 40
0.1
  9
$FILLETRAD
 40
0.0
  9
$AUNITS
 70
     0
  9
$AUPREC
 70
     0
  9
$MENU
  1
.
  9
$ELEVATION
 40
0.0
  9
$PELEVATION
 40
0.0
  9
$THICKNESS
 40
0.0
  9
$LIMCHECK
 70
     0
  9
$BLIPMODE
 70
     0
  9
$CHAMFERA
 40
0.0
  9
$CHAMFERB
 40
0.0
  9
$SKPOLY
 70
     0
  9
$TDCREATE
 40
2458172.4620254631154239
  9
$TDUPDATE
 40
2459212.9557291669771075
  9
$TDINDWG
 40
0.1086864931
  9
$TDUSRTIMER
 40
0.1086864931
  9
$USRTIMER
 70
     1
  9
$ANGBASE
 50
0.0
  9
$ANGDIR
 70
     0
  9
$PDMODE
 70
     0
  9
$PDSIZE
 40
0.3125
  9
$PLINEWID
 40
0.0
  9
$COORDS
 70
     1
  9
$SPLFRAME
 70
     0
  9
$SPLINETYPE
 70
     6
  9
$SPLINESEGS
 70
     8
  9
$ATTDIA
 70
     1
  9
$ATTREQ
 70
     1
  9
$HANDLING
 70
     1
  9
$HANDSEED
  5
E724
  9
$SURFTAB1
 70
     6
  9
$SURFTAB2
 70
     6
  9
$SURFTYPE
 70
     6
  9
$SURFU
 70
     6
  9
$SURFV
 70
     6
  9
$UCSNAME
  2

  9
$UCSORG
 10
0.0
 20
0.0
 30
0.0
  9
$UCSXDIR
 10
1.0
 20
0.0
 30
0.0
  9
$UCSYDIR
 10
0.0
 20
1.0
 30
0.0
  9
$PUCSNAME
  2

  9
$PUCSORG
 10
0.0
 20
0.0
 30
0.0
  9
$PUCSXDIR
 10
1.0
 20
0.0
 30
0.0
  9
$PUCSYDIR
 10
0.0
 20
1.0
 30
0.0
  9
$USERI1
 70
     0
  9
$USERI2
 70
     0
  9
$USERI3
 70
     0
  9
$USERI4
 70
     0
  9
$USERI5
 70
     0
  9
$USERR1
 40
0.0
  9
$USERR2
 40
0.0
  9
$USERR3
 40
0.0
  9
$USERR4
 40
0.0
  9
$USERR5
 40
0.0
  9
$WORLDVIEW
 70
     1
  9
$SHADEDGE
 70
     3
  9
$SHADEDIF
 70
    70
  9
$TILEMODE
 70
     1
  9
$MAXACTVP
 70
    64
  9
$PLIMCHECK
 70
     0
  9
$PEXTMIN
 10
1.0000000000000000E+20
 20
1.0000000000000000E+20
 30
1.0000000000000000E+20
  9
$PEXTMAX
 10
-1.0000000000000000E+20
 20
-1.0000000000000000E+20
 30
-1.0000000000000000E+20
  9
$PLIMMIN
 10
0.0
 20
0.0
  9
$PLIMMAX
 10
12.0
 20
9.0
  9
$UNITMODE
 70
     0
  9
$VISRETAIN
 70
     1
  9
$PLINEGEN
 70
     0
  9
$PSLTSCALE
 70
     1
  0
ENDSEC
  0
SECTION
  2
TABLES
  0
TABLE
  2
VPORT
 70
     1
  0
VPORT
  2
*ACTIVE
 70
     0
 10
0.0
 20
0.0
 11
1.0
 21
1.0
 12
-2.2448671285412991
 22
4.3112999562066721
 13
0.0
 23
0.0
 14
1.0
 24
1.0
 15
0.0
 25
0.0
 16
0.0
 26
0.0
 36
0.0433829766137574
 17
96.1569090873912558
 27
-28.3819405348723492
 37
0.0
 40
8.7133780308476112
 41
2.9735537190082639
 42
50.0
 43
0.0
 44
0.0
 50
0.0
 51
0.0
 71
     0
 72
   100
 73
     1
 74
     1
 75
     0
 76
     0
 77
     0
 78
     1
  0
ENDTAB
  0
TABLE
  2
LTYPE
 70
     2
  0
LTYPE
  2
CONTINUOUS
 70
     0
  3
Solid line
 72
    65
 73
     0
 40
0.0
  0
LTYPE
  2
PHANTOM2
 70
     0
  3
___ _ _ ___ _ _ ___ _ _ ___ _ _
 72
    65
 73
     6
 40
1.25
 49
0.625
 49
-0.125
 49
0.125
 49
-0.125
 49
0.125
 49
-0.125
  0
ENDTAB
  0
TABLE
  2
LAYER
 70
     2
  0
LAYER
  2
0
 70
     0
 62
   255
  6
CONTINUOUS
  0
LAYER
  2
DEFPOINTS
 70
     0
 62
     7
  6
CONTINUOUS
  0
ENDTAB
  0
TABLE
  2
STYLE
 70
     1
  0
STYLE
  2
STANDARD
 70
     0
 40
0.0
 41
0.8
 50
0.0
 71
     0
 42
0.2
  3
txt
  4

  0
ENDTAB
  0
TABLE
  2
VIEW
 70
     0
  0
ENDTAB
  0
TABLE
  2
UCS
 70
     0
  0
ENDTAB
  0
TABLE
  2
APPID
 70
     9
  0
APPID
  2
ACAD
 70
     0
  0
APPID
  2
ACAD_MLEADERVER
 70
     0
  0
APPID
  2
ACAD_EXEMPT_FROM_CAD_STANDARDS
 70
     0
  0
APPID
  2
ACAD_DSTYLE_DIMJAG
 70
     0
  0
APPID
  2
ACAD_DSTYLE_DIMTALN
 70
     0
  0
APPID
  2
ACAD_NAV_VCDISPLAY
 70
     0
  0
APPID
  2
ACAECLAYERSTANDARD
 70
     0
  0
APPID
  2
ACCMTRANSPARENCY
 70
     0
  0
APPID
  2
ACDBATTR
 70
     0
  0
ENDTAB
  0
TABLE
  2
DIMSTYLE
 70
     1
  0
DIMSTYLE
  2
STANDARD
 70
     0
  3

  4

  5

  6

  7

 40
1.0
 41
0.1875
 42
0.0625
 43
0.38
 44
0.125
 45
0.0
 46
0.0
 47
0.01
 48
0.01
140
0.15625
141
0.09
142
0.0
143
25.3999999999999986
144
1.0
145
0.0
146
1.0
147
0.09
 71
     1
 72
     0
 73
     1
 74
     1
 75
     0
 76
     0
 77
     0
 78
     4
170
     0
171
     2
172
     0
173
     0
174
     0
175
     0
176
     0
177
     0
178
     0
  0
ENDTAB
  0
ENDSEC
  0
SECTION
  2
BLOCKS
  0
BLOCK
  8
0
  2
$MODEL_SPACE
 70
     0
 10
0.0
 20
0.0
 30
0.0
  3
$MODEL_SPACE
  1

  0
ENDBLK
  5
21
  8
0
  0
BLOCK
 67
     1
  8
0
  2
$PAPER_SPACE
 70
     0
 10
0.0
 20
0.0
 30
0.0
  3
$PAPER_SPACE
  1

  0
ENDBLK
  5
1D
 67
     1
  8
0
  0
BLOCK
  8
0
  2
_FILLED
 70
     0
 10
0.0
 20
0.0
 30
0.0
  3
_FILLED
  1

  0
SOLID
  5
B3EB
  8
0
  6
BYBLOCK
 62
     0
 10
0.0
 20
0.0
 30
0.0
 11
-1.0
 21
0.1666666667
 31
0.0
 12
-1.0
 22
-0.1666666667
 32
0.0
 13
-1.0
 23
-0.1666666667
 33
0.0
  0
ENDBLK
  5
B3EC
  8
0
  6
BYBLOCK
 62
     0
  0
ENDSEC
  0
SECTION
  2
ENTITIES
  0
ATTDEF
  5
BA2F
  8
DEFPOINTS
 10
96.1515757538989675
 20
-28.38077386820569
 30
0.0
 40
0.001
  1
K-97907IN-4
  3

  2
MODELNUMBER
 70
     0
1001
ACDBATTR
1070
     0
1070
     1
  0
ATTDEF
  5
BA30
  8
DEFPOINTS
 10
96.1515757538989675
 20
-28.3824405348723516
 30
0.0
 40
0.001
  1
LOURE
  3

  2
TRADENAME
 70
     0
1001
ACDBATTR
1070
     0
1070
     1
  0
ATTDEF
  5
BA31
  8
DEFPOINTS
 10
96.1515757538989675
 20
-28.3841072015390203
 30
0.0
 40
0.001
  1
BATHROOM SINK FAUCET
  3

  2
PRODUCT
 70
     0
1001
ACDBATTR
1070
     0
1070
     1
  0
LINE
  5
E422
  8
0
 10
95.1670486361976771
 20
-28.3846169565833684
 30
0.0
 11
97.1355565415878033
 21
-28.3846169565833684
 31
0.0
  0
ARC
  5
E423
  8
0
 10
95.1670506203872435
 20
-28.3649319172833714
 30
0.0
 40
0.0196850393999985
 50
179.9999999999955094
 51
270.0000000000048885
  0
LINE
  5
E424
  8
0
 10
95.147365580987227
 20
-28.3649319172833714
 30
0.0
 11
95.147365580987227
 21
-28.2468216810833717
 31
0.0
  0
ARC
  5
E425
  8
0
 10
95.1670506203872435
 20
-28.2468216810833717
 30
0.0
 40
0.0196850394000006
 50
90.0
 51
180.0000000000025864
  0
LINE
  5
E426
  8
0
 10
95.1670506203872435
 20
-28.2271366416833587
 30
0.0
 11
97.1355545573872661
 21
-28.2271366416833587
 31
0.0
  0
ARC
  5
E427
  8
0
 10
97.1355545573872661
 20
-28.2468216810833717
 30
0.0
 40
0.0196850393999987
 50
359.9999999999960778
 51
89.9999999999992042
  0
LINE
  5
E428
  8
0
 10
97.1552395967872542
 20
-28.2468216810833717
 30
0.0
 11
97.1552395967872542
 21
-28.3649319172833714
 31
0.0
  0
ARC
  5
E429
  8
0
 10
97.1355545573872377
 20
-28.3649319172833714
 30
0.0
 40
0.0196850394000023
 50
270.0057752331530878
 51
359.9999999999997726
  0
ARC
  5
E42A
  8
0
 10
95.2772868408872569
 20
-28.2153256180833694
 30
0.0
 40
0.0118110235999999
 50
180.0000000008996892
 51
269.9999999999910187
  0
LINE
  5
E42B
  8
0
 10
95.2654758172872533
 20
-28.2153256180835506
 30
0.0
 11
95.2654758172099037
 21
-23.2901287676833597
 31
0.0
  0
ARC
  5
E42C
  8
0
 10
95.2772868408097224
 20
-23.2901287676831785
 30
0.0
 40
0.0118110235998135
 50
89.999999624325298
 51
180.0000000008944028
  0
ARC
  5
E42D
  8
0
 10
91.0121166739872507
 20
-24.0346938092833717
 30
0.0
 40
0.0118110235999959
 50
234.0500000029900036
 51
324.050000000019395
  0
LINE
  5
E42E
  8
0
 10
91.021678047500771
 20
-24.0416278135388097
 30
0.0
 11
91.3608099443229662
 21
-23.5739951706367385
 31
0.0
  0
ARC
  5
E42F
  8
0
 10
91.9404841500348198
 20
-23.9943807359000196
 30
0.0
 40
0.716062991816656
 50
89.9999999798024106
 51
144.0500000000193097
  0
LINE
  5
E430
  8
0
 10
91.940484150287233
 20
-23.2783177440833704
 30
0.0
 11
97.0253183369874961
 21
-23.2783177458758708
 31
0.0
  0
ARC
  5
E431
  8
0
 10
97.0253183369833181
 20
-23.2901287694798
 30
0.0
 40
0.0118110236039293
 50
0.0000087145612575
 51
89.9999999798024106
  0
LINE
  5
E432
  8
0
 10
97.0371293605872438
 20
-23.2901287676833597
 30
0.0
 11
97.0371301096987651
 21
-28.215325618083309
 31
0.0
  0
ARC
  5
E433
  8
0
 10
97.0253190878712957
 20
-28.2153256198797386
 30
0.0
 40
0.0118110218274944
 50
269.9963574289067765
 51
0.0000087145569828
  0
ARC
  5
E434
  8
0
 10
97.0253183369872545
 20
-23.2665067203833686
 30
0.0
 40
0.0118110235999992
 50
270.0
 51
359.863581348723983
  0
LINE
  5
E435
  8
0
 10
97.0253183369872545
 20
-23.2783177439833686
 30
0.0
 11
97.0086349239695096
 21
-23.2783177439833686
 31
0.0
  0
LINE
  5
E436
  8
0
 10
97.0371293271092412
 20
-23.2665348418680686
 30
0.0
 11
97.0371293605872438
 21
-22.8649319172833607
 31
0.0
  0
ARC
  5
E437
  8
0
 10
97.0174443228282257
 20
-22.8649319156424013
 30
0.0
 40
0.0196850377590395
 50
359.999995223758674
 51
90.0000047762189155
  0
LINE
  5
E438
  8
0
 10
97.0174443211872415
 20
-22.8452468778833691
 30
0.0
 11
91.9404841502872614
 21
-22.845247301102539
 31
0.0
  0
ARC
  5
E439
  8
0
 10
91.9404842460799756
 20
-23.9943819487948709
 30
0.0
 40
1.1491346476923401
 50
90.0000047762181055
 51
144.0499538551206911
  0
LINE
  5
E43A
  8
0
 10
91.0102262482409827
 20
-23.3197483475092788
 30
0.0
 11
90.6710939747738394
 21
-23.7873807173126011
 31
0.0
  0
ARC
  5
E43B
  8
0
 10
90.680655335010897
 20
-23.7943147236902917
 30
0.0
 40
0.0118110140982264
 50
144.0499538551194121
 51
234.0523028461707895
  0
LINE
  5
E43C
  8
0
 10
90.6737217206321162
 20
-23.8038763681971197
 30
0.0
 11
91.0051826697323065
 21
-24.0442551827972615
 31
0.0
  0
ARC
  5
E43D
  8
0
 10
96.1513025885812311
 20
-23.4620027826990807
 30
0.0
 40
0.6968503929519168
 50
98.9267958050981946
 51
117.7408474496661057
  0
LINE
  5
E43E
  8
0
 10
96.0450033762872408
 20
-22.7734499951833698
 30
0.0
 11
96.2576018014872545
 21
-22.7734499951833698
 31
0.0
  0
ARC
  5
E43F
  8
0
 10
96.151290688853905
 20
-23.4620381961524913
 30
0.0
 40
0.6968872241135708
 50
62.2596594256616527
 51
81.0726894032568453
  0
LINE
  5
E440
  8
0
 10
95.8757120376872507
 20
-19.756664200683371
 30
0.0
 11
96.4268931400872447
 21
-19.756664200683371
 31
0.0
  0
ARC
  5
E441
  8
0
 10
96.4268931400872447
 20
-19.7763492400833698
 30
0.0
 40
0.0196850394000023
 50
0.0000000000077351
 51
90.0
  0
LINE
  5
E442
  8
0
 10
96.4465781794872612
 20
-19.7763492400833591
 30
0.0
 11
96.4465781794876307
 21
-22.5794988463837782
 31
0.0
  0
ARC
  5
E443
  8
0
 10
96.4347671558880251
 20
-22.5794988463837889
 30
0.0
 40
0.0118110235995772
 50
269.9999995110263171
 51
0.0000000000067173
  0
LINE
  5
E444
  8
0
 10
96.4347671557872559
 20
-22.5913098699833697
 30
0.0
 11
95.8678380219872253
 21
-22.5913098699833697
 31
0.0
  0
ARC
  5
E445
  8
0
 10
95.8678380303475279
 20
-22.5794988380230883
 30
0.0
 40
0.0118110319602843
 50
180.0000405560228103
 51
269.9999594439466932
  0
LINE
  5
E446
  8
0
 10
95.8560269983872502
 20
-22.5794988463833697
 30
0.0
 11
95.8560258261782252
 21
-19.7763492400843113
 31
0.0
  0
ARC
  5
E447
  8
0
 10
95.8757108573827708
 20
-19.7763492318525103
 30
0.0
 40
0.0196850312045295
 50
89.9965645741487634
 51
180.0000239596967049
  0
LINE
  5
E448
  8
0
 10
96.0607514077872651
 20
-22.5913098699833697
 30
0.0
 11
96.0607514077872651
 21
-22.7734499951833698
 31
0.0
  0
LINE
  5
E449
  8
0
 10
96.2418537699872445
 20
-22.5913098699833697
 30
0.0
 11
96.2418537699872445
 21
-22.7734499951833698
 31
0.0
  0
ARC
  5
E44A
  8
0
 10
96.0450033762872408
 20
-22.7852610187831814
 30
0.0
 40
0.0118110235998197
 50
89.9999999999478888
 51
98.9267958213095255
  0
ARC
  5
E44B
  8
0
 10
96.2576018013292298
 20
-22.7852610228385792
 30
0.0
 40
0.0118110276552168
 50
81.0732045607887528
 51
89.9999992334327885
  0
ENDSEC
  0
EOF
