  0
SECTION
  2
HEADER
  9
$ACADVER
  1
AC1009
  9
$INSBASE
 10
4022.3966864597809945
 20
71.1935518321172225
 30
0.0
  9
$EXTMIN
 10
4021.471489609281889
 20
71.1935518321172225
 30
0.0
  9
$EXTMAX
 10
4023.3218833102810095
 20
85.963236871417223
 30
0.0
  9
$LIMMIN
 10
0.0
 20
0.0
  9
$LIMMAX
 10
11.6929133858000007
 20
8.2677165353999982
  9
$ORTHOMODE
 70
     0
  9
$REGENMODE
 70
     1
  9
$FILLMODE
 70
     1
  9
$QTEXTMODE
 70
     0
  9
$MIRRTEXT
 70
     0
  9
$DRAGMODE
 70
     2
  9
$LTSCALE
 40
0.6431102362
  9
$OSMODE
 70
  4063
  9
$ATTMODE
 70
     1
  9
$TEXTSIZE
 40
0.2
  9
$TRACEWID
 40
0.05
  9
$TEXTSTYLE
  7
STANDARD
  9
$CLAYER
  8
0
  9
$CELTYPE
  6
BYLAYER
  9
$CECOLOR
 62
   256
  9
$DIMSCALE
 40
1.0
  9
$DIMASZ
 40
0.1875
  9
$DIMEXO
 40
0.0625
  9
$DIMDLI
 40
0.4443307087
  9
$DIMRND
 40
0.0
  9
$DIMDLE
 40
0.0
  9
$DIMEXE
 40
0.125
  9
$DIMTP
 40
0.01
  9
$DIMTM
 40
0.01
  9
$DIMTXT
 40
2.0
  9
$DIMCEN
 40
0.1052362205
  9
$DIMTSZ
 40
0.0
  9
$DIMTOL
 70
     1
  9
$DIMLIM
 70
     0
  9
$DIMTIH
 70
     1
  9
$DIMTOH
 70
     1
  9
$DIMSE1
 70
     0
  9
$DIMSE2
 70
     0
  9
$DIMTAD
 70
     0
  9
$DIMZIN
 70
     0
  9
$DIMBLK
  1

  9
$DIMASO
 70
     1
  9
$DIMSHO
 70
     1
  9
$DIMPOST
  1
\X
  9
$DIMAPOST
  1

  9
$DIMALT
 70
     1
  9
$DIMALTD
 70
     2
  9
$DIMALTF
 40
25.3999999999999986
  9
$DIMLFAC
 40
1.0
  9
$DIMTOFL
 70
     0
  9
$DIMTVP
 40
0.0
  9
$DIMTIX
 70
     0
  9
$DIMSOXD
 70
     0
  9
$DIMSAH
 70
     0
  9
$DIMBLK1
  1

  9
$DIMBLK2
  1

  9
$DIMSTYLE
  2
STANDARD
  9
$DIMCLRD
 70
     0
  9
$DIMCLRE
 70
     0
  9
$DIMCLRT
 70
     0
  9
$DIMTFAC
 40
1.0
  9
$DIMGAP
 40
0.09
  9
$LUNITS
 70
     2
  9
$LUPREC
 70
     4
  9
$SKETCHINC
 40
0.1
  9
$FILLETRAD
 40
0.0
  9
$AUNITS
 70
     0
  9
$AUPREC
 70
     0
  9
$MENU
  1
.
  9
$ELEVATION
 40
0.0
  9
$PELEVATION
 40
0.0
  9
$THICKNESS
 40
0.0
  9
$LIMCHECK
 70
     0
  9
$BLIPMODE
 70
     0
  9
$CHAMFERA
 40
0.0
  9
$CHAMFERB
 40
0.0
  9
$SKPOLY
 70
     0
  9
$TDCREATE
 40
2458060.468368056230247
  9
$TDUPDATE
 40
2459391.5990856480784714
  9
$TDINDWG
 40
0.4158403935
  9
$TDUSRTIMER
 40
0.4158403935
  9
$USRTIMER
 70
     1
  9
$ANGBASE
 50
0.0
  9
$ANGDIR
 70
     0
  9
$PDMODE
 70
     0
  9
$PDSIZE
 40
0.3125
  9
$PLINEWID
 40
0.0
  9
$COORDS
 70
     1
  9
$SPLFRAME
 70
     0
  9
$SPLINETYPE
 70
     6
  9
$SPLINESEGS
 70
     8
  9
$ATTDIA
 70
     1
  9
$ATTREQ
 70
     1
  9
$HANDLING
 70
     1
  9
$HANDSEED
  5
9734
  9
$SURFTAB1
 70
     6
  9
$SURFTAB2
 70
     6
  9
$SURFTYPE
 70
     6
  9
$SURFU
 70
     6
  9
$SURFV
 70
     6
  9
$UCSNAME
  2

  9
$UCSORG
 10
0.0
 20
0.0
 30
0.0
  9
$UCSXDIR
 10
1.0
 20
0.0
 30
0.0
  9
$UCSYDIR
 10
0.0
 20
1.0
 30
0.0
  9
$PUCSNAME
  2

  9
$PUCSORG
 10
0.0
 20
0.0
 30
0.0
  9
$PUCSXDIR
 10
1.0
 20
0.0
 30
0.0
  9
$PUCSYDIR
 10
0.0
 20
1.0
 30
0.0
  9
$USERI1
 70
     0
  9
$USERI2
 70
     0
  9
$USERI3
 70
     0
  9
$USERI4
 70
     0
  9
$USERI5
 70
     0
  9
$USERR1
 40
0.0
  9
$USERR2
 40
0.0
  9
$USERR3
 40
0.0
  9
$USERR4
 40
0.0
  9
$USERR5
 40
0.0
  9
$WORLDVIEW
 70
     1
  9
$SHADEDGE
 70
     3
  9
$SHADEDIF
 70
    70
  9
$TILEMODE
 70
     1
  9
$MAXACTVP
 70
    64
  9
$PLIMCHECK
 70
     0
  9
$PEXTMIN
 10
1.0000000000000000E+20
 20
1.0000000000000000E+20
 30
1.0000000000000000E+20
  9
$PEXTMAX
 10
-1.0000000000000000E+20
 20
-1.0000000000000000E+20
 30
-1.0000000000000000E+20
  9
$PLIMMIN
 10
0.0
 20
0.0
  9
$PLIMMAX
 10
12.0
 20
9.0
  9
$UNITMODE
 70
     0
  9
$VISRETAIN
 70
     1
  9
$PLINEGEN
 70
     0
  9
$PSLTSCALE
 70
     1
  0
ENDSEC
  0
SECTION
  2
TABLES
  0
TABLE
  2
VPORT
 70
     1
  0
VPORT
  2
*ACTIVE
 70
     0
 10
0.0
 20
0.0
 11
1.0
 21
1.0
 12
230.0387763035315061
 22
-41.6022620813382389
 13
0.0
 23
0.0
 14
1.0
 24
1.0
 15
0.0
 25
0.0
 16
0.0
 26
0.0
 36
5.1040778033513332
 17
3792.35791015625
 27
120.1806564331053977
 37
0.0
 40
14.8861345928293005
 41
2.498684210526315
 42
50.0
 43
0.0
 44
0.0
 50
0.0
 51
0.0
 71
     0
 72
   100
 73
     1
 74
     1
 75
     0
 76
     0
 77
     0
 78
     0
  0
ENDTAB
  0
TABLE
  2
LTYPE
 70
     2
  0
LTYPE
  2
CONTINUOUS
 70
     0
  3
Solid line
 72
    65
 73
     0
 40
0.0
  0
LTYPE
  2
PHANTOM2
 70
     0
  3
___ _ _ ___ _ _ ___ _ _ ___ _ _
 72
    65
 73
     6
 40
1.25
 49
0.625
 49
-0.125
 49
0.125
 49
-0.125
 49
0.125
 49
-0.125
  0
ENDTAB
  0
TABLE
  2
LAYER
 70
     2
  0
LAYER
  2
0
 70
     0
 62
   255
  6
CONTINUOUS
  0
LAYER
  2
DEFPOINTS
 70
     0
 62
     7
  6
CONTINUOUS
  0
ENDTAB
  0
TABLE
  2
STYLE
 70
     1
  0
STYLE
  2
STANDARD
 70
     0
 40
0.0
 41
0.8
 50
0.0
 71
     0
 42
0.2
  3
txt
  4

  0
ENDTAB
  0
TABLE
  2
VIEW
 70
     1
  0
ENDTAB
  0
TABLE
  2
UCS
 70
     0
  0
ENDTAB
  0
TABLE
  2
APPID
 70
     9
  0
APPID
  2
ACAD
 70
     0
  0
APPID
  2
ACAD_MLEADERVER
 70
     0
  0
APPID
  2
ACAD_EXEMPT_FROM_CAD_STANDARDS
 70
     0
  0
APPID
  2
ACAD_NAV_VCDISPLAY
 70
     0
  0
APPID
  2
ACAECLAYERSTANDARD
 70
     0
  0
APPID
  2
ACCMTRANSPARENCY
 70
     0
  0
APPID
  2
ACAD_DSTYLE_DIMJAG
 70
     0
  0
APPID
  2
ACAD_DSTYLE_DIMTALN
 70
     0
  0
APPID
  2
ACDBATTR
 70
     0
  0
ENDTAB
  0
TABLE
  2
DIMSTYLE
 70
     1
  0
DIMSTYLE
  2
STANDARD
 70
     0
  3

  4

  5

  6

  7

 40
1.0
 41
0.1875
 42
0.0625
 43
0.38
 44
0.125
 45
0.0
 46
0.0
 47
0.01
 48
0.01
140
0.15625
141
0.09
142
0.0
143
25.3999999999999986
144
1.0
145
0.0
146
1.0
147
0.09
 71
     1
 72
     0
 73
     1
 74
     1
 75
     0
 76
     0
 77
     0
 78
     4
170
     0
171
     2
172
     0
173
     0
174
     0
175
     0
176
     0
177
     0
178
     0
  0
ENDTAB
  0
ENDSEC
  0
SECTION
  2
BLOCKS
  0
BLOCK
  8
0
  2
$MODEL_SPACE
 70
     0
 10
0.0
 20
0.0
 30
0.0
  3
$MODEL_SPACE
  1

  0
ENDBLK
  5
21
  8
0
  0
BLOCK
 67
     1
  8
0
  2
$PAPER_SPACE
 70
     0
 10
0.0
 20
0.0
 30
0.0
  3
$PAPER_SPACE
  1

  0
ENDBLK
  5
1D
 67
     1
  8
0
  0
BLOCK
  8
0
  2
_FILLED
 70
     0
 10
0.0
 20
0.0
 30
0.0
  3
_FILLED
  1

  0
SOLID
  5
69B4
  8
0
  6
BYBLOCK
 62
     0
 10
0.0
 20
0.0
 30
0.0
 11
-1.0
 21
0.1666666667
 31
0.0
 12
-1.0
 22
-0.1666666667
 32
0.0
 13
-1.0
 23
-0.1666666667
 33
0.0
  0
ENDBLK
  5
69B5
  8
0
  6
BYBLOCK
 62
     0
  0
BLOCK
  8
0
  2
A$CDFAF6206
 70
     0
 10
0.0
 20
0.0
 30
0.0
  3
A$CDFAF6206
  1

  0
LINE
  5
6A0E
  8
0
 10
7.4646650085734834
 20
10.9287685970688493
 30
0.0
 11
7.4646650085734896
 21
10.8905784766688498
 31
0.0
  0
ARC
  5
6A0F
  8
0
 10
7.7269027075262349
 20
10.8926811525838598
 30
0.0
 40
0.2622461286616791
 50
180.4593995232625048
 51
217.0214027758331099
  0
LINE
  5
6A10
  8
0
 10
9.767814609867095
 20
10.9287685970688493
 30
0.0
 11
9.767814609867095
 21
10.8905433757650094
 31
0.0
  0
ARC
  5
6A11
  8
0
 10
9.5068669568548287
 20
10.8922438613003703
 30
0.0
 40
0.2609531936261092
 50
322.8847083717149076
 51
359.6266329125650145
  0
LINE
  5
6A12
  8
0
 10
7.517522606271406
 20
10.7347792678688396
 30
0.0
 11
9.7149570120691777
 21
10.7347792678688396
 31
0.0
  0
LINE
  5
6A13
  8
0
 10
7.4646650085734834
 20
10.9287685970688493
 30
0.0
 11
9.7678146123202936
 21
10.9287685970688493
 31
0.0
  0
ARC
  5
6A14
  8
0
 10
4.0826771419203629
 20
8.527951346868889
 30
0.0
 40
4.0826771653999172
 50
13.3117747050523896
 51
32.7200330051415591
  0
ARC
  5
6A15
  8
0
 10
4.0826771460567306
 20
8.5279513475907933
 30
0.0
 40
4.0826771612084691
 50
359.6656501984817851
 51
13.3117747085593798
  0
ARC
  5
6A16
  8
0
 10
13.1498041284835097
 20
8.5279508235212234
 30
0.0
 40
4.0826788382043553
 50
147.2799733478981068
 51
166.6882233021349862
  0
ARC
  5
6A17
  8
0
 10
13.1498064934207992
 20
8.5279506557033251
 30
0.0
 40
4.0826811782395342
 50
166.688228652086309
 51
180.3343397625230011
  0
LINE
  5
6A18
  8
0
 10
8.1652847935202928
 20
8.504127000268852
 30
0.0
 11
9.0671948248202892
 21
8.5041270002687881
 31
0.0
  0
LINE
  5
6A19
  8
0
 10
8.1652847935202786
 20
8.5041270002667204
 30
0.0
 11
8.1652847935202928
 21
8.3607006934688481
 31
0.0
  0
ARC
  5
6A1A
  8
0
 10
5.6196779630382627
 20
8.3631022096452732
 30
0.0
 40
2.545607963272567
 50
342.0511668832173768
 51
359.945947387132378
  0
LINE
  5
6A1B
  8
0
 10
9.0671948248202892
 20
8.5041270002687881
 30
0.0
 11
9.0671948248202892
 21
8.2885990108688503
 31
0.0
  0
ARC
  5
6A1C
  8
0
 10
9.4521885297801163
 20
7.9614488056228501
 30
0.0
 40
0.5052201595850959
 50
139.6436242991769916
 51
174.6757930071850069
  0
ARC
  5
6A1D
  8
0
 10
9.9238413395551746
 20
8.1492417579399508
 30
0.0
 40
0.9848265662939324
 50
188.2263441834095943
 51
209.5593615864376034
  0
ARC
  5
6A1E
  8
0
 10
8.0788764238271256
 20
7.5665710856463297
 30
0.0
 40
0.0393715937169877
 50
162.1669117288323037
 51
227.2023190037006088
  0
ARC
  5
6A1F
  8
0
 10
8.7223682141740682
 20
8.2079667397440517
 30
0.0
 40
0.947895137885075
 50
225.0018610752970858
 51
261.4598823366255829
  0
ARC
  5
6A20
  8
0
 10
8.6645157662702701
 20
8.1695128573935332
 30
0.0
 40
0.9027466462812931
 50
264.7303071214498118
 51
281.8608311947915013
  0
ARC
  5
6A21
  8
0
 10
8.6645157662698935
 20
8.1695128573999671
 30
0.0
 40
0.9027466462876658
 50
299.1741886792128753
 51
299.1743179154552195
  0
ARC
  5
6A22
  8
0
 10
9.0843330931590316
 20
7.4150554710086141
 30
0.0
 40
0.0393703053609601
 50
251.9700352025496954
 51
252.4698971938937859
  0
ARC
  5
6A23
  8
0
 10
9.0843330931590316
 20
7.4150554710086141
 30
0.0
 40
0.0393703053609601
 50
297.2453716727138726
 51
6.8376113572703074
  0
LINE
  5
6A24
  8
0
 10
9.0671948248202892
 20
7.663402160468852
 30
0.0
 11
9.1234233799329516
 21
7.419742732911689
 31
0.0
  0
ARC
  5
6A25
  8
0
 10
8.8843741880892395
 20
9.8961379890094676
 30
0.0
 40
2.5255097382132701
 50
263.792800240752797
 51
274.9514951129821156
  0
ARC
  5
6A26
  8
0
 10
8.8258167405968848
 20
9.2763025889666508
 30
0.0
 40
1.9029970832759311
 50
246.0108363320686067
 51
263.5276935074397215
  0
ARC
  5
6A27
  8
0
 10
8.607491361665744
 20
8.3225444804829642
 30
0.0
 40
1.064510137163637
 50
283.1717405874071005
 51
297.7022170607311864
  0
LINE
  5
6A28
  8
0
 10
9.0671948248202892
 20
8.2885990108688503
 30
0.0
 11
26.2014378595979593
 21
8.2885990108689942
 31
0.0
  0
LINE
  5
6A29
  8
0
 10
26.2014378595979913
 20
7.6634021604689053
 30
0.0
 11
9.0671948248202892
 21
7.6634021604688618
 31
0.0
  0
LINE
  5
6A2A
  8
0
 10
27.8039676758446994
 20
10.9287685970690802
 30
0.0
 11
27.8039676758446888
 21
10.8905784766690807
 31
0.0
  0
ARC
  5
6A2B
  8
0
 10
27.5417299768919399
 20
10.8926811525840801
 30
0.0
 40
0.2622461286616791
 50
322.9785972241680838
 51
359.5406004767386889
  0
LINE
  5
6A2C
  8
0
 10
25.5008180745510913
 20
10.9287685970690305
 30
0.0
 11
25.5008180745510913
 21
10.8905433757651799
 31
0.0
  0
ARC
  5
6A2D
  8
0
 10
25.7617657275633505
 20
10.8922438613005497
 30
0.0
 40
0.2609531936261092
 50
180.3733670874362929
 51
217.1152916282862861
  0
LINE
  5
6A2E
  8
0
 10
27.7511100781467803
 20
10.7347792678690706
 30
0.0
 11
25.5536756723490015
 21
10.7347792678690208
 31
0.0
  0
LINE
  5
6A2F
  8
0
 10
27.8039676758446888
 20
10.9287685970686006
 30
0.0
 11
25.5008180745510806
 21
10.9287685970686006
 31
0.0
  0
ARC
  5
6A30
  8
0
 10
31.1859555424978616
 20
8.5279513468691981
 30
0.0
 40
4.0826771653999172
 50
147.2799669948597057
 51
166.6882252949490066
  0
ARC
  5
6A31
  8
0
 10
31.185955538361501
 20
8.5279513475911024
 30
0.0
 40
4.0826771612084691
 50
166.6882252914419098
 51
180.3343498015194086
  0
ARC
  5
6A32
  8
0
 10
22.1188285559344706
 20
8.5279508235212251
 30
0.0
 40
4.0826788382046102
 50
13.3117766978667795
 51
32.7200266521023977
  0
ARC
  5
6A33
  8
0
 10
22.1188261909974315
 20
8.5279506557034264
 30
0.0
 40
4.0826811782395342
 50
359.665660237478221
 51
13.31177134791497
  0
LINE
  5
6A34
  8
0
 10
27.1033478908979397
 20
8.5041270002690652
 30
0.0
 11
26.2014378595979416
 21
8.5041270002689835
 31
0.0
  0
LINE
  5
6A35
  8
0
 10
27.1033478908979504
 20
8.5041270002669354
 30
0.0
 11
27.1033478908979397
 21
8.3607006934690649
 31
0.0
  0
ARC
  5
6A36
  8
0
 10
29.6489547213799689
 20
8.3631022096455467
 30
0.0
 40
2.545607963272567
 50
180.0540526128687873
 51
197.9488331167837032
  0
LINE
  5
6A37
  8
0
 10
26.2014378595979416
 20
8.5041270002689835
 30
0.0
 11
26.2014378595979487
 21
8.2885990108690457
 31
0.0
  0
ARC
  5
6A38
  8
0
 10
25.8164441546381305
 20
7.9614488056230366
 30
0.0
 40
0.5052201595850959
 50
5.324206992816312
 51
40.3563757008241879
  0
ARC
  5
6A39
  8
0
 10
25.3447913448601803
 20
8.149241757940846
 30
0.0
 40
0.9848265662968968
 50
330.4406384136033807
 51
351.7736558165743759
  0
ARC
  5
6A3A
  8
0
 10
27.1897562605911212
 20
7.5665710856465473
 30
0.0
 40
0.0393715937169877
 50
312.7976809963004143
 51
17.8330882711689185
  0
ARC
  5
6A3B
  8
0
 10
26.5462644702441715
 20
8.2079667397442542
 30
0.0
 40
0.947895137885075
 50
278.5401176633754972
 51
314.9981389247041079
  0
ARC
  5
6A3C
  8
0
 10
26.6041169181479695
 20
8.1695128573937392
 30
0.0
 40
0.9027466462812931
 50
258.139168805210204
 51
275.2696928785518935
  0
ARC
  5
6A3D
  8
0
 10
26.6041169181483497
 20
8.1695128574001732
 30
0.0
 40
0.9027466462876658
 50
240.8256820845460027
 51
240.8258113207880058
  0
ARC
  5
6A3E
  8
0
 10
26.1842995912592293
 20
7.4150554710088086
 30
0.0
 40
0.0393703053609601
 50
287.5301028061073794
 51
288.0299647974517825
  0
ARC
  5
6A3F
  8
0
 10
26.1842995912592293
 20
7.4150554710088086
 30
0.0
 40
0.0393703053609601
 50
173.1623886427310026
 51
242.7546283272870085
  0
LINE
  5
6A40
  8
0
 10
26.2014378595981192
 20
7.6634021604690448
 30
0.0
 11
26.1452093044853093
 21
7.4197427329118826
 31
0.0
  0
ARC
  5
6A41
  8
0
 10
26.384258496328961
 20
9.8961379890096666
 30
0.0
 40
2.5255097382132701
 50
265.0485048870193054
 51
276.2071997592482262
  0
ARC
  5
6A42
  8
0
 10
26.4428159438213299
 20
9.2763025889668516
 30
0.0
 40
1.9029970832759311
 50
276.4723064925619838
 51
293.9891636679327007
  0
ARC
  5
6A43
  8
0
 10
26.6611413227524885
 20
8.3225444804831703
 30
0.0
 40
1.064510137163637
 50
242.2977829392704052
 51
256.8282594125943774
  0
LINE
  5
6A44
  8
0
 62
     4
 10
17.9031473532159602
 20
10.9287685970686006
 30
0.0
 11
24.6329820359843588
 21
20.0952817181593808
 31
0.0
  0
LINE
  5
6A45
  8
0
 62
     4
 10
17.9031473532159602
 20
-0.0000000300842942
 30
0.0
 11
22.3963351323106608
 21
4.993614497796286
 31
0.0
  0
ENDBLK
  5
6A49
  8
0
  0
ENDSEC
  0
SECTION
  2
ENTITIES
  0
ATTDEF
  5
3930
  8
DEFPOINTS
 10
4022.3980329559230995
 20
71.1970807563290151
 30
0.0
 40
0.001
  1
K-97908IN-4
  3

  2
MODELNUMBER
 70
     0
1001
ACDBATTR
1070
     0
1070
     1
  0
ATTDEF
  5
3931
  8
DEFPOINTS
 10
4022.3980329559230995
 20
71.1954140896623358
 30
0.0
 40
0.001
  1
LOURE
  3

  2
TRADENAME
 70
     0
1001
ACDBATTR
1070
     0
1070
     1
  0
ATTDEF
  5
3932
  8
DEFPOINTS
 10
4022.3980329559230995
 20
71.1937474229956848
 30
0.0
 40
0.001
  1
BATH FAUCET
  3

  2
PRODUCT
 70
     0
1001
ACDBATTR
1070
     0
1070
     1
  0
ARC
  5
94A4
  8
0
 10
4022.2785798818317744
 20
85.9435518320172207
 30
0.0
 40
0.0196850393999979
 50
90.0
 51
180.0
  0
ARC
  5
94A5
  8
0
 10
4022.2707058661321753
 20
83.1404022257172244
 30
0.0
 40
0.0118110235999982
 50
179.9999999999870113
 51
270.0
  0
ARC
  5
94A6
  8
0
 10
4022.3966901177718682
 20
82.2578982895617941
 30
0.0
 40
0.6968503927853217
 50
98.9267958028179493
 51
117.7406592383880053
  0
ARC
  5
94A7
  8
0
 10
4021.6092885431598916
 20
82.8549691549879554
 30
0.0
 40
0.0196850392292891
 50
89.9999995031291746
 51
180.0000002058116877
  0
ARC
  5
94A8
  8
0
 10
4021.6089993026980665
 20
81.9027118245102344
 30
0.0
 40
0.0298096604788028
 50
89.4440551378943951
 51
112.9639853830656051
  0
ARC
  5
94A9
  8
0
 10
4021.6022179704491464
 20
81.9174795666724549
 30
0.0
 40
0.0135750727924484
 50
110.9281736814236012
 51
151.2525947255826111
  0
ARC
  5
94AA
  8
0
 10
4021.5968810395452238
 20
81.9208663859979112
 30
0.0
 40
0.0072781823176467
 50
154.4235635106497
 51
179.2361951230010106
  0
ARC
  5
94AB
  8
0
 10
4021.6014145275307783
 20
81.6852072628172152
 30
0.0
 40
0.0118110235999991
 50
180.0000000058940941
 51
270.0
  0
ARC
  5
94AC
  8
0
 10
4021.8284106288087969
 20
81.7808226672301828
 30
0.0
 40
0.0599534462419417
 50
185.5413816066001118
 51
241.8341618767248065
  0
ARC
  5
94AD
  8
0
 10
4021.8832951094841519
 20
81.8718667901936499
 30
0.0
 40
0.1662115176225071
 50
239.9688441130304
 51
271.2246932495896772
  0
ARC
  5
94AE
  8
0
 10
4021.8114252333830336
 20
81.8187455540827671
 30
0.0
 40
0.0426883543557513
 50
155.1978775285504071
 51
179.7274139133216124
  0
ARC
  5
94AF
  8
0
 10
4021.8363629084801687
 20
81.8046399070173038
 30
0.0
 40
0.0712814800799626
 50
120.535615232910601
 51
153.3137844772799951
  0
ARC
  5
94B0
  8
0
 10
4021.8778330212790024
 20
81.7366717512636853
 30
0.0
 40
0.1508979110141996
 50
95.2061465010576029
 51
120.9859144611580035
  0
LINE
  5
94B1
  8
0
 10
4021.7687373621320148
 20
81.7750332838172369
 30
0.0
 11
4021.7687373621320148
 21
81.8189486442171159
 31
0.0
  0
LINE
  5
94B2
  8
0
 10
4021.5896035039309027
 20
71.362843170617225
 30
0.0
 11
4021.5896035039309027
 21
82.854969154917228
 31
0.0
  0
ARC
  5
94B3
  8
0
 10
4021.6014082833048633
 20
71.3628369278575434
 30
0.0
 40
0.0118047810235468
 50
179.969700090333987
 51
270.0125508337717974
  0
ARC
  5
94B4
  8
0
 10
4021.4911746486109223
 20
71.331347107887936
 30
0.0
 40
0.0196850392292896
 50
89.9999997941907139
 51
180.0000004968732128
  0
ARC
  5
94B5
  8
0
 10
4021.4911746486109223
 20
71.2132368713465098
 30
0.0
 40
0.01968503922929
 50
179.9999995031274977
 51
270.0000002058092718
  0
ARC
  5
94B6
  8
0
 10
4021.8200435374988047
 20
81.8062551170855272
 30
0.0
 40
0.0473983123600184
 50
182.0093688775882868
 51
228.0435935712744993
  0
ARC
  5
94B7
  8
0
 10
4021.8616042042071967
 20
81.8503727582452569
 30
0.0
 40
0.108001787539568
 50
227.2949017397490934
 51
253.8339567525696907
  0
ARC
  5
94B8
  8
0
 10
4021.8842988710030113
 20
81.9182359779337759
 30
0.0
 40
0.1795237793567307
 50
252.9075120518394897
 51
270.8134645288810134
  0
LINE
  5
94B9
  8
0
 10
4021.7726743700318366
 20
81.8045931941172171
 30
0.0
 11
4021.7726743700318366
 21
81.8366527087172244
 31
0.0
  0
LINE
  5
94BA
  8
0
 10
4021.8927531102322064
 20
81.7710788402172142
 30
0.0
 11
4021.8927531102322064
 21
81.7806402137172341
 31
0.0
  0
LINE
  5
94BB
  8
0
 10
4021.8848790944311986
 20
81.7525881621172061
 30
0.0
 11
4021.8848790944311986
 21
81.7621495357172137
 31
0.0
  0
ARC
  5
94BC
  8
0
 10
4021.8845177074040294
 20
81.7671777290872086
 30
0.0
 40
0.0050411634669592
 50
186.6848076700310912
 51
274.110900920735105
  0
ARC
  5
94BD
  8
0
 10
4021.881080005469812
 20
81.9156155128368084
 30
0.0
 40
0.1207051632119049
 50
238.6485506765494904
 51
269.2551232906851055
  0
LINE
  5
94BE
  8
0
 10
4021.8795108160311429
 20
81.7665909006172171
 30
0.0
 11
4021.8795108160311429
 21
81.8125542360172204
 31
0.0
  0
LINE
  5
94BF
  8
0
 10
4021.8902473728321638
 20
81.8125542360172204
 30
0.0
 11
4021.8902473728321638
 21
81.7849859941172355
 31
0.0
  0
ARC
  5
94C0
  8
0
 10
4021.8853074107760222
 20
81.7855996885676433
 30
0.0
 40
0.0049779359030979
 50
274.9360041913624855
 51
352.9183940576733107
  0
LINE
  5
94C1
  8
0
 10
4021.884879093930067
 20
81.7806402137172341
 30
0.0
 11
4021.8927531102322064
 21
81.7806402137172341
 31
0.0
  0
ARC
  5
94C2
  8
0
 10
4021.8896643743469212
 20
81.8556102011593936
 30
0.0
 40
0.0102787813342436
 50
188.9526368632650133
 51
259.7043985786219196
  0
ARC
  5
94C3
  8
0
 10
4021.8801552655449996
 20
81.855579598107397
 30
0.0
 40
0.0102133375687707
 50
278.9551577967930029
 51
351.1633049775089148
  0
ARC
  5
94C4
  8
0
 10
4021.8894218339628424
 20
81.8225388314212267
 30
0.0
 40
0.0100186655700892
 50
188.406685085553903
 51
274.7265359654679742
  0
ARC
  5
94C5
  8
0
 10
4021.880161819715795
 20
81.8226397891326513
 30
0.0
 40
0.0102063562394158
 50
278.8241045622684169
 51
351.175895437729082
  0
ARC
  5
94C6
  8
0
 10
4021.8896733321139436
 20
81.8884163499784421
 30
0.0
 40
0.0101678016528505
 50
181.8475188110238889
 51
259.3289664338543048
  0
ARC
  5
94C7
  8
0
 10
4021.8804317178760357
 20
81.8882005285337158
 30
0.0
 40
0.0098160508393288
 50
264.6476677404315865
 51
0.5145822450154255
  0
ARC
  5
94C8
  8
0
 10
4021.9627970635237943
 20
81.8556186432379178
 30
0.0
 40
0.0102967204129853
 50
188.9844679818334896
 51
259.6273406612369854
  0
ARC
  5
94C9
  8
0
 10
4021.9532085929799905
 20
81.8556109759432502
 30
0.0
 40
0.0102799707978432
 50
280.2813106117039865
 51
351.044035692686009
  0
ARC
  5
94CA
  8
0
 10
4021.9627956622180136
 20
81.8226814200302357
 30
0.0
 40
0.0102952265394201
 50
188.9818219932759007
 51
259.6337475807023907
  0
ARC
  5
94CB
  8
0
 10
4021.9531953071359567
 20
81.8226811223175758
 30
0.0
 40
0.0102941334922285
 50
280.342175467333675
 51
351.0188940121540213
  0
ARC
  5
94CC
  8
0
 10
4021.9627081889289002
 20
81.8883852578158837
 30
0.0
 40
0.0100858779281053
 50
181.6858181434336075
 51
261.0955226903935227
  0
ARC
  5
94CD
  8
0
 10
4021.9535361549887966
 20
81.8882048623099337
 30
0.0
 40
0.0098274357599581
 50
275.4130096920466144
 51
0.48871811305676
  0
ARC
  5
94CE
  8
0
 10
4022.0359115224641755
 20
81.8556179401040538
 30
0.0
 40
0.0102952260627427
 50
188.9818208565905877
 51
259.6337550881704033
  0
ARC
  5
94CF
  8
0
 10
4022.0263111683311763
 20
81.8556176423268056
 30
0.0
 40
0.0102941329356028
 50
280.3421675056080744
 51
351.0188954427736121
  0
ARC
  5
94D0
  8
0
 10
4022.0359115228229712
 20
81.8226814200402828
 30
0.0
 40
0.0102952264541166
 50
188.981821843268591
 51
259.6337504870368775
  0
ARC
  5
94D1
  8
0
 10
4022.0263111678477799
 20
81.8226811223550357
 30
0.0
 40
0.0102941334652658
 50
280.3421734843710169
 51
351.0188940592358904
  0
ARC
  5
94D2
  8
0
 10
4022.0359617317230914
 20
81.8884381989955443
 30
0.0
 40
0.0102251746846706
 50
181.9596450101682876
 51
258.5219741125649193
  0
ARC
  5
94D3
  8
0
 10
4022.0266454929551401
 20
81.8882073369802583
 30
0.0
 40
0.0098339374600115
 50
275.4475908806165876
 51
0.4739765228799405
  0
ARC
  5
94D4
  8
0
 10
4022.1090273829631769
 20
81.8556179401040538
 30
0.0
 40
0.010295226062762
 50
188.9818208566244948
 51
259.6337550874288809
  0
ARC
  5
94D5
  8
0
 10
4022.0994270288379084
 20
81.8556176423230255
 30
0.0
 40
0.010294132927557
 50
280.3421673778422019
 51
351.0188954569981092
  0
ARC
  5
94D6
  8
0
 10
4022.1090273833219726
 20
81.8226814200402828
 30
0.0
 40
0.0102952264541365
 50
188.9818218433032087
 51
259.6337504863212757
  0
ARC
  5
94D7
  8
0
 10
4022.0994270283467813
 20
81.8226811223550357
 30
0.0
 40
0.0102941334652739
 50
280.3421734849274003
 51
351.018894059226227
  0
ARC
  5
94D8
  8
0
 10
4022.1090853229648019
 20
81.8884411791221112
 30
0.0
 40
0.0102330031736138
 50
181.9748411608127867
 51
258.4867023941233128
  0
ARC
  5
94D9
  8
0
 10
4022.0997548251439184
 20
81.8882098137217014
 30
0.0
 40
0.0098404453844863
 50
275.4821607094339129
 51
0.4592418027181776
  0
ARC
  5
94DA
  8
0
 10
4022.1821432434958297
 20
81.8556179401205668
 30
0.0
 40
0.0102952260979135
 50
188.9818209187208993
 51
259.6337545289670743
  0
ARC
  5
94DB
  8
0
 10
4022.1725428893500975
 20
81.8556176423172559
 30
0.0
 40
0.0102941329152848
 50
280.3421671819830863
 51
351.0188954787017224
  0
ARC
  5
94DC
  8
0
 10
4022.1821432438218835
 20
81.822681420040297
 30
0.0
 40
0.0102952264541449
 50
188.9818218433129005
 51
259.6337504865600749
  0
ARC
  5
94DD
  8
0
 10
4022.1725428888580609
 20
81.822681122349266
 30
0.0
 40
0.0102941334530109
 50
280.3421732891736724
 51
351.0188940809097744
  0
ARC
  5
94DE
  8
0
 10
4022.1822089216930181
 20
81.8884441621324157
 30
0.0
 40
0.0102408399603991
 50
181.9900287477053951
 51
258.451444025348394
  0
ARC
  5
94DF
  8
0
 10
4022.1728641517379401
 20
81.8882122925858056
 30
0.0
 40
0.0098469595372231
 50
275.5167160459919273
 51
0.4445139570605125
  0
ARC
  5
94E0
  8
0
 10
4022.3283749644961063
 20
81.8556179401206379
 30
0.0
 40
0.0102952260978383
 50
188.9818209185889941
 51
259.6337545329932937
  0
ARC
  5
94E1
  8
0
 10
4022.3187746103581048
 20
81.8556176423135469
 30
0.0
 40
0.0102941329071777
 50
280.3421670500322875
 51
351.0188954930388263
  0
ARC
  5
94E2
  8
0
 10
4022.3283749648221601
 20
81.8226814200403254
 30
0.0
 40
0.010295226454065
 50
188.981821843175311
 51
259.6337504905865217
  0
ARC
  5
94E3
  8
0
 10
4022.3187746098669777
 20
81.8226811223455428
 30
0.0
 40
0.0102941334449018
 50
280.3421731571964983
 51
351.018894095241194
  0
ARC
  5
94E4
  8
0
 10
4022.3284432936397934
 20
81.8884451428997124
 30
0.0
 40
0.0102435234049542
 50
181.9949963283312968
 51
258.5983662380580199
  0
ARC
  5
94E5
  8
0
 10
4022.3190827881248879
 20
81.888217256688435
 30
0.0
 40
0.0098600065459471
 50
275.585783240726812
 51
0.4150789042847736
  0
ARC
  5
94E6
  8
0
 10
4022.2552591039961953
 20
81.8556179401205952
 30
0.0
 40
0.0102952260980248
 50
188.9818209189180038
 51
259.633754526133373
  0
ARC
  5
94E7
  8
0
 10
4022.2456587498500085
 20
81.8556176423172417
 30
0.0
 40
0.0102941329153125
 50
280.3421671834130962
 51
351.0188954786430031
  0
ARC
  5
94E8
  8
0
 10
4022.2552591043217944
 20
81.8226814200403254
 30
0.0
 40
0.01029522645426
 50
188.9818218435187873
 51
259.6337504837259189
  0
ARC
  5
94E9
  8
0
 10
4022.2456587493579718
 20
81.8226811223492376
 30
0.0
 40
0.0102941334530367
 50
280.3421732906040234
 51
351.0188940808614007
  0
ARC
  5
94EA
  8
0
 10
4022.2553325274220697
 20
81.8884471478435216
 30
0.0
 40
0.0102486845593143
 50
182.0052068264845104
 51
258.4162073241582789
  0
ARC
  5
94EB
  8
0
 10
4022.2459734727331124
 20
81.8882147735741057
 30
0.0
 40
0.0098534799228396
 50
275.5512568941322229
 51
0.4297929896651246
  0
ARC
  5
94EC
  8
0
 10
4021.9579949549488447
 20
81.7861289308201833
 30
0.0
 40
0.0054885987861923
 50
192.0191355143637963
 51
347.9808676875458104
  0
ARC
  5
94ED
  8
0
 10
4022.0311108155001421
 20
81.7861289308819579
 30
0.0
 40
0.0054885988479576
 50
192.019136036325591
 51
347.9808671655810031
  0
ARC
  5
94EE
  8
0
 10
4022.1042266759991435
 20
81.7861289308819579
 30
0.0
 40
0.0054885988479568
 50
192.0191360363089075
 51
347.9808671655993066
  0
ARC
  5
94EF
  8
0
 10
4022.1773425366159245
 20
81.7861289310527582
 30
0.0
 40
0.0054885989355849
 50
192.0191344626159946
 51
347.9808569989564262
  0
ARC
  5
94F0
  8
0
 10
4022.2504583969889609
 20
81.7861289311053667
 30
0.0
 40
0.0054885989881858
 50
192.0191434455545902
 51
347.9808608236647274
  0
ARC
  5
94F1
  8
0
 10
4022.3235742575739096
 20
81.7861289311053667
 30
0.0
 40
0.0054885989881854
 50
192.0191391763329136
 51
347.9808565544494172
  0
LINE
  5
94F2
  8
0
 10
4021.8795108160311429
 20
81.8210741180172079
 30
0.0
 11
4021.8795108160311429
 21
81.8454907563172043
 31
0.0
  0
LINE
  5
94F3
  8
0
 10
4021.8795108160311429
 20
81.8540106383172201
 30
0.0
 11
4021.8795108160311429
 21
81.8784272765172148
 31
0.0
  0
LINE
  5
94F4
  8
0
 10
4021.8795108160311429
 20
81.8880885431172061
 30
0.0
 11
4021.8795108160311429
 21
81.8881538313349182
 31
0.0
  0
LINE
  5
94F5
  8
0
 10
4021.890247372972226
 20
81.8210741189276121
 30
0.0
 11
4021.8902473733769511
 21
81.8454966983748022
 31
0.0
  0
LINE
  5
94F6
  8
0
 10
4021.8902473728321638
 20
81.8540106383172628
 30
0.0
 11
4021.8902473728321638
 21
81.8784272765172148
 31
0.0
  0
LINE
  5
94F7
  8
0
 10
4021.8902473728321638
 20
81.8881123702503544
 30
0.0
 11
4021.8902473728321638
 21
81.8882886868172193
 31
0.0
  0
LINE
  5
94F8
  8
0
 10
4021.9526266765310538
 20
81.7849860032935112
 30
0.0
 11
4021.9526266765310538
 21
81.8125542360172204
 31
0.0
  0
LINE
  5
94F9
  8
0
 10
4021.9526266765310538
 20
81.8210741273523041
 30
0.0
 11
4021.9526266765310538
 21
81.8454907563172043
 31
0.0
  0
LINE
  5
94FA
  8
0
 10
4021.9526266765460605
 20
81.8540106382672263
 30
0.0
 11
4021.9526266765310538
 21
81.8784272765172148
 31
0.0
  0
LINE
  5
94FB
  8
0
 10
4021.9526266765310538
 20
81.888088540426935
 30
0.0
 11
4021.9526266765310538
 21
81.8882886868172193
 31
0.0
  0
LINE
  5
94FC
  8
0
 10
4021.9633632333311652
 20
81.7849859943172248
 30
0.0
 11
4021.9633632333311652
 21
81.8125542360172204
 31
0.0
  0
LINE
  5
94FD
  8
0
 10
4021.9633632333311652
 20
81.8210741180172079
 30
0.0
 11
4021.9633632333311652
 21
81.8454907563172043
 31
0.0
  0
LINE
  5
94FE
  8
0
 10
4021.9633632333311652
 20
81.854010638317277
 30
0.0
 11
4021.9633632333311652
 21
81.8784272765172148
 31
0.0
  0
LINE
  5
94FF
  8
0
 10
4021.9633632333311652
 20
81.8881123796834629
 30
0.0
 11
4021.9633632333311652
 21
81.8882886868172193
 31
0.0
  0
LINE
  5
9500
  8
0
 10
4022.0257425371310092
 20
81.7849859941172355
 30
0.0
 11
4022.0257425371310092
 21
81.8125542360172204
 31
0.0
  0
LINE
  5
9501
  8
0
 10
4022.0257425371310092
 20
81.8210741180172079
 30
0.0
 11
4022.0257425371310092
 21
81.8454907563172043
 31
0.0
  0
LINE
  5
9502
  8
0
 10
4022.0257425371310092
 20
81.8540106383171633
 30
0.0
 11
4022.0257425371310092
 21
81.8784272765172148
 31
0.0
  0
LINE
  5
9503
  8
0
 10
4022.0257425371310092
 20
81.8880885431172061
 30
0.0
 11
4022.0257425371310092
 21
81.8882886868172193
 31
0.0
  0
LINE
  5
9504
  8
0
 10
4022.0364790939311206
 20
81.7849859947172035
 30
0.0
 11
4022.0364790939311206
 21
81.8125542360172204
 31
0.0
  0
LINE
  5
9505
  8
0
 10
4022.0364790939311206
 20
81.8210741273521052
 30
0.0
 11
4022.0364790939311206
 21
81.8454907563172043
 31
0.0
  0
LINE
  5
9506
  8
0
 10
4022.0364790939311206
 20
81.8540106383172059
 30
0.0
 11
4022.0364790939311206
 21
81.8784272765172148
 31
0.0
  0
LINE
  5
9507
  8
0
 10
4022.0364790939311206
 20
81.8881123702503544
 30
0.0
 11
4022.0364790939311206
 21
81.8882886868172193
 31
0.0
  0
LINE
  5
9508
  8
0
 10
4022.0988583976309201
 20
81.7849859940172195
 30
0.0
 11
4022.0988583976309201
 21
81.8125542360172204
 31
0.0
  0
LINE
  5
9509
  8
0
 10
4022.0988583976309201
 20
81.8210741180172647
 30
0.0
 11
4022.0988583976309201
 21
81.8454907563172043
 31
0.0
  0
LINE
  5
950A
  8
0
 10
4022.0988583976309201
 20
81.8540106383172059
 30
0.0
 11
4022.0988583976309201
 21
81.8784272765172148
 31
0.0
  0
LINE
  5
950B
  8
0
 10
4022.0988583976309201
 20
81.886947158617204
 30
0.0
 11
4022.0988583976309201
 21
81.8882886868172193
 31
0.0
  0
LINE
  5
950C
  8
0
 10
4022.1095949544269388
 20
81.7849859942958943
 30
0.0
 11
4022.1095949544269388
 21
81.8125542360172204
 31
0.0
  0
LINE
  5
950D
  8
0
 10
4022.1095949544269388
 20
81.8210741180172079
 30
0.0
 11
4022.1095949544269388
 21
81.8454907563172043
 31
0.0
  0
LINE
  5
950E
  8
0
 10
4022.1095949544269388
 20
81.8540106383172201
 30
0.0
 11
4022.1095949544269388
 21
81.8784272765172148
 31
0.0
  0
LINE
  5
950F
  8
0
 10
4022.1095949544269388
 20
81.886947158617204
 30
0.0
 11
4022.1095949544269388
 21
81.8882886868172193
 31
0.0
  0
LINE
  5
9510
  8
0
 10
4022.171974258130831
 20
81.7849859943225539
 30
0.0
 11
4022.171974258130831
 21
81.8125542360172204
 31
0.0
  0
LINE
  5
9511
  8
0
 10
4022.171974258130831
 20
81.8210741181232351
 30
0.0
 11
4022.171974258130831
 21
81.8454907563172043
 31
0.0
  0
LINE
  5
9512
  8
0
 10
4022.171974258130831
 20
81.8540106384231763
 30
0.0
 11
4022.171974258130831
 21
81.8784272765172148
 31
0.0
  0
LINE
  5
9513
  8
0
 10
4022.171974258130831
 20
81.8880885431524348
 30
0.0
 11
4022.171974258130831
 21
81.8882886868172193
 31
0.0
  0
LINE
  5
9514
  8
0
 10
4022.1827108149309424
 20
81.7849859939172035
 30
0.0
 11
4022.1827108149309424
 21
81.8125542360172204
 31
0.0
  0
LINE
  5
9515
  8
0
 10
4022.1827108149309424
 20
81.8210741180172079
 30
0.0
 11
4022.1827108149309424
 21
81.8784272765172148
 31
0.0
  0
LINE
  5
9516
  8
0
 10
4022.1827108149309424
 20
81.8881123702504254
 30
0.0
 11
4022.1827108149309424
 21
81.8882886868172193
 31
0.0
  0
LINE
  5
9517
  8
0
 10
4022.2450901187307863
 20
81.7849859930475134
 30
0.0
 11
4022.2450901187307863
 21
81.8125542360172204
 31
0.0
  0
LINE
  5
9518
  8
0
 10
4022.2450901187307863
 20
81.8210741180171084
 30
0.0
 11
4022.2450901187307863
 21
81.8454907563172043
 31
0.0
  0
LINE
  5
9519
  8
0
 10
4022.2450901187307863
 20
81.8540106383172201
 30
0.0
 11
4022.2450901187307863
 21
81.8784272765172148
 31
0.0
  0
LINE
  5
951A
  8
0
 10
4022.2450901187307863
 20
81.8880885400150476
 30
0.0
 11
4022.2450901187307863
 21
81.8882886868172193
 31
0.0
  0
LINE
  5
951B
  8
0
 10
4022.2558266754358556
 20
81.7849859939385624
 30
0.0
 11
4022.2558266754358556
 21
81.8125542360172204
 31
0.0
  0
LINE
  5
951C
  8
0
 10
4022.2558266754358556
 20
81.821074118441274
 30
0.0
 11
4022.2558266754358556
 21
81.8454907563172043
 31
0.0
  0
LINE
  5
951D
  8
0
 10
4022.2558266754358556
 20
81.8540106387412436
 30
0.0
 11
4022.2558266754358556
 21
81.8784272765172148
 31
0.0
  0
LINE
  5
951E
  8
0
 10
4022.2558266754358556
 20
81.8881123707630962
 30
0.0
 11
4022.2558266754358556
 21
81.8882886868172193
 31
0.0
  0
LINE
  5
951F
  8
0
 10
4022.3182059791311076
 20
81.7849860034934153
 30
0.0
 11
4022.3182059791311076
 21
81.8125542360172204
 31
0.0
  0
LINE
  5
9520
  8
0
 10
4022.3182059791311076
 20
81.8210741273521762
 30
0.0
 11
4022.3182059791311076
 21
81.8454907563172043
 31
0.0
  0
LINE
  5
9521
  8
0
 10
4022.3182059791311076
 20
81.8540106383172059
 30
0.0
 11
4022.3182059791311076
 21
81.8784041558849793
 31
0.0
  0
LINE
  5
9522
  8
0
 10
4022.3182059791311076
 20
81.8882886868172193
 30
0.0
 11
4022.3182059791311076
 21
81.8880885431226062
 31
0.0
  0
LINE
  5
9523
  8
0
 10
4022.328942535931219
 20
81.7849859939172035
 30
0.0
 11
4022.328942535931219
 21
81.8125542360172204
 31
0.0
  0
LINE
  5
9524
  8
0
 10
4022.328942535931219
 20
81.8210741180172789
 30
0.0
 11
4022.328942535931219
 21
81.8454907563172043
 31
0.0
  0
LINE
  5
9525
  8
0
 10
4022.328942535931219
 20
81.8540106383174333
 30
0.0
 11
4022.328942535931219
 21
81.8784036512812179
 31
0.0
  0
LINE
  5
9526
  8
0
 10
4022.328942535931219
 20
81.8881123702313971
 30
0.0
 11
4022.328942535931219
 21
81.888288686836276
 31
0.0
  0
LINE
  5
9527
  8
0
 10
4021.8262635930309443
 20
81.8784272765172148
 30
0.0
 11
4021.8795108160311429
 21
81.878424773969158
 31
0.0
  0
LINE
  5
9528
  8
0
 10
4021.8877905620879574
 20
81.8784243848322149
 30
0.0
 11
4021.9544632199022089
 21
81.8784212513067331
 31
0.0
  0
LINE
  5
9529
  8
0
 10
4021.9611470202039527
 20
81.8784209371770828
 30
0.0
 11
4021.9633632333311652
 21
81.8784208330180405
 31
0.0
  0
LINE
  5
952A
  8
0
 10
4021.9633632333311652
 20
81.8784208330180263
 30
0.0
 11
4022.0275790798918933
 21
81.8784178149593771
 31
0.0
  0
LINE
  5
952B
  8
0
 10
4022.0339270027548082
 20
81.8784175166155279
 30
0.0
 11
4022.0364790939311206
 21
81.8784173966706703
 31
0.0
  0
LINE
  5
952C
  8
0
 10
4022.0364790939311206
 20
81.8784173966706703
 30
0.0
 11
4022.1006949402299142
 21
81.8784143786120353
 31
0.0
  0
LINE
  5
952D
  8
0
 10
4022.1070428630459901
 20
81.8784140802681861
 30
0.0
 11
4022.1095949544310315
 21
81.8784139603233143
 31
0.0
  0
LINE
  5
952E
  8
0
 10
4022.1095949544310315
 20
81.8784139603233143
 30
0.0
 11
4022.1738108005688446
 21
81.8784109422646793
 31
0.0
  0
LINE
  5
952F
  8
0
 10
4022.180158722826036
 20
81.8784106439208443
 30
0.0
 11
4022.1827108149309424
 21
81.8784105239759157
 31
0.0
  0
LINE
  5
9530
  8
0
 10
4022.1827108149309424
 20
81.8784105239759157
 30
0.0
 11
4022.2469266609068654
 21
81.8784075059173233
 31
0.0
  0
LINE
  5
9531
  8
0
 10
4022.2532745831640568
 20
81.8784072075734741
 30
0.0
 11
4022.2558266754322176
 21
81.8784070876285739
 31
0.0
  0
LINE
  5
9532
  8
0
 10
4022.2558266754322176
 20
81.8784070876285739
 30
0.0
 11
4022.3200425212457958
 21
81.8784040695699673
 31
0.0
  0
LINE
  5
9533
  8
0
 10
4022.3264182997218086
 20
81.8784037699169147
 30
0.0
 11
4022.328942535931219
 21
81.8784036512812179
 31
0.0
  0
LINE
  5
9534
  8
0
 10
4022.328942535931219
 20
81.8784036512812179
 30
0.0
 11
4022.393158374065024
 21
81.8784040695532553
 31
0.0
  0
LINE
  5
9535
  8
0
 10
4022.3913218397310629
 20
81.8540106383172201
 30
0.0
 11
4022.328942535931219
 21
81.8540106383172201
 31
0.0
  0
LINE
  5
9536
  8
0
 10
4022.3182059791311076
 20
81.8540106383172201
 30
0.0
 11
4022.2558266754322176
 21
81.8540106383172201
 31
0.0
  0
LINE
  5
9537
  8
0
 10
4022.2450901186321062
 20
81.8540106383172201
 30
0.0
 11
4022.1827108149309424
 21
81.8540106383172201
 31
0.0
  0
LINE
  5
9538
  8
0
 10
4022.1719742581321952
 20
81.8540106383172201
 30
0.0
 11
4022.1095949544310315
 21
81.8540106383172201
 31
0.0
  0
LINE
  5
9539
  8
0
 10
4022.0988583976309201
 20
81.8540106383172201
 30
0.0
 11
4022.0364790939311206
 21
81.8540106383172201
 31
0.0
  0
LINE
  5
953A
  8
0
 10
4022.0257425371310092
 20
81.8540106383172201
 30
0.0
 11
4021.9633632333311652
 21
81.8540106383172201
 31
0.0
  0
LINE
  5
953B
  8
0
 10
4021.952626676537875
 20
81.8540106383172201
 30
0.0
 11
4021.8902473728321638
 21
81.8540106383172201
 31
0.0
  0
LINE
  5
953C
  8
0
 10
4021.8795108161311873
 20
81.8540106383172201
 30
0.0
 11
4021.7964763242180197
 21
81.8540106383172201
 31
0.0
  0
LINE
  5
953D
  8
0
 10
4021.7962964173311775
 20
81.8454907563172043
 30
0.0
 11
4021.8817450880601427
 21
81.8454907563172043
 31
0.0
  0
LINE
  5
953E
  8
0
 10
4021.887827281862883
 20
81.8454969209336554
 30
0.0
 11
4021.9548609481471431
 21
81.8454907563172469
 31
0.0
  0
LINE
  5
953F
  8
0
 10
4021.9609431412832237
 20
81.8454901969805775
 30
0.0
 11
4021.9633632333311652
 21
81.8454899744216959
 31
0.0
  0
LINE
  5
9540
  8
0
 10
4021.9633632333311652
 20
81.8454907563172043
 30
0.0
 11
4022.0281592356041074
 21
81.8454907563172043
 31
0.0
  0
LINE
  5
9541
  8
0
 10
4022.034059003035054
 20
81.8454907563172043
 30
0.0
 11
4022.0364790939311206
 21
81.8454907563172043
 31
0.0
  0
LINE
  5
9542
  8
0
 10
4022.0364790939311206
 20
81.8454907563172043
 30
0.0
 11
4022.1010926695598755
 21
81.8454907563172043
 31
0.0
  0
LINE
  5
9543
  8
0
 10
4022.1010926695598755
 20
81.8454907563172043
 30
0.0
 11
4022.1012750960871927
 21
81.8454907563172043
 31
0.0
  0
LINE
  5
9544
  8
0
 10
4022.107174863534965
 20
81.8454907563172043
 30
0.0
 11
4022.1742085300661529
 21
81.8454907563172043
 31
0.0
  0
LINE
  5
9545
  8
0
 10
4022.1742085300661529
 20
81.8454907563172043
 30
0.0
 11
4022.1743909565620925
 21
81.8454907563172043
 31
0.0
  0
LINE
  5
9546
  8
0
 10
4022.1802907239630258
 20
81.8454907563172043
 30
0.0
 11
4022.2475068170620034
 21
81.8454907563172043
 31
0.0
  0
LINE
  5
9547
  8
0
 10
4022.2534065844629367
 20
81.8454907563172043
 30
0.0
 11
4022.3206226775450887
 21
81.8454907563172043
 31
0.0
  0
LINE
  5
9548
  8
0
 10
4022.3265224449642119
 20
81.8454907563172043
 30
0.0
 11
4022.328942535931219
 21
81.8454907563172043
 31
0.0
  0
LINE
  5
9549
  8
0
 10
4022.328942535931219
 20
81.8454907563172043
 30
0.0
 11
4022.3937385303638621
 21
81.8454907563005207
 31
0.0
  0
LINE
  5
954A
  8
0
 10
4021.7962964173311775
 20
81.8210741180172079
 30
0.0
 11
4021.8795108161311873
 21
81.8210741180172079
 31
0.0
  0
LINE
  5
954B
  8
0
 10
4021.8902473728321638
 20
81.8210741180172079
 30
0.0
 11
4021.9526266766320077
 21
81.8210741180172079
 31
0.0
  0
LINE
  5
954C
  8
0
 10
4021.9633632333311652
 20
81.8210741180172079
 30
0.0
 11
4022.0257425371310092
 21
81.8210741180172079
 31
0.0
  0
LINE
  5
954D
  8
0
 10
4022.0364790939311206
 20
81.8210741180172079
 30
0.0
 11
4022.0988583976309201
 21
81.8210741180172079
 31
0.0
  0
LINE
  5
954E
  8
0
 10
4022.1095949544310315
 20
81.8210741180172079
 30
0.0
 11
4022.1719742581321952
 21
81.8210741180172079
 31
0.0
  0
LINE
  5
954F
  8
0
 10
4022.1827108149309424
 20
81.8210741180172079
 30
0.0
 11
4022.2450901187307863
 21
81.8210741180172079
 31
0.0
  0
LINE
  5
9550
  8
0
 10
4022.2558266754322176
 20
81.8210741180172079
 30
0.0
 11
4022.318205979231152
 21
81.8210741180172079
 31
0.0
  0
LINE
  5
9551
  8
0
 10
4022.328942535931219
 20
81.8210741180172079
 30
0.0
 11
4022.3913218397310629
 21
81.8210741180172079
 31
0.0
  0
LINE
  5
9552
  8
0
 10
4022.3937385310491663
 20
81.8125542360005227
 30
0.0
 11
4022.328942535931219
 21
81.8125542360172204
 31
0.0
  0
LINE
  5
9553
  8
0
 10
4022.328942535931219
 20
81.8125542360172204
 30
0.0
 11
4022.326522444512193
 21
81.8125542360172204
 31
0.0
  0
LINE
  5
9554
  8
0
 10
4022.3206226782290287
 20
81.8125542360172204
 30
0.0
 11
4022.2534065840100084
 21
81.8125542360172204
 31
0.0
  0
LINE
  5
9555
  8
0
 10
4022.2475068177468529
 20
81.8125542360172204
 30
0.0
 11
4022.1802907235100975
 21
81.8125542360172204
 31
0.0
  0
LINE
  5
9556
  8
0
 10
4022.1743909572460325
 20
81.8125542360172204
 30
0.0
 11
4022.1742085300661529
 21
81.8125542360172204
 31
0.0
  0
LINE
  5
9557
  8
0
 10
4022.1742085300661529
 20
81.8125542360172204
 30
0.0
 11
4022.107174863011096
 21
81.8125542360172204
 31
0.0
  0
LINE
  5
9558
  8
0
 10
4022.1012750967720422
 20
81.8125542360172204
 30
0.0
 11
4022.1010926695598755
 21
81.8125542360172204
 31
0.0
  0
LINE
  5
9559
  8
0
 10
4022.1010926695598755
 20
81.8125542360172204
 30
0.0
 11
4022.0364790939311206
 21
81.8125542360172204
 31
0.0
  0
LINE
  5
955A
  8
0
 10
4022.0364790939311206
 20
81.8125542360172204
 30
0.0
 11
4022.0340590025098209
 21
81.8125542360172204
 31
0.0
  0
LINE
  5
955B
  8
0
 10
4022.0281592362712217
 20
81.8125542360172204
 30
0.0
 11
4021.9633632333311652
 21
81.8125542360172204
 31
0.0
  0
LINE
  5
955C
  8
0
 10
4021.9633632333311652
 20
81.8125542360172204
 30
0.0
 11
4021.9609431413769016
 21
81.8125542360172204
 31
0.0
  0
LINE
  5
955D
  8
0
 10
4021.95504337591683
 20
81.8125542360172204
 30
0.0
 11
4021.8902473728321638
 21
81.8125542360172204
 31
0.0
  0
LINE
  5
955E
  8
0
 10
4021.8817274908310537
 20
81.8125542360172204
 30
0.0
 11
4021.7962964173311775
 21
81.8125542360172204
 31
0.0
  0
LINE
  5
955F
  8
0
 10
4021.7962964173311775
 20
81.8045931941172171
 30
0.0
 11
4021.7962964173311775
 21
81.8508198893172221
 31
0.0
  0
ARC
  5
9560
  8
0
 10
4021.8290593426518171
 20
81.8505730340898765
 30
0.0
 40
0.0327638552832209
 50
151.9696043139448136
 51
179.5683079303437069
  0
ARC
  5
9561
  8
0
 10
4021.8473173943921211
 20
81.8123588699589845
 30
0.0
 40
0.051608582828019
 50
188.6543133846494129
 51
250.7003744640416016
  0
ARC
  5
9562
  8
0
 10
4021.8834721527459806
 20
81.8860087157631682
 30
0.0
 40
0.1334279716554884
 50
246.4964693644953115
 51
270.6041710256088777
  0
ARC
  5
9563
  8
0
 10
4021.8851984236871431
 20
81.7172136438195054
 30
0.0
 40
0.1710347818095544
 50
91.905670890158575
 51
97.0721971064804734
  0
ARC
  5
9564
  8
0
 10
4021.8878373490861122
 20
81.6526989904985072
 30
0.0
 40
0.2356020229666744
 50
89.4138989315109569
 51
92.0253415687952554
  0
LINE
  5
9565
  8
0
 10
4021.8868475984309043
 20
81.7387302918172196
 30
0.0
 11
4021.9144066535309321
 21
81.7387302918172196
 31
0.0
  0
LINE
  5
9566
  8
0
 10
4021.9144066535309321
 20
81.7387302918172196
 30
0.0
 11
4021.9144066535309321
 21
81.7572108316172148
 31
0.0
  0
LINE
  5
9567
  8
0
 10
4021.9144066535309321
 20
81.7572108316172148
 30
0.0
 11
4022.0797609842311431
 21
81.7572108316172148
 31
0.0
  0
LINE
  5
9568
  8
0
 10
4022.0797609842311431
 20
81.7572108316172148
 30
0.0
 11
4022.0797609842311431
 21
81.7352531515172132
 31
0.0
  0
LINE
  5
9569
  8
0
 10
4022.0797609842311431
 20
81.7352531515172132
 30
0.0
 11
4022.0994460236320265
 21
81.7352531515172132
 31
0.0
  0
LINE
  5
956A
  8
0
 10
4022.0994460236320265
 20
81.7352531515172132
 30
0.0
 11
4022.0994460236320265
 21
81.7572108316172148
 31
0.0
  0
LINE
  5
956B
  8
0
 10
4022.0994460236320265
 20
81.7572108316172148
 30
0.0
 11
4022.3396035039309027
 21
81.7572108316172148
 31
0.0
  0
LINE
  5
956C
  8
0
 10
4022.3396035039309027
 20
81.7572108316172148
 30
0.0
 11
4022.3396035039309027
 21
81.7352531515172132
 31
0.0
  0
LINE
  5
956D
  8
0
 10
4022.3396035039309027
 20
81.7352531515172132
 30
0.0
 11
4022.3592885433317861
 21
81.7352531515172132
 31
0.0
  0
LINE
  5
956E
  8
0
 10
4022.3592885433317861
 20
81.7352531515172132
 30
0.0
 11
4022.3592885433317861
 21
81.7572108316172148
 31
0.0
  0
LINE
  5
956F
  8
0
 10
4021.471489609281889
 20
71.331347107717221
 30
0.0
 11
4021.471489609281889
 21
71.2132368715172248
 31
0.0
  0
LINE
  5
9570
  8
0
 10
4022.3061389370318466
 20
82.9464510770172438
 30
0.0
 11
4022.3061389370318466
 21
83.1285912021172209
 31
0.0
  0
LINE
  5
9571
  8
0
 10
4022.2588948425309354
 20
83.1404022257172244
 30
0.0
 11
4022.2588948425309354
 21
85.9435518320172207
 31
0.0
  0
ARC
  5
9572
  8
0
 10
4022.5148003544309177
 20
85.9435518320172207
 30
0.0
 40
0.0196850393999979
 50
0.0
 51
90.0
  0
ARC
  5
9573
  8
0
 10
4022.5226743701309715
 20
83.1404022257172244
 30
0.0
 40
0.0118110235999982
 50
270.0
 51
0.0000000000130276
  0
ARC
  5
9574
  8
0
 10
4022.3966901209028038
 20
82.2578982952355204
 30
0.0
 40
0.6968503866406851
 50
62.2593407200445625
 51
81.0732414256483622
  0
ARC
  5
9575
  8
0
 10
4023.184091693101891
 20
82.8549691549879554
 30
0.0
 40
0.0196850392292891
 50
359.9999997941882839
 51
90.0000004968708254
  0
ARC
  5
9576
  8
0
 10
4023.1843809335650803
 20
81.9027118245102344
 30
0.0
 40
0.0298096604788028
 50
67.0360146169343807
 51
90.5559448621056191
  0
ARC
  5
9577
  8
0
 10
4023.1911622658130909
 20
81.9174795666724549
 30
0.0
 40
0.0135750727924484
 50
28.7474052744173711
 51
69.0718263185763988
  0
ARC
  5
9578
  8
0
 10
4023.1964991967188325
 20
81.9208663859979112
 30
0.0
 40
0.0072781823176467
 50
0.7638048769989422
 51
25.5764364893502787
  0
ARC
  5
9579
  8
0
 10
4023.1919657087319138
 20
81.6852072628172152
 30
0.0
 40
0.0118110235999991
 50
270.0
 51
359.9999999941057922
  0
ARC
  5
957A
  8
0
 10
4022.9649696074529857
 20
81.7808226672301828
 30
0.0
 40
0.0599534462419417
 50
298.1658381232750799
 51
354.4586183933997745
  0
ARC
  5
957B
  8
0
 10
4022.9100851267780854
 20
81.8718667901936499
 30
0.0
 40
0.1662115176225071
 50
268.7753067504103228
 51
300.0311558869697137
  0
ARC
  5
957C
  8
0
 10
4022.9819550028801132
 20
81.8187455540827671
 30
0.0
 40
0.0426883543557513
 50
0.2725860866784169
 51
24.8021224714496284
  0
ARC
  5
957D
  8
0
 10
4022.9570173277820686
 20
81.8046399070173038
 30
0.0
 40
0.0712814800799626
 50
26.6862155227199693
 51
59.4643847670893919
  0
ARC
  5
957E
  8
0
 10
4022.9155472149841444
 20
81.7366717512636853
 30
0.0
 40
0.1508979110141996
 50
59.0140855388419396
 51
84.7938534989683319
  0
LINE
  5
957F
  8
0
 10
4023.0246428741320415
 20
81.7750332838172369
 30
0.0
 11
4023.0246428741320415
 21
81.8189486442171159
 31
0.0
  0
LINE
  5
9580
  8
0
 10
4023.20377307398212
 20
71.3628431707170705
 30
0.0
 11
4023.2037767323317894
 21
82.854969154917228
 31
0.0
  0
ARC
  5
9581
  8
0
 10
4023.1919620503817896
 20
71.3628431707172268
 30
0.0
 40
0.0118110236000004
 50
270.0000000003126956
 51
359.9999999993021902
  0
ARC
  5
9582
  8
0
 10
4023.3021982709519762
 20
71.331347107887936
 30
0.0
 40
0.0196850392292896
 50
359.9999995031266735
 51
90.0000002058092718
  0
ARC
  5
9583
  8
0
 10
4023.3021982709519762
 20
71.2132368713465098
 30
0.0
 40
0.01968503922929
 50
269.9999997941907282
 51
0.0000004968724608
  0
ARC
  5
9584
  8
0
 10
4022.9733366987638874
 20
81.8062551170855272
 30
0.0
 40
0.0473983123600184
 50
311.9564064287254723
 51
357.9906311224116848
  0
ARC
  5
9585
  8
0
 10
4022.9317760320568595
 20
81.8503727582452569
 30
0.0
 40
0.108001787539568
 50
286.1660432474303093
 51
312.7050982602507929
  0
ARC
  5
9586
  8
0
 10
4022.909081365259226
 20
81.9182359779337759
 30
0.0
 40
0.1795237793567307
 50
269.1865354711189866
 51
287.0924879481605103
  0
LINE
  5
9587
  8
0
 10
4023.0207058662308555
 20
81.8045931941172171
 30
0.0
 11
4023.0207058662308555
 21
81.8366527087172244
 31
0.0
  0
LINE
  5
9588
  8
0
 10
4022.9006271260309404
 20
81.7710788402172142
 30
0.0
 11
4022.9006271260309404
 21
81.7806402137172341
 31
0.0
  0
LINE
  5
9589
  8
0
 10
4022.9085011418310387
 20
81.7525881621172061
 30
0.0
 11
4022.9085011418310387
 21
81.7621495357172137
 31
0.0
  0
ARC
  5
958A
  8
0
 10
4022.9088625288600269
 20
81.7671777290872086
 30
0.0
 40
0.0050411634669592
 50
265.8890990792650086
 51
353.3151923299687951
  0
ARC
  5
958B
  8
0
 10
4022.9123002307919705
 20
81.9156155128368084
 30
0.0
 40
0.1207051632119049
 50
270.7448767093148945
 51
301.3514493234504243
  0
LINE
  5
958C
  8
0
 10
4022.9138694202310944
 20
81.7665909006172171
 30
0.0
 11
4022.9138694202310944
 21
81.8125542360172204
 31
0.0
  0
LINE
  5
958D
  8
0
 10
4022.903132863430983
 20
81.8125542360172204
 30
0.0
 11
4022.903132863430983
 21
81.7849859941172355
 31
0.0
  0
ARC
  5
958E
  8
0
 10
4022.9080728254862152
 20
81.7855996885676433
 30
0.0
 40
0.0049779359030979
 50
187.0816059423266893
 51
265.0639958086375145
  0
LINE
  5
958F
  8
0
 10
4022.908501142330806
 20
81.7806402137172341
 30
0.0
 11
4022.9006271260309404
 21
81.7806402137172341
 31
0.0
  0
ARC
  5
9590
  8
0
 10
4022.9037158619162255
 20
81.8556102011593936
 30
0.0
 40
0.0102787813342436
 50
280.2956014213780804
 51
351.0473631367349867
  0
ARC
  5
9591
  8
0
 10
4022.913224970716783
 20
81.855579598107397
 30
0.0
 40
0.0102133375687707
 50
188.8366950224911136
 51
261.0448422032069971
  0
ARC
  5
9592
  8
0
 10
4022.9039584022998497
 20
81.8225388314212267
 30
0.0
 40
0.0100186655700892
 50
265.2734640345320258
 51
351.5933149144461254
  0
ARC
  5
9593
  8
0
 10
4022.9132184165468971
 20
81.8226397891326513
 30
0.0
 40
0.0102063562394158
 50
188.8241045622700085
 51
261.1758954377315831
  0
ARC
  5
9594
  8
0
 10
4022.9037069041492032
 20
81.8884163499784421
 30
0.0
 40
0.0101678016528505
 50
280.6710335661456952
 51
358.1524811889760826
  0
ARC
  5
9595
  8
0
 10
4022.9129485183871111
 20
81.8882005285337158
 30
0.0
 40
0.0098160508393288
 50
179.4854177549846099
 51
275.3523322595682998
  0
ARC
  5
9596
  8
0
 10
4022.8305831727388977
 20
81.8556186432379178
 30
0.0
 40
0.0102967204129853
 50
280.3726593387629009
 51
351.015532018166482
  0
ARC
  5
9597
  8
0
 10
4022.8401716432831563
 20
81.8556109759432502
 30
0.0
 40
0.0102799707978432
 50
188.9559643073139057
 51
259.7186893882958998
  0
ARC
  5
9598
  8
0
 10
4022.8305845740451332
 20
81.8226814200302357
 30
0.0
 40
0.0102952265394201
 50
280.3662524192976093
 51
351.0181780067239856
  0
ARC
  5
9599
  8
0
 10
4022.8401849291258259
 20
81.8226811223175758
 30
0.0
 40
0.0102941334922285
 50
188.9811059878460924
 51
259.657824532666325
  0
ARC
  5
959A
  8
0
 10
4022.8306720473337919
 20
81.8883852578158837
 30
0.0
 40
0.0100858779281053
 50
278.9044773096064773
 51
358.3141818565663925
  0
ARC
  5
959B
  8
0
 10
4022.8398440812738954
 20
81.8882048623099337
 30
0.0
 40
0.0098274357599581
 50
179.511281886943209
 51
264.5869903079533856
  0
ARC
  5
959C
  8
0
 10
4022.7574687136670946
 20
81.855617940352559
 30
0.0
 40
0.0102952263310014
 50
280.3662453872263995
 51
351.0181779788366043
  0
ARC
  5
959D
  8
0
 10
4022.767069067931061
 20
81.8556176423268056
 30
0.0
 40
0.0102941329356028
 50
188.9811045572263879
 51
259.6578324943919256
  0
ARC
  5
959E
  8
0
 10
4022.7574687134401756
 20
81.8226814200402828
 30
0.0
 40
0.0102952264541166
 50
280.3662495129631225
 51
351.0181781567305279
  0
ARC
  5
959F
  8
0
 10
4022.7670690684149122
 20
81.8226811223550357
 30
0.0
 40
0.0102941334652658
 50
188.9811059407641096
 51
259.6578265156289262
  0
ARC
  5
95A0
  8
0
 10
4022.7574185045391459
 20
81.8884381989955443
 30
0.0
 40
0.0102251746846706
 50
281.4780258874351944
 51
358.0403549898315987
  0
ARC
  5
95A1
  8
0
 10
4022.7667347433080067
 20
81.8882073369802583
 30
0.0
 40
0.0098339374600115
 50
179.5260234771201056
 51
264.5524091193834124
  0
ARC
  5
95A2
  8
0
 10
4022.6843528532990604
 20
81.8556179401040538
 30
0.0
 40
0.010295226062762
 50
280.3662449125710054
 51
351.0181791433755052
  0
ARC
  5
95A3
  8
0
 10
4022.6939532074247836
 20
81.8556176423230255
 30
0.0
 40
0.010294132927557
 50
188.9811045430018908
 51
259.6578326221576845
  0
ARC
  5
95A4
  8
0
 10
4022.68435285293981
 20
81.8226814200402828
 30
0.0
 40
0.0102952264541365
 50
280.3662495136787243
 51
351.0181781566968198
  0
ARC
  5
95A5
  8
0
 10
4022.6939532079150013
 20
81.8226811223550357
 30
0.0
 40
0.0102941334652739
 50
188.9811059407736877
 51
259.6578265150725997
  0
ARC
  5
95A6
  8
0
 10
4022.6842949132969807
 20
81.8884411791221112
 30
0.0
 40
0.0102330031736138
 50
281.5132976058766872
 51
358.0251588391870996
  0
ARC
  5
95A7
  8
0
 10
4022.6936254111187736
 20
81.8882098137217014
 30
0.0
 40
0.0098404453844863
 50
179.5407581972818036
 51
264.5178392905660871
  0
ARC
  5
95A8
  8
0
 10
4022.6112369927659529
 20
81.8556179401205668
 30
0.0
 40
0.0102952260979135
 50
280.366245471032812
 51
351.0181790812790723
  0
ARC
  5
95A9
  8
0
 10
4022.6208373469121398
 20
81.8556176423172559
 30
0.0
 40
0.0102941329152848
 50
188.9811045212975102
 51
259.6578328180168
  0
ARC
  5
95AA
  8
0
 10
4022.6112369924408085
 20
81.822681420040297
 30
0.0
 40
0.0102952264541449
 50
280.3662495134399251
 51
351.0181781566869859
  0
ARC
  5
95AB
  8
0
 10
4022.6208373474041764
 20
81.822681122349266
 30
0.0
 40
0.0102941334530109
 50
188.9811059190894014
 51
259.6578267108263276
  0
ARC
  5
95AC
  8
0
 10
4022.6111713145701287
 20
81.8884441621324157
 30
0.0
 40
0.0102408399603991
 50
281.548555974651606
 51
358.0099712522946902
  0
ARC
  5
95AD
  8
0
 10
4022.6205160845252067
 20
81.8882122925858056
 30
0.0
 40
0.0098469595372231
 50
179.5554860429394921
 51
264.4832839540080727
  0
ARC
  5
95AE
  8
0
 10
4022.465005271766131
 20
81.8556179401206379
 30
0.0
 40
0.0102952260978383
 50
280.3662454670067063
 51
351.0181790814110059
  0
ARC
  5
95AF
  8
0
 10
4022.4746056259041325
 20
81.8556176423135469
 30
0.0
 40
0.0102941329071777
 50
188.9811045069612021
 51
259.6578329499675988
  0
ARC
  5
95B0
  8
0
 10
4022.4650052714409867
 20
81.8226814200403254
 30
0.0
 40
0.010295226454065
 50
280.3662495094134783
 51
351.0181781568247175
  0
ARC
  5
95B1
  8
0
 10
4022.4746056263961691
 20
81.8226811223455428
 30
0.0
 40
0.0102941334449018
 50
188.981105904758806
 51
259.657826842803388
  0
ARC
  5
95B2
  8
0
 10
4022.4649369426228986
 20
81.8884451428997124
 30
0.0
 40
0.0102435234049542
 50
281.4016337619419801
 51
358.0050036716685895
  0
ARC
  5
95B3
  8
0
 10
4022.4742974481378042
 20
81.888217256688435
 30
0.0
 40
0.0098600065459471
 50
179.5849210957152025
 51
264.4142167592730743
  0
ARC
  5
95B4
  8
0
 10
4022.538121132266042
 20
81.8556179401205952
 30
0.0
 40
0.0102952260980248
 50
280.366245473866627
 51
351.0181790810818825
  0
ARC
  5
95B5
  8
0
 10
4022.5477214864131383
 20
81.8556176423172417
 30
0.0
 40
0.0102941329153125
 50
188.9811045213569969
 51
259.6578328165869038
  0
ARC
  5
95B6
  8
0
 10
4022.5381211319399881
 20
81.8226814200403254
 30
0.0
 40
0.01029522645426
 50
280.3662495162740242
 51
351.0181781564812127
  0
ARC
  5
95B7
  8
0
 10
4022.5477214869038107
 20
81.8226811223492376
 30
0.0
 40
0.0102941334530367
 50
188.9811059191385141
 51
259.6578267093959766
  0
ARC
  5
95B8
  8
0
 10
4022.5380477088410771
 20
81.8884471478435216
 30
0.0
 40
0.0102486845593143
 50
281.5837926758416074
 51
357.9947931735154043
  0
ARC
  5
95B9
  8
0
 10
4022.5474067635300344
 20
81.8882147735741057
 30
0.0
 40
0.0098534799228396
 50
179.5702070103349115
 51
264.4487431058677771
  0
ARC
  5
95BA
  8
0
 10
4022.8353852813138474
 20
81.7861289308201833
 30
0.0
 40
0.0054885987861923
 50
192.0191323124541896
 51
347.9808644856361184
  0
ARC
  5
95BB
  8
0
 10
4022.7622694207630047
 20
81.7861289308819579
 30
0.0
 40
0.0054885988479576
 50
192.0191328344189969
 51
347.9808639636743806
  0
ARC
  5
95BC
  8
0
 10
4022.6891535602630938
 20
81.7861289308819579
 30
0.0
 40
0.0054885988479568
 50
192.0191328344006081
 51
347.9808639636902967
  0
ARC
  5
95BD
  8
0
 10
4022.6160376996458581
 20
81.7861289310527582
 30
0.0
 40
0.0054885989355849
 50
192.0191430010436022
 51
347.980865537383977
  0
ARC
  5
95BE
  8
0
 10
4022.5429218392728217
 20
81.7861289311053667
 30
0.0
 40
0.0054885989881858
 50
192.019139176335301
 51
347.9808565544453813
  0
ARC
  5
95BF
  8
0
 10
4022.4698059786887825
 20
81.7861289311053667
 30
0.0
 40
0.0054885989881854
 50
192.0191434455506112
 51
347.9808608236671148
  0
LINE
  5
95C0
  8
0
 10
4022.9138694202310944
 20
81.8210741180172079
 30
0.0
 11
4022.9138694202310944
 21
81.8454907563172043
 31
0.0
  0
LINE
  5
95C1
  8
0
 10
4022.9138694201319595
 20
81.8540106383172201
 30
0.0
 11
4022.9138694202310944
 21
81.8784272765172148
 31
0.0
  0
LINE
  5
95C2
  8
0
 10
4022.9138694202310944
 20
81.8880885431172061
 30
0.0
 11
4022.9138694202310944
 21
81.8881538313349182
 31
0.0
  0
LINE
  5
95C3
  8
0
 10
4022.9031328632900113
 20
81.8210741189276121
 30
0.0
 11
4022.9031328628848314
 21
81.8454966983748022
 31
0.0
  0
LINE
  5
95C4
  8
0
 10
4022.903132863430983
 20
81.8540106383172628
 30
0.0
 11
4022.903132863430983
 21
81.8784272765172148
 31
0.0
  0
LINE
  5
95C5
  8
0
 10
4022.903132863430983
 20
81.8881123702503544
 30
0.0
 11
4022.903132863430983
 21
81.8882886868172193
 31
0.0
  0
LINE
  5
95C6
  8
0
 10
4022.840753559732093
 20
81.7849860032935112
 30
0.0
 11
4022.840753559732093
 21
81.8125542360172204
 31
0.0
  0
LINE
  5
95C7
  8
0
 10
4022.840753559732093
 20
81.8210741273523041
 30
0.0
 11
4022.840753559732093
 21
81.8454907563172043
 31
0.0
  0
LINE
  5
95C8
  8
0
 10
4022.8407535597161768
 20
81.8540106382672263
 30
0.0
 11
4022.840753559732093
 21
81.8784272765172148
 31
0.0
  0
LINE
  5
95C9
  8
0
 10
4022.840753559732093
 20
81.888088540426935
 30
0.0
 11
4022.840753559732093
 21
81.8882886868172193
 31
0.0
  0
LINE
  5
95CA
  8
0
 10
4022.8300170029310721
 20
81.7849859943172248
 30
0.0
 11
4022.8300170029310721
 21
81.8125542360172204
 31
0.0
  0
LINE
  5
95CB
  8
0
 10
4022.8300170029310721
 20
81.8210741180172079
 30
0.0
 11
4022.8300170029310721
 21
81.8454907563172043
 31
0.0
  0
LINE
  5
95CC
  8
0
 10
4022.8300170029310721
 20
81.854010638317277
 30
0.0
 11
4022.8300170029310721
 21
81.8784272765172148
 31
0.0
  0
LINE
  5
95CD
  8
0
 10
4022.8300170029310721
 20
81.8881123796834629
 30
0.0
 11
4022.8300170029310721
 21
81.8882886868172193
 31
0.0
  0
LINE
  5
95CE
  8
0
 10
4022.7676376991307734
 20
81.7849859941172355
 30
0.0
 11
4022.7676376991307734
 21
81.8125542360172204
 31
0.0
  0
LINE
  5
95CF
  8
0
 10
4022.7676376991307734
 20
81.8210741180172079
 30
0.0
 11
4022.7676376991307734
 21
81.8454907563172043
 31
0.0
  0
LINE
  5
95D0
  8
0
 10
4022.7676376991307734
 20
81.8540106383171633
 30
0.0
 11
4022.7676376991307734
 21
81.8784272765172148
 31
0.0
  0
LINE
  5
95D1
  8
0
 10
4022.7676376991307734
 20
81.8880885431172061
 30
0.0
 11
4022.7676376991307734
 21
81.8882886868172193
 31
0.0
  0
LINE
  5
95D2
  8
0
 10
4022.7569011423320262
 20
81.7849859947172035
 30
0.0
 11
4022.7569011423320262
 21
81.8125542360172204
 31
0.0
  0
LINE
  5
95D3
  8
0
 10
4022.7569011423320262
 20
81.8210741273521052
 30
0.0
 11
4022.7569011423320262
 21
81.8454907563172043
 31
0.0
  0
LINE
  5
95D4
  8
0
 10
4022.7569011423320262
 20
81.8540106383172059
 30
0.0
 11
4022.7569011423320262
 21
81.8784272765172148
 31
0.0
  0
LINE
  5
95D5
  8
0
 10
4022.7569011423320262
 20
81.8881123702503544
 30
0.0
 11
4022.7569011423320262
 21
81.8882886868172193
 31
0.0
  0
LINE
  5
95D6
  8
0
 10
4022.6945218386322267
 20
81.7849859940172195
 30
0.0
 11
4022.6945218386322267
 21
81.8125542360172204
 31
0.0
  0
LINE
  5
95D7
  8
0
 10
4022.6945218386322267
 20
81.8210741180172647
 30
0.0
 11
4022.6945218386322267
 21
81.8454907563172043
 31
0.0
  0
LINE
  5
95D8
  8
0
 10
4022.6945218386322267
 20
81.8540106383172059
 30
0.0
 11
4022.6945218386322267
 21
81.8784272765172148
 31
0.0
  0
LINE
  5
95D9
  8
0
 10
4022.6945218386322267
 20
81.886947158617204
 30
0.0
 11
4022.6945218386322267
 21
81.8882886868172193
 31
0.0
  0
LINE
  5
95DA
  8
0
 10
4022.683785281836208
 20
81.7849859942958943
 30
0.0
 11
4022.683785281836208
 21
81.8125542360172204
 31
0.0
  0
LINE
  5
95DB
  8
0
 10
4022.683785281836208
 20
81.8210741180172079
 30
0.0
 11
4022.683785281836208
 21
81.8454907563172043
 31
0.0
  0
LINE
  5
95DC
  8
0
 10
4022.683785281836208
 20
81.8540106383172201
 30
0.0
 11
4022.683785281836208
 21
81.8784272765172148
 31
0.0
  0
LINE
  5
95DD
  8
0
 10
4022.683785281836208
 20
81.886947158617204
 30
0.0
 11
4022.683785281836208
 21
81.8882886868172193
 31
0.0
  0
LINE
  5
95DE
  8
0
 10
4022.621405978131861
 20
81.7849859943225539
 30
0.0
 11
4022.621405978131861
 21
81.8125542360172204
 31
0.0
  0
LINE
  5
95DF
  8
0
 10
4022.621405978131861
 20
81.8210741181232351
 30
0.0
 11
4022.621405978131861
 21
81.8454907563172043
 31
0.0
  0
LINE
  5
95E0
  8
0
 10
4022.621405978131861
 20
81.8540106384231763
 30
0.0
 11
4022.621405978131861
 21
81.8784272765172148
 31
0.0
  0
LINE
  5
95E1
  8
0
 10
4022.621405978131861
 20
81.8880885431524348
 30
0.0
 11
4022.621405978131861
 21
81.8882886868172193
 31
0.0
  0
LINE
  5
95E2
  8
0
 10
4022.6106694213308401
 20
81.7849859939172035
 30
0.0
 11
4022.6106694213308401
 21
81.8125542360172204
 31
0.0
  0
LINE
  5
95E3
  8
0
 10
4022.6106694213308401
 20
81.8210741180172079
 30
0.0
 11
4022.6106694213308401
 21
81.8784272765172148
 31
0.0
  0
LINE
  5
95E4
  8
0
 10
4022.6106694213308401
 20
81.8881123702504254
 30
0.0
 11
4022.6106694213308401
 21
81.8882886868172193
 31
0.0
  0
LINE
  5
95E5
  8
0
 10
4022.5482901175319057
 20
81.7849859930475134
 30
0.0
 11
4022.5482901175319057
 21
81.8125542360172204
 31
0.0
  0
LINE
  5
95E6
  8
0
 10
4022.5482901175319057
 20
81.8210741180171084
 30
0.0
 11
4022.5482901175319057
 21
81.8454907563172043
 31
0.0
  0
LINE
  5
95E7
  8
0
 10
4022.5482901175319057
 20
81.8540106383172201
 30
0.0
 11
4022.5482901175319057
 21
81.8784272765172148
 31
0.0
  0
LINE
  5
95E8
  8
0
 10
4022.5482901175319057
 20
81.8880885400150476
 30
0.0
 11
4022.5482901175319057
 21
81.8882886868172193
 31
0.0
  0
LINE
  5
95E9
  8
0
 10
4022.5375535608268365
 20
81.7849859939385624
 30
0.0
 11
4022.5375535608268365
 21
81.8125542360172204
 31
0.0
  0
LINE
  5
95EA
  8
0
 10
4022.5375535608268365
 20
81.821074118441274
 30
0.0
 11
4022.5375535608268365
 21
81.8454907563172043
 31
0.0
  0
LINE
  5
95EB
  8
0
 10
4022.5375535608268365
 20
81.8540106387412436
 30
0.0
 11
4022.5375535608268365
 21
81.8784272765172148
 31
0.0
  0
LINE
  5
95EC
  8
0
 10
4022.5375535608268365
 20
81.8881123707630962
 30
0.0
 11
4022.5375535608268365
 21
81.8882886868172193
 31
0.0
  0
LINE
  5
95ED
  8
0
 10
4022.4751742571311297
 20
81.7849860034934153
 30
0.0
 11
4022.4751742571311297
 21
81.8125542360172204
 31
0.0
  0
LINE
  5
95EE
  8
0
 10
4022.4751742571311297
 20
81.8210741273521762
 30
0.0
 11
4022.4751742571311297
 21
81.8454907563172043
 31
0.0
  0
LINE
  5
95EF
  8
0
 10
4022.4751742571311297
 20
81.8540106383172059
 30
0.0
 11
4022.4751742571311297
 21
81.8784041558849793
 31
0.0
  0
LINE
  5
95F0
  8
0
 10
4022.4751742571311297
 20
81.886947158617204
 30
0.0
 11
4022.4751742571311297
 21
81.8880885431226062
 31
0.0
  0
LINE
  5
95F1
  8
0
 10
4022.4644377003310183
 20
81.7849859939172035
 30
0.0
 11
4022.4644377003310183
 21
81.8125542360172204
 31
0.0
  0
LINE
  5
95F2
  8
0
 10
4022.4644377003310183
 20
81.8210741180172789
 30
0.0
 11
4022.4644377003310183
 21
81.8454907563172043
 31
0.0
  0
LINE
  5
95F3
  8
0
 10
4022.4644377003310183
 20
81.8540106383174333
 30
0.0
 11
4022.4644377003310183
 21
81.8784036512812179
 31
0.0
  0
LINE
  5
95F4
  8
0
 10
4022.4644377003310183
 20
81.8881123702313971
 30
0.0
 11
4022.4644377003310183
 21
81.888288686836276
 31
0.0
  0
LINE
  5
95F5
  8
0
 10
4022.9671166432322025
 20
81.8784272765172148
 30
0.0
 11
4022.9138694202310944
 21
81.878424773969158
 31
0.0
  0
LINE
  5
95F6
  8
0
 10
4022.9055896741751894
 20
81.8784243848322149
 30
0.0
 11
4022.8389170163600284
 21
81.8784212513067331
 31
0.0
  0
LINE
  5
95F7
  8
0
 10
4022.8322332160591941
 20
81.8784209371770828
 30
0.0
 11
4022.8300170029310721
 21
81.8784208330180405
 31
0.0
  0
LINE
  5
95F8
  8
0
 10
4022.8300170029310721
 20
81.8784208330180263
 30
0.0
 11
4022.7658011563707987
 21
81.8784178149593771
 31
0.0
  0
LINE
  5
95F9
  8
0
 10
4022.7594532335069744
 20
81.8784175166155279
 30
0.0
 11
4022.7569011423320262
 21
81.8784173966706703
 31
0.0
  0
LINE
  5
95FA
  8
0
 10
4022.7569011423320262
 20
81.8784173966706703
 30
0.0
 11
4022.6926852960318683
 21
81.8784143786120353
 31
0.0
  0
LINE
  5
95FB
  8
0
 10
4022.6863373732171567
 20
81.8784140802681861
 30
0.0
 11
4022.6837852818321153
 21
81.8784139603233143
 31
0.0
  0
LINE
  5
95FC
  8
0
 10
4022.6837852818321153
 20
81.8784139603233143
 30
0.0
 11
4022.619569435692938
 21
81.8784109422646793
 31
0.0
  0
LINE
  5
95FD
  8
0
 10
4022.6132215134371108
 20
81.8784106439208443
 30
0.0
 11
4022.6106694213308401
 21
81.8784105239759157
 31
0.0
  0
LINE
  5
95FE
  8
0
 10
4022.6106694213308401
 20
81.8784105239759157
 30
0.0
 11
4022.5464535753549171
 21
81.8784075059173233
 31
0.0
  0
LINE
  5
95FF
  8
0
 10
4022.5401056530981805
 20
81.8784072075734741
 30
0.0
 11
4022.5375535608309292
 21
81.8784070876285739
 31
0.0
  0
LINE
  5
9600
  8
0
 10
4022.5375535608309292
 20
81.8784070876285739
 30
0.0
 11
4022.4733377150168963
 21
81.8784040695699673
 31
0.0
  0
LINE
  5
9601
  8
0
 10
4022.4669619365408835
 20
81.8784037699169147
 30
0.0
 11
4022.4644377003310183
 21
81.8784036512812179
 31
0.0
  0
LINE
  5
9602
  8
0
 10
4022.4644377003310183
 20
81.8784036512812179
 30
0.0
 11
4022.4023196723310321
 21
81.8784007318172371
 31
0.0
  0
LINE
  5
9603
  8
0
 10
4022.4020583965320839
 20
81.8540106383172201
 30
0.0
 11
4022.4644377003310183
 21
81.8540106383172201
 31
0.0
  0
LINE
  5
9604
  8
0
 10
4022.4751742571311297
 20
81.8540106383172201
 30
0.0
 11
4022.5375535608309292
 21
81.8540106383172201
 31
0.0
  0
LINE
  5
9605
  8
0
 10
4022.5482901176310406
 20
81.8540106383172201
 30
0.0
 11
4022.6106694213308401
 21
81.8540106383172201
 31
0.0
  0
LINE
  5
9606
  8
0
 10
4022.6214059781309516
 20
81.8540106383172201
 30
0.0
 11
4022.6837852818321153
 21
81.8540106383172201
 31
0.0
  0
LINE
  5
9607
  8
0
 10
4022.6945218386322267
 20
81.8540106383172201
 30
0.0
 11
4022.7569011423320262
 21
81.8540106383172201
 31
0.0
  0
LINE
  5
9608
  8
0
 10
4022.7676376991307734
 20
81.8540106383172201
 30
0.0
 11
4022.8300170029310721
 21
81.8540106383172201
 31
0.0
  0
LINE
  5
9609
  8
0
 10
4022.840753559724817
 20
81.8540106383172201
 30
0.0
 11
4022.903132863430983
 21
81.8540106383172201
 31
0.0
  0
LINE
  5
960A
  8
0
 10
4022.9138694201319595
 20
81.8540106383172201
 30
0.0
 11
4022.9969039120442176
 21
81.8540106383172201
 31
0.0
  0
LINE
  5
960B
  8
0
 10
4022.9970838189310598
 20
81.8454907563172043
 30
0.0
 11
4022.9116351482030041
 21
81.8454907563172043
 31
0.0
  0
LINE
  5
960C
  8
0
 10
4022.9055529543998091
 20
81.8454969209336554
 30
0.0
 11
4022.8385192881160037
 21
81.8454907563172469
 31
0.0
  0
LINE
  5
960D
  8
0
 10
4022.8324370949790136
 20
81.8454901969805775
 30
0.0
 11
4022.8300170029310721
 21
81.8454899744216959
 31
0.0
  0
LINE
  5
960E
  8
0
 10
4022.8300170029310721
 20
81.8454907563172043
 30
0.0
 11
4022.7652210006590394
 21
81.8454907563172043
 31
0.0
  0
LINE
  5
960F
  8
0
 10
4022.7593212332271833
 20
81.8454907563172043
 30
0.0
 11
4022.7569011423320262
 21
81.8454907563172043
 31
0.0
  0
LINE
  5
9610
  8
0
 10
4022.7569011423320262
 20
81.8454907563172043
 30
0.0
 11
4022.6922875667028165
 21
81.8454907563172043
 31
0.0
  0
LINE
  5
9611
  8
0
 10
4022.6922875667028165
 20
81.8454907563172043
 30
0.0
 11
4022.6921051401750447
 21
81.8454907563172043
 31
0.0
  0
LINE
  5
9612
  8
0
 10
4022.6862053727268176
 20
81.8454907563172043
 30
0.0
 11
4022.6191717061960844
 21
81.8454907563172043
 31
0.0
  0
LINE
  5
9613
  8
0
 10
4022.6191717061960844
 20
81.8454907563172043
 30
0.0
 11
4022.6189892797010543
 21
81.8454907563172043
 31
0.0
  0
LINE
  5
9614
  8
0
 10
4022.613089512300121
 20
81.8454907563172043
 30
0.0
 11
4022.5458734192011434
 21
81.8454907563172043
 31
0.0
  0
LINE
  5
9615
  8
0
 10
4022.5399736518002101
 20
81.8454907563172043
 30
0.0
 11
4022.4727575587171486
 21
81.8454907563172043
 31
0.0
  0
LINE
  5
9616
  8
0
 10
4022.4668577912989349
 20
81.8454907563172043
 30
0.0
 11
4022.4644377003310183
 21
81.8454907563172043
 31
0.0
  0
LINE
  5
9617
  8
0
 10
4022.4644377003310183
 20
81.8454907563172043
 30
0.0
 11
4022.4020583965320839
 21
81.8454907563172043
 31
0.0
  0
LINE
  5
9618
  8
0
 10
4022.9970838189310598
 20
81.8210741180172079
 30
0.0
 11
4022.9138694201319595
 21
81.8210741180172079
 31
0.0
  0
LINE
  5
9619
  8
0
 10
4022.903132863430983
 20
81.8210741180172079
 30
0.0
 11
4022.8407535596311391
 21
81.8210741180172079
 31
0.0
  0
LINE
  5
961A
  8
0
 10
4022.8300170029310721
 20
81.8210741180172079
 30
0.0
 11
4022.7676376991307734
 21
81.8210741180172079
 31
0.0
  0
LINE
  5
961B
  8
0
 10
4022.7569011423320262
 20
81.8210741180172079
 30
0.0
 11
4022.6945218386322267
 21
81.8210741180172079
 31
0.0
  0
LINE
  5
961C
  8
0
 10
4022.6837852818321153
 20
81.8210741180172079
 30
0.0
 11
4022.6214059781309516
 21
81.8210741180172079
 31
0.0
  0
LINE
  5
961D
  8
0
 10
4022.6106694213308401
 20
81.8210741180172079
 30
0.0
 11
4022.5482901175319057
 21
81.8210741180172079
 31
0.0
  0
LINE
  5
961E
  8
0
 10
4022.5375535608309292
 20
81.8210741180172079
 30
0.0
 11
4022.4751742570310853
 21
81.8210741180172079
 31
0.0
  0
LINE
  5
961F
  8
0
 10
4022.4644377003310183
 20
81.8210741180172079
 30
0.0
 11
4022.4020583965320839
 21
81.8210741180172079
 31
0.0
  0
LINE
  5
9620
  8
0
 10
4022.4020583965320839
 20
81.8125542360172204
 30
0.0
 11
4022.4644377003310183
 21
81.8125542360172204
 31
0.0
  0
LINE
  5
9621
  8
0
 10
4022.4644377003310183
 20
81.8125542360172204
 30
0.0
 11
4022.4668577917509538
 21
81.8125542360172204
 31
0.0
  0
LINE
  5
9622
  8
0
 10
4022.4727575580332086
 20
81.8125542360172204
 30
0.0
 11
4022.5399736522531384
 21
81.8125542360172204
 31
0.0
  0
LINE
  5
9623
  8
0
 10
4022.5458734185158391
 20
81.8125542360172204
 30
0.0
 11
4022.6130895127521399
 21
81.8125542360172204
 31
0.0
  0
LINE
  5
9624
  8
0
 10
4022.6189892790162048
 20
81.8125542360172204
 30
0.0
 11
4022.6191717061969939
 21
81.8125542360172204
 31
0.0
  0
LINE
  5
9625
  8
0
 10
4022.6191717061969939
 20
81.8125542360172204
 30
0.0
 11
4022.6862053732520508
 21
81.8125542360172204
 31
0.0
  0
LINE
  5
9626
  8
0
 10
4022.6921051394911046
 20
81.8125542360172204
 30
0.0
 11
4022.6922875667028165
 21
81.8125542360172204
 31
0.0
  0
LINE
  5
9627
  8
0
 10
4022.6922875667028165
 20
81.8125542360172204
 30
0.0
 11
4022.7569011423320262
 21
81.8125542360172204
 31
0.0
  0
LINE
  5
9628
  8
0
 10
4022.7569011423320262
 20
81.8125542360172204
 30
0.0
 11
4022.7593212337519617
 21
81.8125542360172204
 31
0.0
  0
LINE
  5
9629
  8
0
 10
4022.7652209999919251
 20
81.8125542360172204
 30
0.0
 11
4022.8300170029310721
 21
81.8125542360172204
 31
0.0
  0
LINE
  5
962A
  8
0
 10
4022.8300170029310721
 20
81.8125542360172204
 30
0.0
 11
4022.8324370948857904
 21
81.8125542360172204
 31
0.0
  0
LINE
  5
962B
  8
0
 10
4022.8383368603458621
 20
81.8125542360172204
 30
0.0
 11
4022.903132863430983
 21
81.8125542360172204
 31
0.0
  0
LINE
  5
962C
  8
0
 10
4022.9116527454311836
 20
81.8125542360172204
 30
0.0
 11
4022.9970838189310598
 21
81.8125542360172204
 31
0.0
  0
LINE
  5
962D
  8
0
 10
4022.9970838189310598
 20
81.8045931941172171
 30
0.0
 11
4022.9970838189310598
 21
81.8508198893172221
 31
0.0
  0
ARC
  5
962E
  8
0
 10
4022.9643208936117844
 20
81.8505730340898765
 30
0.0
 40
0.0327638552832209
 50
0.431692069656264
 51
28.0303956860552006
  0
ARC
  5
962F
  8
0
 10
4022.9460628418701162
 20
81.8123588699589845
 30
0.0
 40
0.051608582828019
 50
289.2996255359582847
 51
351.3456866153504734
  0
ARC
  5
9630
  8
0
 10
4022.909908083515802
 20
81.8860087157631682
 30
0.0
 40
0.1334279716554884
 50
269.3958289743910086
 51
293.5035306355047169
  0
ARC
  5
9631
  8
0
 10
4022.9081818125760037
 20
81.7172136438195054
 30
0.0
 40
0.1710347818095544
 50
82.927802893519555
 51
88.0943291098414392
  0
ARC
  5
9632
  8
0
 10
4022.9055428871770346
 20
81.6526989904985072
 30
0.0
 40
0.2356020229666744
 50
87.9746584312047446
 51
90.5861010684890573
  0
LINE
  5
9633
  8
0
 10
4022.9065326378317877
 20
81.7387302918172196
 30
0.0
 11
4022.8789735827322147
 21
81.7387302918172196
 31
0.0
  0
LINE
  5
9634
  8
0
 10
4022.8789735827322147
 20
81.7387302918172196
 30
0.0
 11
4022.8789735827322147
 21
81.7572108316172148
 31
0.0
  0
LINE
  5
9635
  8
0
 10
4022.8789735827322147
 20
81.7572108316172148
 30
0.0
 11
4022.7136192520320037
 21
81.7572108316172148
 31
0.0
  0
LINE
  5
9636
  8
0
 10
4022.7136192520320037
 20
81.7572108316172148
 30
0.0
 11
4022.7136192520320037
 21
81.7352531515172132
 31
0.0
  0
LINE
  5
9637
  8
0
 10
4022.7136192520320037
 20
81.7352531515172132
 30
0.0
 11
4022.6939342126311203
 21
81.7352531515172132
 31
0.0
  0
LINE
  5
9638
  8
0
 10
4022.6939342126311203
 20
81.7352531515172132
 30
0.0
 11
4022.6939342126311203
 21
81.7572108316172148
 31
0.0
  0
LINE
  5
9639
  8
0
 10
4022.6939342126311203
 20
81.7572108316172148
 30
0.0
 11
4022.4537767323317894
 21
81.7572108316172148
 31
0.0
  0
LINE
  5
963A
  8
0
 10
4022.4537767323317894
 20
81.7572108316172148
 30
0.0
 11
4022.4537767323317894
 21
81.7352531515172132
 31
0.0
  0
LINE
  5
963B
  8
0
 10
4022.4537767323317894
 20
81.7352531515172132
 30
0.0
 11
4022.434091692930906
 21
81.7352531515172132
 31
0.0
  0
LINE
  5
963C
  8
0
 10
4022.434091692930906
 20
81.7352531515172132
 30
0.0
 11
4022.434091692930906
 21
81.7572108316172148
 31
0.0
  0
LINE
  5
963D
  8
0
 10
4023.3218833102810095
 20
71.331347107717221
 30
0.0
 11
4023.3218833102810095
 21
71.2132368715172248
 31
0.0
  0
LINE
  5
963E
  8
0
 10
4022.4872412992322097
 20
82.9464510770172438
 30
0.0
 11
4022.4872412992322097
 21
83.1285912021172209
 31
0.0
  0
LINE
  5
963F
  8
0
 10
4022.5344853937308471
 20
83.1404022257172244
 30
0.0
 11
4022.5344853937308471
 21
85.9435518320172207
 31
0.0
  0
LINE
  5
9640
  8
0
 10
4022.2785798818317744
 20
85.963236871417223
 30
0.0
 11
4022.5148003543317827
 21
85.963236871417223
 31
0.0
  0
LINE
  5
9641
  8
0
 10
4022.2707058661321753
 20
83.1285912021172209
 30
0.0
 11
4022.5226743700309271
 21
83.1285912021172209
 31
0.0
  0
LINE
  5
9642
  8
0
 10
4022.5029893307309976
 20
82.9464510770172438
 30
0.0
 11
4022.2906881396320387
 21
82.9464510770172438
 31
0.0
  0
ARC
  5
9643
  8
0
 10
4022.2908801697949457
 20
82.9276644371155101
 30
0.0
 40
0.0187876213071452
 50
90.5856361126600689
 51
97.0994823690470668
  0
ARC
  5
9644
  8
0
 10
4022.502989331740082
 20
82.9346400791854848
 30
0.0
 40
0.0118109977317361
 50
81.0753787303256246
 51
90.0000048903345942
  0
LINE
  5
9645
  8
0
 10
4021.6092885433317861
 20
82.8746541943172446
 30
0.0
 11
4023.1840916929318155
 21
82.8746541942172144
 31
0.0
  0
LINE
  5
9646
  8
0
 10
4021.6092885433317861
 20
81.9325200817172288
 30
0.0
 11
4023.1840916929318155
 21
81.9325200817172288
 31
0.0
  0
LINE
  5
9647
  8
0
 10
4021.6014145275307783
 20
81.6733962392172259
 30
0.0
 11
4023.1919657087319138
 21
81.6733962392172259
 31
0.0
  0
LINE
  5
9648
  8
0
 10
4021.8868475984309043
 20
81.705693241117217
 30
0.0
 11
4022.9065326377321981
 21
81.705693241117217
 31
0.0
  0
LINE
  5
9649
  8
0
 10
4021.8927531102322064
 20
81.7710788402172142
 30
0.0
 11
4022.900627125930896
 21
81.7710788402172142
 31
0.0
  0
LINE
  5
964A
  8
0
 10
4022.9031328633309386
 20
81.8882886868172193
 30
0.0
 11
4021.8902473728321638
 21
81.888288686822321
 31
0.0
  0
ARC
  5
964B
  8
0
 10
4022.4014908173157892
 20
81.8556179401039543
 30
0.0
 40
0.0102952260978383
 50
188.9818209185889941
 51
259.6337545329932937
  0
ARC
  5
964C
  8
0
 10
4022.3918904631777878
 20
81.8556176422968349
 30
0.0
 40
0.0102941329071777
 50
280.3421670500322875
 51
351.0188954930388263
  0
ARC
  5
964D
  8
0
 10
4022.4014908176409335
 20
81.8226814200236561
 30
0.0
 40
0.010295226454065
 50
188.981821843175311
 51
259.6337504905865217
  0
ARC
  5
964E
  8
0
 10
4022.3918904626862059
 20
81.822681122328845
 30
0.0
 40
0.0102941334449018
 50
280.3421731571964983
 51
351.018894095241194
  0
ARC
  5
964F
  8
0
 10
4022.4015531301279225
 20
81.888434950536805
 30
0.0
 40
0.0102323435956204
 50
180.8190283252824031
 51
258.6201074734826193
  0
ARC
  5
9650
  8
0
 10
4022.3921986409441161
 20
81.888217256671723
 30
0.0
 40
0.0098600065459471
 50
275.585783240726812
 51
0.4150789042847736
  0
ARC
  5
9651
  8
0
 10
4022.3966901103940472
 20
81.7861289310886548
 30
0.0
 40
0.0054885989881854
 50
192.0191391763329136
 51
347.9808565544494172
  0
LINE
  5
9652
  8
0
 10
4022.3913218319521548
 20
81.7849860034767318
 30
0.0
 11
4022.3913218319521548
 21
81.8125542360005227
 31
0.0
  0
LINE
  5
9653
  8
0
 10
4022.3913218319521548
 20
81.8210741273354785
 30
0.0
 11
4022.3913218319521548
 21
81.8454907563005207
 31
0.0
  0
LINE
  5
9654
  8
0
 10
4022.3913218319521548
 20
81.8540106383005082
 30
0.0
 11
4022.3913218319521548
 21
81.8784041558682816
 31
0.0
  0
LINE
  5
9655
  8
0
 10
4022.4020583887518114
 20
81.7849859939005057
 30
0.0
 11
4022.4020583887518114
 21
81.8125542360005227
 31
0.0
  0
LINE
  5
9656
  8
0
 10
4022.4020583887518114
 20
81.8210741180005954
 30
0.0
 11
4022.4020583887518114
 21
81.8454907563005207
 31
0.0
  0
LINE
  5
9657
  8
0
 10
4022.4020583887518114
 20
81.8540106383007355
 30
0.0
 11
4022.4020583887518114
 21
81.8784036512645059
 31
0.0
  0
LINE
  5
9658
  8
0
 10
4022.4020583887518114
 20
81.8881123702147136
 30
0.0
 11
4022.4020583887518114
 21
81.8882886868195641
 31
0.0
  0
LINE
  5
9659
  8
0
 10
4022.3995341525410367
 20
81.878403769900217
 30
0.0
 11
4022.4020583887518114
 21
81.8784036512645059
 31
0.0
  0
LINE
  5
965A
  8
0
 10
4022.3996382977829853
 20
81.8454907563005207
 30
0.0
 11
4022.4020583887518114
 21
81.8454907563005207
 31
0.0
  0
LINE
  5
965B
  8
0
 10
4022.4020583887518114
 20
81.8125542360005227
 30
0.0
 11
4022.3996382973318759
 21
81.8125542360005227
 31
0.0
  0
LINE
  5
965C
  8
0
 10
4022.3592885433317861
 20
81.7572108316172148
 30
0.0
 11
4022.434091692930906
 21
81.7572108316172148
 31
0.0
  0
LINE
  5
965D
  8
0
 10
4021.4911746486109223
 20
71.3510321471172233
 30
0.0
 11
4023.3021982707819006
 21
71.3510321471172233
 31
0.0
  0
LINE
  5
965E
  8
0
 10
4021.4911746486809534
 20
71.1935518321172225
 30
0.0
 11
4023.3021982707819006
 21
71.1935518321172225
 31
0.0
  0
ENDSEC
  0
EOF
