  0
SECTION
  2
HEADER
  9
$ACADVER
  1
AC1009
  9
$INSBASE
 10
499.062675568122188
 20
90.0316799452428143
 30
0.0
  9
$EXTMIN
 10
493.5583099254722015
 20
90.0316799452428143
 30
0.0
  9
$EXTMAX
 10
500.2240928909722015
 20
99.5238059295428457
 30
0.0
  9
$LIMMIN
 10
0.0
 20
0.0
  9
$LIMMAX
 10
11.6929133858000007
 20
8.2677165353999982
  9
$ORTHOMODE
 70
     0
  9
$REGENMODE
 70
     1
  9
$FILLMODE
 70
     1
  9
$QTEXTMODE
 70
     0
  9
$MIRRTEXT
 70
     0
  9
$DRAGMODE
 70
     2
  9
$LTSCALE
 40
0.6431102362
  9
$OSMODE
 70
  4095
  9
$ATTMODE
 70
     1
  9
$TEXTSIZE
 40
0.2
  9
$TRACEWID
 40
0.05
  9
$TEXTSTYLE
  7
STANDARD
  9
$CLAYER
  8
0
  9
$CELTYPE
  6
BYLAYER
  9
$CECOLOR
 62
   256
  9
$DIMSCALE
 40
1.0
  9
$DIMASZ
 40
0.1875
  9
$DIMEXO
 40
0.0625
  9
$DIMDLI
 40
0.4443307087
  9
$DIMRND
 40
0.0
  9
$DIMDLE
 40
0.0
  9
$DIMEXE
 40
0.125
  9
$DIMTP
 40
0.01
  9
$DIMTM
 40
0.01
  9
$DIMTXT
 40
1.0
  9
$DIMCEN
 40
0.1052362205
  9
$DIMTSZ
 40
0.0
  9
$DIMTOL
 70
     1
  9
$DIMLIM
 70
     0
  9
$DIMTIH
 70
     0
  9
$DIMTOH
 70
     1
  9
$DIMSE1
 70
     0
  9
$DIMSE2
 70
     0
  9
$DIMTAD
 70
     0
  9
$DIMZIN
 70
     0
  9
$DIMBLK
  1

  9
$DIMASO
 70
     1
  9
$DIMSHO
 70
     1
  9
$DIMPOST
  1
\X
  9
$DIMAPOST
  1

  9
$DIMALT
 70
     1
  9
$DIMALTD
 70
     2
  9
$DIMALTF
 40
25.3999999999999986
  9
$DIMLFAC
 40
1.0
  9
$DIMTOFL
 70
     0
  9
$DIMTVP
 40
0.0
  9
$DIMTIX
 70
     0
  9
$DIMSOXD
 70
     0
  9
$DIMSAH
 70
     0
  9
$DIMBLK1
  1

  9
$DIMBLK2
  1

  9
$DIMSTYLE
  2
STANDARD
  9
$DIMCLRD
 70
     0
  9
$DIMCLRE
 70
     0
  9
$DIMCLRT
 70
     0
  9
$DIMTFAC
 40
1.0
  9
$DIMGAP
 40
0.09
  9
$LUNITS
 70
     2
  9
$LUPREC
 70
     4
  9
$SKETCHINC
 40
0.1
  9
$FILLETRAD
 40
0.0
  9
$AUNITS
 70
     0
  9
$AUPREC
 70
     0
  9
$MENU
  1
.
  9
$ELEVATION
 40
0.0
  9
$PELEVATION
 40
0.0
  9
$THICKNESS
 40
0.0
  9
$LIMCHECK
 70
     0
  9
$BLIPMODE
 70
     0
  9
$CHAMFERA
 40
0.0
  9
$CHAMFERB
 40
0.0
  9
$SKPOLY
 70
     0
  9
$TDCREATE
 40
2458172.5207638889551163
  9
$TDUPDATE
 40
2459103.6165972221642733
  9
$TDINDWG
 40
0.2868294213
  9
$TDUSRTIMER
 40
0.2868294213
  9
$USRTIMER
 70
     1
  9
$ANGBASE
 50
0.0
  9
$ANGDIR
 70
     0
  9
$PDMODE
 70
     0
  9
$PDSIZE
 40
0.3125
  9
$PLINEWID
 40
0.0
  9
$COORDS
 70
     1
  9
$SPLFRAME
 70
     0
  9
$SPLINETYPE
 70
     6
  9
$SPLINESEGS
 70
     8
  9
$ATTDIA
 70
     1
  9
$ATTREQ
 70
     1
  9
$HANDLING
 70
     1
  9
$HANDSEED
  5
8980
  9
$SURFTAB1
 70
     6
  9
$SURFTAB2
 70
     6
  9
$SURFTYPE
 70
     6
  9
$SURFU
 70
     6
  9
$SURFV
 70
     6
  9
$UCSNAME
  2

  9
$UCSORG
 10
0.0
 20
0.0
 30
0.0
  9
$UCSXDIR
 10
1.0
 20
0.0
 30
0.0
  9
$UCSYDIR
 10
0.0
 20
1.0
 30
0.0
  9
$PUCSNAME
  2

  9
$PUCSORG
 10
0.0
 20
0.0
 30
0.0
  9
$PUCSXDIR
 10
1.0
 20
0.0
 30
0.0
  9
$PUCSYDIR
 10
0.0
 20
1.0
 30
0.0
  9
$USERI1
 70
     0
  9
$USERI2
 70
     0
  9
$USERI3
 70
     0
  9
$USERI4
 70
     0
  9
$USERI5
 70
     0
  9
$USERR1
 40
0.0
  9
$USERR2
 40
0.0
  9
$USERR3
 40
0.0
  9
$USERR4
 40
0.0
  9
$USERR5
 40
0.0
  9
$WORLDVIEW
 70
     1
  9
$SHADEDGE
 70
     3
  9
$SHADEDIF
 70
    70
  9
$TILEMODE
 70
     1
  9
$MAXACTVP
 70
    64
  9
$PLIMCHECK
 70
     0
  9
$PEXTMIN
 10
1.0000000000000000E+20
 20
1.0000000000000000E+20
 30
1.0000000000000000E+20
  9
$PEXTMAX
 10
-1.0000000000000000E+20
 20
-1.0000000000000000E+20
 30
-1.0000000000000000E+20
  9
$PLIMMIN
 10
0.0
 20
0.0
  9
$PLIMMAX
 10
12.0
 20
9.0
  9
$UNITMODE
 70
     0
  9
$VISRETAIN
 70
     1
  9
$PLINEGEN
 70
     0
  9
$PSLTSCALE
 70
     1
  0
ENDSEC
  0
SECTION
  2
TABLES
  0
TABLE
  2
VPORT
 70
     1
  0
VPORT
  2
*ACTIVE
 70
     0
 10
0.0
 20
0.0
 11
1.0
 21
1.0
 12
0.0
 22
0.0
 13
0.0
 23
0.0
 14
1.0
 24
1.0
 15
0.0
 25
0.0
 16
0.0
 26
0.0
 36
31.3778364773154905
 17
496.8912014082221731
 27
94.77774293739283
 37
0.0
 40
11.5988412457871508
 41
1.9968652037617549
 42
50.0
 43
0.0
 44
0.0
 50
0.0
 51
0.0
 71
     0
 72
   100
 73
     1
 74
     1
 75
     0
 76
     0
 77
     0
 78
     0
  0
ENDTAB
  0
TABLE
  2
LTYPE
 70
     2
  0
LTYPE
  2
CONTINUOUS
 70
     0
  3
Solid line
 72
    65
 73
     0
 40
0.0
  0
LTYPE
  2
PHANTOM2
 70
     0
  3
___ _ _ ___ _ _ ___ _ _ ___ _ _
 72
    65
 73
     6
 40
1.25
 49
0.625
 49
-0.125
 49
0.125
 49
-0.125
 49
0.125
 49
-0.125
  0
ENDTAB
  0
TABLE
  2
LAYER
 70
     2
  0
LAYER
  2
0
 70
     0
 62
   255
  6
CONTINUOUS
  0
LAYER
  2
DEFPOINTS
 70
     0
 62
     7
  6
CONTINUOUS
  0
ENDTAB
  0
TABLE
  2
STYLE
 70
     1
  0
STYLE
  2
STANDARD
 70
     0
 40
0.0
 41
0.8
 50
0.0
 71
     0
 42
0.2
  3
txt
  4

  0
ENDTAB
  0
TABLE
  2
VIEW
 70
     0
  0
ENDTAB
  0
TABLE
  2
UCS
 70
     0
  0
ENDTAB
  0
TABLE
  2
APPID
 70
    10
  0
APPID
  2
ACAD
 70
     0
  0
APPID
  2
ACAD_MLEADERVER
 70
     0
  0
APPID
  2
ACAD_EXEMPT_FROM_CAD_STANDARDS
 70
     0
  0
APPID
  2
ACAD_DSTYLE_DIMJAG
 70
     0
  0
APPID
  2
ACAD_DSTYLE_DIMTALN
 70
     0
  0
APPID
  2
ACAD_NAV_VCDISPLAY
 70
     0
  0
APPID
  2
ACAECLAYERSTANDARD
 70
     0
  0
APPID
  2
ACCMTRANSPARENCY
 70
     0
  0
APPID
  2
DCO15
 70
     0
  0
APPID
  2
ACDBATTR
 70
     0
  0
ENDTAB
  0
TABLE
  2
DIMSTYLE
 70
     1
  0
DIMSTYLE
  2
STANDARD
 70
     0
  3

  4

  5

  6

  7

 40
1.0
 41
0.1875
 42
0.0625
 43
0.38
 44
0.125
 45
0.0
 46
0.0
 47
0.01
 48
0.01
140
0.15625
141
0.09
142
0.0
143
25.3999999999999986
144
1.0
145
0.0
146
1.0
147
0.09
 71
     1
 72
     0
 73
     1
 74
     1
 75
     0
 76
     0
 77
     0
 78
     4
170
     0
171
     2
172
     0
173
     0
174
     0
175
     0
176
     0
177
     0
178
     0
  0
ENDTAB
  0
ENDSEC
  0
SECTION
  2
BLOCKS
  0
BLOCK
  8
0
  2
$MODEL_SPACE
 70
     0
 10
0.0
 20
0.0
 30
0.0
  3
$MODEL_SPACE
  1

  0
ENDBLK
  5
21
  8
0
  0
BLOCK
 67
     1
  8
0
  2
$PAPER_SPACE
 70
     0
 10
0.0
 20
0.0
 30
0.0
  3
$PAPER_SPACE
  1

  0
ENDBLK
  5
1D
 67
     1
  8
0
  0
BLOCK
  8
0
  2
_FILLED
 70
     0
 10
0.0
 20
0.0
 30
0.0
  3
_FILLED
  1

  0
SOLID
  5
88AA
  8
0
  6
BYBLOCK
 62
     0
 10
0.0
 20
0.0
 30
0.0
 11
-1.0
 21
0.1666666667
 31
0.0
 12
-1.0
 22
-0.1666666667
 32
0.0
 13
-1.0
 23
-0.1666666667
 33
0.0
  0
ENDBLK
  5
88AB
  8
0
  6
BYBLOCK
 62
     0
  0
ENDSEC
  0
SECTION
  2
ENTITIES
  0
ATTDEF
  5
829
  8
DEFPOINTS
 10
499.0601288378381923
 20
90.036424488004215
 30
0.0
 40
0.001
  1
K-979M-4
  3

  2
MODELNUMBER
 70
     0
1001
ACDBATTR
1070
     0
1070
     1
  0
ATTDEF
  5
82A
  8
DEFPOINTS
 10
499.0601288378381923
 20
90.0347578213375357
 30
0.0
 40
0.001
  1
STILLNESS
  3

  2
TRADENAME
 70
     0
1001
ACDBATTR
1070
     0
1070
     1
  0
ATTDEF
  5
82B
  8
DEFPOINTS
 10
499.0601288378381923
 20
90.0330911546708847
 30
0.0
 40
0.001
  1
BATHROOM SINK FAUCET
  3

  2
PRODUCT
 70
     0
1001
ACDBATTR
1070
     0
1070
     1
  0
LINE
  5
8833
  8
0
 10
497.9012582452721176
 20
90.0316799452428143
 30
0.0
 11
500.2240928909722015
 21
90.0316799452428143
 31
0.0
  0
LINE
  5
8834
  8
0
 10
500.2240928908721003
 20
90.4450657720428239
 30
0.0
 11
497.9012582452721176
 21
90.4450657720428239
 31
0.0
  0
LINE
  5
8835
  8
0
 10
498.6059826592314153
 20
90.4643838509428093
 30
0.0
 11
499.5193684769128026
 21
90.4643838509428093
 31
0.0
  0
LINE
  5
8836
  8
0
 10
493.5865915464950149
 20
96.5712054762957166
 30
0.0
 11
493.6055091002721156
 21
96.6149115487428247
 31
0.0
  0
LINE
  5
8837
  8
0
 10
493.5606161712721018
 20
96.7147806379428232
 30
0.0
 11
494.028308845472111
 21
97.1824733121428466
 31
0.0
  0
LINE
  5
8838
  8
0
 10
494.0422282702721191
 20
97.1963927369428404
 30
0.0
 11
495.7181270193721048
 21
98.8722914860428403
 31
0.0
  0
LINE
  5
8839
  8
0
 10
494.0464040977722107
 20
97.1643780598428464
 30
0.0
 11
494.060323522572105
 21
97.1782974847428278
 31
0.0
  0
LINE
  5
883A
  8
0
 10
493.5929816178721126
 20
96.6274390310428259
 30
0.0
 11
493.6149019280721859
 21
96.6493593413428442
 31
0.0
  0
LINE
  5
883B
  8
0
 10
494.1135681063720995
 20
96.1068525425428533
 30
0.0
 11
494.135488416572116
 21
96.1287728527428271
 31
0.0
  0
LINE
  5
883C
  8
0
 10
494.6505071351721767
 20
96.5602750224428235
 30
0.0
 11
494.6644265600721155
 21
96.5741944472428315
 31
0.0
  0
LINE
  5
883D
  8
0
 10
494.2009097132720967
 20
96.0744870959428283
 30
0.0
 11
494.6686023874721059
 21
96.5421797701428233
 31
0.0
  0
LINE
  5
883E
  8
0
 10
494.6825218122722276
 20
96.5560991949428313
 30
0.0
 11
496.3584205613720997
 21
98.2319979440428313
 31
0.0
  0
LINE
  5
883F
  8
0
 10
494.0573345516249901
 20
96.1004624711657129
 30
0.0
 11
494.1010406240721977
 21
96.1193800249428421
 31
0.0
  0
LINE
  5
8840
  8
0
 10
499.5154314735721073
 20
93.8308925436428467
 30
0.0
 11
498.6099196625722243
 21
93.8308925436428467
 31
0.0
  0
LINE
  5
8841
  8
0
 10
498.6099196625722243
 20
93.8387665594428171
 30
0.0
 11
499.5154314735721073
 21
93.8387665594428171
 31
0.0
  0
LINE
  5
8842
  8
0
 10
494.0521576023224952
 20
96.1014498074924717
 30
0.0
 11
493.5875788827721067
 21
96.5660285269428442
 31
0.0
  0
LINE
  5
8843
  8
0
 10
493.5929816178721126
 20
96.6274390310428259
 30
0.0
 11
494.1135681063720995
 21
96.1068525425428533
 31
0.0
  0
LINE
  5
8844
  8
0
 10
493.5606161712721018
 20
96.703645098142843
 30
0.0
 11
494.1897706720720862
 21
96.0744905973428445
 31
0.0
  0
LINE
  5
8845
  8
0
 10
499.0134629696721049
 20
94.5474279767428243
 30
0.0
 11
499.111888166472113
 21
94.5474279767428243
 31
0.0
  0
LINE
  5
8846
  8
0
 10
494.6686023874721059
 20
96.5421797701428233
 30
0.0
 11
494.028308845472111
 21
97.1824733121428466
 31
0.0
  0
LINE
  5
8847
  8
0
 10
494.0422282702721191
 20
97.1963927369428404
 30
0.0
 11
494.6825218122722276
 21
96.5560991949428313
 31
0.0
  0
LINE
  5
8848
  8
0
 10
497.9012582452721176
 20
90.4450657720428239
 30
0.0
 11
497.9012582452721176
 21
90.0316799452428143
 31
0.0
  0
LINE
  5
8849
  8
0
 10
498.6099196625722243
 20
97.2993964807428284
 30
0.0
 11
498.6099196625722243
 21
93.8387665594428171
 31
0.0
  0
LINE
  5
884A
  8
0
 10
498.6099196625722243
 20
90.4643838509428093
 30
0.0
 11
498.6099196625722243
 21
93.8308925436428467
 31
0.0
  0
LINE
  5
884B
  8
0
 10
498.6944022032720909
 20
93.8387665594428171
 30
0.0
 11
498.6944022032720909
 21
93.8308925436428467
 31
0.0
  0
LINE
  5
884C
  8
0
 10
498.819982103472114
 20
93.8387665594428171
 30
0.0
 11
498.819982103472114
 21
93.8308925436428467
 31
0.0
  0
LINE
  5
884D
  8
0
 10
498.9544078515721139
 20
93.8308925436428467
 30
0.0
 11
498.9544078515721139
 21
93.8387665594428171
 31
0.0
  0
LINE
  5
884E
  8
0
 10
498.9937779302721879
 20
93.8584515988428336
 30
0.0
 11
498.9937779302721879
 21
94.5277432394428132
 31
0.0
  0
LINE
  5
884F
  8
0
 10
499.1315732058722006
 20
94.527743230142832
 30
0.0
 11
499.1315732058722006
 21
93.8584515988428336
 31
0.0
  0
LINE
  5
8850
  8
0
 10
499.1709432846720915
 20
93.8308925436428467
 30
0.0
 11
499.1709432846720915
 21
93.8387665594428171
 31
0.0
  0
LINE
  5
8851
  8
0
 10
499.4309489329721146
 20
93.8387665594428171
 30
0.0
 11
499.4309489329721146
 21
93.8308925436428467
 31
0.0
  0
LINE
  5
8852
  8
0
 10
499.5154314735721073
 20
97.2993964807428284
 30
0.0
 11
499.5154314735721073
 21
93.8387665594428171
 31
0.0
  0
LINE
  5
8853
  8
0
 10
499.5154314735721073
 20
90.4643838509428093
 30
0.0
 11
499.5154314735721073
 21
93.8308925436428467
 31
0.0
  0
LINE
  5
8854
  8
0
 10
500.2240928909722015
 20
90.4450657720428239
 30
0.0
 11
500.2240928909722015
 21
90.0316799452428143
 31
0.0
  0
ARC
  5
8855
  8
0
 10
499.0626755680721089
 20
60.9403567655428304
 30
0.0
 40
29.5275590550999993
 50
87.7457844973000363
 51
89.1137899504230262
  0
ARC
  5
8856
  8
0
 10
499.0626755680721089
 20
60.9403567655428304
 30
0.0
 40
29.5275590550999993
 50
90.886210049576988
 51
92.2542155028009745
  0
ARC
  5
8857
  8
0
 10
497.2910220247721895
 20
97.2993964807428284
 30
0.0
 40
2.224409448799999
 50
0.0
 51
135.0
  0
ARC
  5
8858
  8
0
 10
497.2910220247721895
 20
97.2993964807428284
 30
0.0
 40
1.318897637799999
 50
0.0
 51
135.0
  0
ARC
  5
8859
  8
0
 10
499.0134629696721049
 20
94.527742937342822
 30
0.0
 40
0.0196850394
 50
90.0
 51
179.9983230530002913
  0
ARC
  5
885A
  8
0
 10
499.111888166472113
 20
94.527742937342822
 30
0.0
 40
0.0196850394
 50
0.0017043779002425
 51
90.0
  0
ARC
  5
885B
  8
0
 10
499.111888166472113
 20
93.8584515988428336
 30
0.0
 40
0.0196850394
 50
270.0
 51
0.0
  0
ARC
  5
885C
  8
0
 10
499.0134629696721049
 20
93.8584515988428336
 30
0.0
 40
0.0196850394
 50
180.0
 51
270.0
  0
ARC
  5
885D
  8
0
 10
494.1953419422191018
 20
96.0800548687265632
 30
0.0
 40
0.0078740184837239
 50
224.9639892195141897
 51
269.9999999999739089
  0
ARC
  5
885E
  8
0
 10
494.1953419422191018
 20
96.0800548687265348
 30
0.0
 40
0.0078740184837126
 50
270.0
 51
314.9999916097646064
  0
ARC
  5
885F
  8
0
 10
493.5661839411720848
 20
96.709212868042826
 30
0.0
 40
0.0078740157
 50
135.0000000000046043
 51
224.9999999999953957
  0
ARC
  5
8860
  8
0
 10
494.0554724236720858
 20
96.1047646288428439
 30
0.0
 40
0.0046878653
 50
225.0000000061799881
 51
270.0
  0
ARC
  5
8861
  8
0
 10
494.0554724236720858
 20
96.1047646288428439
 30
0.0
 40
0.0046878652999993
 50
270.0000000000422915
 51
293.4046895856844799
  0
ARC
  5
8862
  8
0
 10
493.5908937041721174
 20
96.5693433483428265
 30
0.0
 40
0.0046878653
 50
156.5953104143578116
 51
225.0
  0
LINE
  5
88B3
  8
0
 10
498.6099267312721963
 20
94.5474279767428243
 30
0.0
 11
499.5154241449720871
 21
94.5474279767428243
 31
0.0
  0
ENDSEC
  0
EOF
