  0
SECTION
  2
HEADER
  9
$ACADVER
  1
AC1009
  9
$INSBASE
 10
482.5481885627779093
 20
88.921662475591134
 30
0.0
  9
$EXTMIN
 10
481.3616028828776052
 20
88.9151108151771865
 30
-0.0000000000000053
  9
$EXTMAX
 10
485.1368132563973177
 20
98.4211343799975111
 30
0.0000000000000099
  9
$LIMMIN
 10
0.0
 20
0.0
  9
$LIMMAX
 10
11.6929133858000007
 20
8.2677165353999982
  9
$ORTHOMODE
 70
     0
  9
$REGENMODE
 70
     1
  9
$FILLMODE
 70
     1
  9
$QTEXTMODE
 70
     0
  9
$MIRRTEXT
 70
     0
  9
$DRAGMODE
 70
     2
  9
$LTSCALE
 40
0.6431102362
  9
$OSMODE
 70
  4095
  9
$ATTMODE
 70
     1
  9
$TEXTSIZE
 40
0.2
  9
$TRACEWID
 40
0.05
  9
$TEXTSTYLE
  7
STANDARD
  9
$CLAYER
  8
0
  9
$CELTYPE
  6
BYLAYER
  9
$CECOLOR
 62
   256
  9
$DIMSCALE
 40
1.0
  9
$DIMASZ
 40
0.1875
  9
$DIMEXO
 40
0.0625
  9
$DIMDLI
 40
0.4443307087
  9
$DIMRND
 40
0.0
  9
$DIMDLE
 40
0.0
  9
$DIMEXE
 40
0.125
  9
$DIMTP
 40
0.01
  9
$DIMTM
 40
0.01
  9
$DIMTXT
 40
1.0
  9
$DIMCEN
 40
0.1052362205
  9
$DIMTSZ
 40
0.0
  9
$DIMTOL
 70
     1
  9
$DIMLIM
 70
     0
  9
$DIMTIH
 70
     0
  9
$DIMTOH
 70
     1
  9
$DIMSE1
 70
     0
  9
$DIMSE2
 70
     0
  9
$DIMTAD
 70
     0
  9
$DIMZIN
 70
     0
  9
$DIMBLK
  1

  9
$DIMASO
 70
     1
  9
$DIMSHO
 70
     1
  9
$DIMPOST
  1
\X
  9
$DIMAPOST
  1

  9
$DIMALT
 70
     1
  9
$DIMALTD
 70
     2
  9
$DIMALTF
 40
25.3999999999999986
  9
$DIMLFAC
 40
1.0
  9
$DIMTOFL
 70
     0
  9
$DIMTVP
 40
0.0
  9
$DIMTIX
 70
     0
  9
$DIMSOXD
 70
     0
  9
$DIMSAH
 70
     0
  9
$DIMBLK1
  1

  9
$DIMBLK2
  1

  9
$DIMSTYLE
  2
STANDARD
  9
$DIMCLRD
 70
     0
  9
$DIMCLRE
 70
     0
  9
$DIMCLRT
 70
     0
  9
$DIMTFAC
 40
1.0
  9
$DIMGAP
 40
0.09
  9
$LUNITS
 70
     2
  9
$LUPREC
 70
     4
  9
$SKETCHINC
 40
0.1
  9
$FILLETRAD
 40
0.0
  9
$AUNITS
 70
     0
  9
$AUPREC
 70
     0
  9
$MENU
  1
.
  9
$ELEVATION
 40
0.0
  9
$PELEVATION
 40
0.0
  9
$THICKNESS
 40
0.0
  9
$LIMCHECK
 70
     0
  9
$BLIPMODE
 70
     0
  9
$CHAMFERA
 40
0.0
  9
$CHAMFERB
 40
0.0
  9
$SKPOLY
 70
     0
  9
$TDCREATE
 40
2458172.5207638889551163
  9
$TDUPDATE
 40
2459041.4142361111007631
  9
$TDINDWG
 40
0.2868872917
  9
$TDUSRTIMER
 40
0.2868872917
  9
$USRTIMER
 70
     1
  9
$ANGBASE
 50
0.0
  9
$ANGDIR
 70
     0
  9
$PDMODE
 70
     0
  9
$PDSIZE
 40
0.3125
  9
$PLINEWID
 40
0.0
  9
$COORDS
 70
     1
  9
$SPLFRAME
 70
     0
  9
$SPLINETYPE
 70
     6
  9
$SPLINESEGS
 70
     8
  9
$ATTDIA
 70
     1
  9
$ATTREQ
 70
     1
  9
$HANDLING
 70
     1
  9
$HANDSEED
  5
8C21
  9
$SURFTAB1
 70
     6
  9
$SURFTAB2
 70
     6
  9
$SURFTYPE
 70
     6
  9
$SURFU
 70
     6
  9
$SURFV
 70
     6
  9
$UCSNAME
  2

  9
$UCSORG
 10
0.0
 20
0.0
 30
0.0
  9
$UCSXDIR
 10
1.0
 20
0.0
 30
0.0
  9
$UCSYDIR
 10
0.0
 20
1.0
 30
0.0
  9
$PUCSNAME
  2

  9
$PUCSORG
 10
0.0
 20
0.0
 30
0.0
  9
$PUCSXDIR
 10
1.0
 20
0.0
 30
0.0
  9
$PUCSYDIR
 10
0.0
 20
1.0
 30
0.0
  9
$USERI1
 70
     0
  9
$USERI2
 70
     0
  9
$USERI3
 70
     0
  9
$USERI4
 70
     0
  9
$USERI5
 70
     0
  9
$USERR1
 40
0.0
  9
$USERR2
 40
0.0
  9
$USERR3
 40
0.0
  9
$USERR4
 40
0.0
  9
$USERR5
 40
0.0
  9
$WORLDVIEW
 70
     1
  9
$SHADEDGE
 70
     3
  9
$SHADEDIF
 70
    70
  9
$TILEMODE
 70
     1
  9
$MAXACTVP
 70
    64
  9
$PLIMCHECK
 70
     0
  9
$PEXTMIN
 10
1.0000000000000000E+20
 20
1.0000000000000000E+20
 30
1.0000000000000000E+20
  9
$PEXTMAX
 10
-1.0000000000000000E+20
 20
-1.0000000000000000E+20
 30
-1.0000000000000000E+20
  9
$PLIMMIN
 10
0.0
 20
0.0
  9
$PLIMMAX
 10
12.0
 20
9.0
  9
$UNITMODE
 70
     0
  9
$VISRETAIN
 70
     1
  9
$PLINEGEN
 70
     0
  9
$PSLTSCALE
 70
     1
  0
ENDSEC
  0
SECTION
  2
TABLES
  0
TABLE
  2
VPORT
 70
     1
  0
VPORT
  2
*ACTIVE
 70
     0
 10
0.0
 20
0.0
 11
1.0
 21
1.0
 12
16.507006361807381
 22
4.5349754776575537
 13
0.0
 23
0.0
 14
1.0
 24
1.0
 15
0.0
 25
0.0
 16
0.0
 26
0.0
 36
24.1179433675886514
 17
466.74220170783002
 27
89.133147119929788
 37
0.0
 40
9.5655602468547052
 41
2.005224660397074
 42
50.0
 43
0.0
 44
0.0
 50
0.0
 51
0.0
 71
     0
 72
   100
 73
     1
 74
     1
 75
     0
 76
     0
 77
     0
 78
     0
  0
ENDTAB
  0
TABLE
  2
LTYPE
 70
     2
  0
LTYPE
  2
CONTINUOUS
 70
     0
  3
Solid line
 72
    65
 73
     0
 40
0.0
  0
LTYPE
  2
PHANTOM2
 70
     0
  3
___ _ _ ___ _ _ ___ _ _ ___ _ _
 72
    65
 73
     6
 40
1.25
 49
0.625
 49
-0.125
 49
0.125
 49
-0.125
 49
0.125
 49
-0.125
  0
ENDTAB
  0
TABLE
  2
LAYER
 70
     2
  0
LAYER
  2
0
 70
     0
 62
   255
  6
CONTINUOUS
  0
LAYER
  2
DEFPOINTS
 70
     0
 62
     7
  6
CONTINUOUS
  0
ENDTAB
  0
TABLE
  2
STYLE
 70
     1
  0
STYLE
  2
STANDARD
 70
     0
 40
0.0
 41
0.8
 50
0.0
 71
     0
 42
0.2
  3
txt
  4

  0
ENDTAB
  0
TABLE
  2
VIEW
 70
     0
  0
ENDTAB
  0
TABLE
  2
UCS
 70
     0
  0
ENDTAB
  0
TABLE
  2
APPID
 70
    10
  0
APPID
  2
ACAD
 70
     0
  0
APPID
  2
ACAD_MLEADERVER
 70
     0
  0
APPID
  2
ACAD_EXEMPT_FROM_CAD_STANDARDS
 70
     0
  0
APPID
  2
ACAD_DSTYLE_DIMJAG
 70
     0
  0
APPID
  2
ACAD_DSTYLE_DIMTALN
 70
     0
  0
APPID
  2
ACAD_NAV_VCDISPLAY
 70
     0
  0
APPID
  2
ACAECLAYERSTANDARD
 70
     0
  0
APPID
  2
ACCMTRANSPARENCY
 70
     0
  0
APPID
  2
DCO15
 70
     0
  0
APPID
  2
ACDBATTR
 70
     0
  0
ENDTAB
  0
TABLE
  2
DIMSTYLE
 70
     1
  0
DIMSTYLE
  2
STANDARD
 70
     0
  3

  4

  5

  6

  7

 40
1.0
 41
0.1875
 42
0.0625
 43
0.38
 44
0.125
 45
0.0
 46
0.0
 47
0.01
 48
0.01
140
0.15625
141
0.09
142
0.0
143
25.3999999999999986
144
1.0
145
0.0
146
1.0
147
0.09
 71
     1
 72
     0
 73
     1
 74
     1
 75
     0
 76
     0
 77
     0
 78
     4
170
     0
171
     2
172
     0
173
     0
174
     0
175
     0
176
     0
177
     0
178
     0
  0
ENDTAB
  0
ENDSEC
  0
SECTION
  2
BLOCKS
  0
BLOCK
  8
0
  2
$MODEL_SPACE
 70
     0
 10
0.0
 20
0.0
 30
0.0
  3
$MODEL_SPACE
  1

  0
ENDBLK
  5
21
  8
0
  0
BLOCK
 67
     1
  8
0
  2
$PAPER_SPACE
 70
     0
 10
0.0
 20
0.0
 30
0.0
  3
$PAPER_SPACE
  1

  0
ENDBLK
  5
1D
 67
     1
  8
0
  0
ENDSEC
  0
SECTION
  2
ENTITIES
  0
ATTDEF
  5
829
  8
DEFPOINTS
 10
482.5456418324939136
 20
88.9264070183525348
 30
0.0
 40
0.001
  1
K-979T-4
  3

  2
MODELNUMBER
 70
     0
1001
ACDBATTR
1070
     0
1070
     1
  0
ATTDEF
  5
82A
  8
DEFPOINTS
 10
482.5456418324939136
 20
88.9247403516858554
 30
0.0
 40
0.001
  1
STILLNESS
  3

  2
TRADENAME
 70
     0
1001
ACDBATTR
1070
     0
1070
     1
  0
ATTDEF
  5
82B
  8
DEFPOINTS
 10
482.5456418324939136
 20
88.9230736850191903
 30
0.0
 40
0.001
  1
BATHROOM SINK FAUCET
  3

  2
PRODUCT
 70
     0
1001
ACDBATTR
1070
     0
1070
     1
  0
LINE
  5
8939
  8
0
 10
481.3867712399277821
 20
88.921662475591134
 30
0.0
 11
483.7096058856026843
 21
88.921662475591134
 31
0.0
  0
LINE
  5
893A
  8
0
 10
483.7096058856026843
 20
89.3350483023911437
 30
0.0
 11
481.3867712398529193
 21
89.335048302451824
 31
0.0
  0
LINE
  5
893B
  8
0
 10
482.091495653987181
 20
89.3543663812911291
 30
0.0
 11
483.0048814716685115
 21
89.3543663812911291
 31
0.0
  0
LINE
  5
893C
  8
0
 10
482.5588437037278027
 20
95.2574681411911541
 30
0.0
 11
482.5945181920523055
 21
95.2826938137400958
 31
0.0
  0
LINE
  5
893D
  8
0
 10
482.612156700427704
 20
95.2951661226911426
 30
0.0
 11
482.6537722156479049
 21
95.324592735668034
 31
0.0
  0
LINE
  5
893E
  8
0
 10
482.6709012814276889
 20
95.3367048142911386
 30
0.0
 11
482.7123671892830998
 21
95.3660256389002541
 31
0.0
  0
LINE
  5
893F
  8
0
 10
482.7295761640277192
 20
95.3781942216910466
 30
0.0
 11
482.7591239700911956
 21
95.3990876756487012
 31
0.0
  0
LINE
  5
8940
  8
0
 10
482.5639146405180213
 20
95.2522949969262811
 30
0.0
 11
482.6015644957079758
 21
95.2789174648103767
 31
0.0
  0
LINE
  5
8941
  8
0
 10
482.6172916167278117
 20
95.2900382187911248
 30
0.0
 11
482.6603492128677999
 21
95.3204845369354103
 31
0.0
  0
LINE
  5
8942
  8
0
 10
482.6759993563277931
 20
95.3315508594911307
 30
0.0
 11
482.7188005493741798
 21
95.3618158733339243
 31
0.0
  0
LINE
  5
8943
  8
0
 10
482.7346588065140054
 20
95.3730293545773833
 30
0.0
 11
482.7657544757129244
 21
95.3950173130572381
 31
0.0
  0
LINE
  5
8944
  8
0
 10
482.6999220009278133
 20
95.3111554562911323
 30
0.0
 11
482.7533589174316262
 21
95.3329709861062042
 31
0.0
  0
LINE
  5
8945
  8
0
 10
482.7717837623278001
 20
95.3404928974911314
 30
0.0
 11
482.8137876706447855
 21
95.3576409213277856
 31
0.0
  0
LINE
  5
8946
  8
0
 10
482.8189199661367184
 20
95.352269164148467
 30
0.0
 11
482.7752845119277936
 21
95.3344550645911539
 31
0.0
  0
LINE
  5
8947
  8
0
 10
482.7584702547575262
 20
95.3275906728149778
 30
0.0
 11
482.703443406227791
 21
95.3051260559911242
 31
0.0
  0
LINE
  5
8948
  8
0
 10
482.6335177050278276
 20
95.3560724387911307
 30
0.0
 11
482.66137972950429
 21
95.3901963102700847
 31
0.0
  0
LINE
  5
8949
  8
0
 10
482.6750071124278065
 20
95.4068863776911229
 30
0.0
 11
482.6939576400702094
 21
95.4300959391686092
 31
0.0
  0
LINE
  5
894A
  8
0
 10
482.7013306866533071
 20
95.4273333142268143
 30
0.0
 11
482.6814740136488808
 21
95.4030139558206542
 31
0.0
  0
LINE
  5
894B
  8
0
 10
482.6687841009105
 20
95.3874720501870996
 30
0.0
 11
482.6399942942277903
 21
95.352211882191142
 31
0.0
  0
LINE
  5
894C
  8
0
 10
482.0954326573278195
 20
97.9610325543911244
 30
0.0
 11
482.0954326573278195
 21
93.4374105070911156
 31
0.0
  0
LINE
  5
894D
  8
0
 10
482.0954326573278195
 20
92.7208750739911238
 30
0.0
 11
482.0954326573278195
 21
89.3543663812911291
 31
0.0
  0
LINE
  5
894E
  8
0
 10
482.0954326573278195
 20
92.7287490897911368
 30
0.0
 11
482.0954326573278195
 21
93.4374105070911156
 31
0.0
  0
LINE
  5
894F
  8
0
 10
482.1799151979278122
 20
92.7208750739911238
 30
0.0
 11
482.1799151979278122
 21
92.7287490897911368
 31
0.0
  0
LINE
  5
8950
  8
0
 10
482.5903189006277785
 20
95.3679384582911354
 30
0.0
 11
482.6043444785631209
 21
95.4049513754693521
 31
0.0
  0
LINE
  5
8951
  8
0
 10
482.6117953982277982
 20
95.4246140426911325
 30
0.0
 11
482.6209522009417014
 21
95.4487784646804727
 31
0.0
  0
LINE
  5
8952
  8
0
 10
482.6287324436690938
 20
95.4474435685597058
 30
0.0
 11
482.6192801733276951
 21
95.4224415170911158
 31
0.0
  0
LINE
  5
8953
  8
0
 10
482.6121040313103094
 20
95.4035618796023357
 30
0.0
 11
482.5978061272277841
 21
95.3658303049911353
 31
0.0
  0
LINE
  5
8954
  8
0
 10
482.4399208462277784
 20
92.7287490897911368
 30
0.0
 11
482.4399208462277784
 21
92.7208750739911238
 31
0.0
  0
LINE
  5
8955
  8
0
 10
482.5521228108278251
 20
95.4546227753860848
 30
0.0
 11
482.5521228108278251
 21
95.4301691051911405
 31
0.0
  0
LINE
  5
8956
  8
0
 10
482.5521228108278251
 20
95.4095313161939771
 30
0.0
 11
482.5521228108278251
 21
95.3714942222911333
 31
0.0
  0
LINE
  5
8957
  8
0
 10
482.5521228108278251
 20
95.3508896440710316
 30
0.0
 11
482.5521228108278251
 21
95.3127392394278843
 31
0.0
  0
LINE
  5
8958
  8
0
 10
482.5521228108278251
 20
95.2922793928731124
 30
0.0
 11
482.5521228108278251
 21
95.2594366450911423
 31
0.0
  0
LINE
  5
8959
  8
0
 10
482.5521228108278251
 20
95.2325356099847795
 30
0.0
 11
482.5521228108278251
 21
95.1904213805902657
 31
0.0
  0
LINE
  5
895A
  8
0
 10
482.5521228108278251
 20
95.1695399951341869
 30
0.0
 11
482.5521228108278251
 21
95.1316430568911358
 31
0.0
  0
LINE
  5
895B
  8
0
 10
482.5521228108278251
 20
95.110812745251863
 30
0.0
 11
482.5521228108278251
 21
95.0729615675935946
 31
0.0
  0
LINE
  5
895C
  8
0
 10
482.5521228108278251
 20
95.0521731876340539
 30
0.0
 11
482.5521228108278251
 21
95.0198727427911365
 31
0.0
  0
LINE
  5
895D
  8
0
 10
482.5588437037278027
 20
95.2918646098467121
 30
0.0
 11
482.5588437037278027
 21
95.2574681411911541
 31
0.0
  0
LINE
  5
895E
  8
0
 10
482.5903189006277785
 20
95.3679384582911354
 30
0.0
 11
482.5903188700726787
 21
95.4069909609164171
 31
0.0
  0
LINE
  5
895F
  8
0
 10
482.606543166427798
 20
95.2420578514911256
 30
0.0
 11
482.6065431668276915
 21
95.2086669795911149
 31
0.0
  0
LINE
  5
8960
  8
0
 10
482.6117965378697932
 20
95.450171058795604
 30
0.0
 11
482.6117953982277982
 21
95.4246140426911325
 31
0.0
  0
LINE
  5
8961
  8
0
 10
482.6121552717037844
 20
95.341830195446974
 30
0.0
 11
482.612156700427704
 21
95.2951661226911426
 31
0.0
  0
LINE
  5
8962
  8
0
 10
483.0009444683278161
 20
92.7208750739911238
 30
0.0
 11
482.0954326573278195
 21
92.7208750739911238
 31
0.0
  0
LINE
  5
8963
  8
0
 10
482.0954326573278195
 20
92.7287490897911368
 30
0.0
 11
485.087558641527778
 21
92.7287490897911368
 31
0.0
  0
LINE
  5
8964
  8
0
 10
482.6335177050278276
 20
95.3560724387911307
 30
0.0
 11
482.6335176406353185
 21
95.3987387638887157
 31
0.0
  0
LINE
  5
8965
  8
0
 10
482.6347551039481232
 20
95.0629125428159654
 30
0.0
 11
482.6347572589066885
 21
95.0282924912712446
 31
0.0
  0
LINE
  5
8966
  8
0
 10
482.6425887606276888
 20
95.3079260007911273
 30
0.0
 11
482.6425913216277763
 21
95.2487787443911316
 31
0.0
  0
LINE
  5
8967
  8
0
 10
482.6564562793278128
 20
92.7287490897911368
 30
0.0
 11
482.6564562793278128
 21
92.7208750739911238
 31
0.0
  0
LINE
  5
8968
  8
0
 10
482.6653214906277753
 20
95.2420578514911256
 30
0.0
 11
482.6653214914277896
 21
95.1671044276911289
 31
0.0
  0
LINE
  5
8969
  8
0
 10
482.6709012814276889
 20
95.3367048142911386
 30
0.0
 11
482.6709011748416174
 21
95.3866566255505433
 31
0.0
  0
LINE
  5
896A
  8
0
 10
482.6739483655288154
 20
95.1491385708166462
 30
0.0
 11
482.6739483658278118
 21
95.0975355754911362
 31
0.0
  0
LINE
  5
896B
  8
0
 10
482.6999220009278133
 20
95.3111554562911323
 30
0.0
 11
482.6999219033277768
 21
95.348466654691137
 31
0.0
  0
LINE
  5
896C
  8
0
 10
482.7114878341275812
 20
95.0940126718292476
 30
0.0
 11
482.7114878342277962
 21
95.0515593039911266
 31
0.0
  0
LINE
  5
896D
  8
0
 10
482.7186021490277881
 20
95.2811655111911335
 30
0.0
 11
482.7186020610278092
 21
95.3113145508911543
 31
0.0
  0
LINE
  5
896E
  8
0
 10
482.7256687048277968
 20
95.2487787443911316
 30
0.0
 11
482.725668623827687
 21
95.275615246191137
 31
0.0
  0
LINE
  5
896F
  8
0
 10
482.7770918047277746
 20
95.1482919209911415
 30
0.0
 11
482.7770918051277818
 21
95.0880708808911237
 31
0.0
  0
LINE
  5
8970
  8
0
 10
482.785572647527772
 20
95.2420578514911256
 30
0.0
 11
482.7855726479277791
 21
95.2038995743911158
 31
0.0
  0
LINE
  5
8971
  8
0
 10
482.7908820275276867
 20
92.7208750739911238
 30
0.0
 11
482.7908820276277879
 21
92.7287490897911368
 31
0.0
  0
LINE
  5
8972
  8
0
 10
482.8270962098278005
 20
95.1891430187911141
 30
0.0
 11
482.8270989719277964
 21
95.1353426330911418
 31
0.0
  0
LINE
  5
8973
  8
0
 10
482.8580933316279129
 20
95.2420578514911256
 30
0.0
 11
482.8580933320278064
 21
95.1901591753911163
 31
0.0
  0
LINE
  5
8974
  8
0
 10
482.916461927627779
 20
92.7208750739911238
 30
0.0
 11
482.916461927627779
 21
92.7287490897911368
 31
0.0
  0
LINE
  5
8975
  8
0
 10
482.6153232411277827
 20
95.0795780564911155
 30
0.0
 11
482.6153251870072154
 21
95.1205683044125863
 31
0.0
  0
LINE
  5
8976
  8
0
 10
482.6750109268879214
 20
95.4364058133605084
 30
0.0
 11
482.6750071124278065
 21
95.4068863776911229
 31
0.0
  0
LINE
  5
8977
  8
0
 10
482.7240029798277874
 20
95.1256103492911365
 30
0.0
 11
482.724011608427702
 21
95.1699618203911371
 31
0.0
  0
LINE
  5
8978
  8
0
 10
482.7295829005217911
 20
95.4150561988656705
 30
0.0
 11
482.729576164027776
 21
95.3781942216911176
 31
0.0
  0
LINE
  5
8979
  8
0
 10
482.7717913205228797
 20
95.3911440861591444
 30
0.0
 11
482.7717837623278001
 21
95.3404928974911314
 31
0.0
  0
LINE
  5
897A
  8
0
 10
482.7987614663277895
 20
95.344039491091138
 30
0.0
 11
482.7987535292277812
 21
95.2963516882911392
 31
0.0
  0
LINE
  5
897B
  8
0
 10
482.7620759436277922
 20
95.1618891285911133
 30
0.0
 11
482.762085372227773
 21
95.2014605370911369
 31
0.0
  0
LINE
  5
897C
  8
0
 10
482.8086585205277856
 20
95.29133923329114
 30
0.0
 11
482.808647519527824
 21
95.2487787443911316
 31
0.0
  0
LINE
  5
897D
  8
0
 10
483.0009444683278161
 20
97.9610325543911244
 30
0.0
 11
483.0009444683278161
 21
93.4374105070911156
 31
0.0
  0
LINE
  5
897E
  8
0
 10
483.0009444683278161
 20
92.7208750739911238
 30
0.0
 11
483.0009444683278161
 21
89.3543663812911291
 31
0.0
  0
LINE
  5
897F
  8
0
 10
482.0954326573278195
 20
93.4374105070911156
 30
0.0
 11
485.087558641527778
 21
93.4374105070911156
 31
0.0
  0
LINE
  5
8980
  8
0
 10
482.6272722605278886
 20
95.0261784578909356
 30
0.0
 11
482.6150327914447189
 21
95.0584779080348454
 31
0.0
  0
LINE
  5
8981
  8
0
 10
482.607840882327821
 20
95.0774570570911379
 30
0.0
 11
482.5935658837444748
 21
95.1151281850194152
 31
0.0
  0
LINE
  5
8982
  8
0
 10
482.601224730345109
 20
95.1167834404158015
 30
0.0
 11
482.6153232411277827
 21
95.0795780564911155
 31
0.0
  0
LINE
  5
8983
  8
0
 10
482.6227187345734251
 20
95.0600616566336072
 30
0.0
 11
482.6347572589066885
 21
95.0282924912712446
 31
0.0
  0
LINE
  5
8984
  8
0
 10
482.7050446149277718
 20
95.0476579207911385
 30
0.0
 11
482.6801987173515727
 21
95.078087763699159
 31
0.0
  0
LINE
  5
8985
  8
0
 10
482.6675082367278264
 20
95.0936304066911191
 30
0.0
 11
482.6385997751117998
 21
95.1290358546258261
 31
0.0
  0
LINE
  5
8986
  8
0
 10
482.6456533060691072
 20
95.1321898047991397
 30
0.0
 11
482.6739483658278118
 21
95.0975355754911362
 31
0.0
  0
LINE
  5
8987
  8
0
 10
482.6872630941376769
 20
95.0812284302791682
 30
0.0
 11
482.7114878342277962
 21
95.0515593039911266
 31
0.0
  0
LINE
  5
8988
  8
0
 10
482.5597883315114132
 20
95.2329688025762096
 30
0.0
 11
482.6015791580277892
 21
95.2034182257911397
 31
0.0
  0
LINE
  5
8989
  8
0
 10
482.6172983652730863
 20
95.1923030677501885
 30
0.0
 11
482.6603097500278068
 21
95.1618894258911325
 31
0.0
  0
LINE
  5
898A
  8
0
 10
482.6760375529693761
 20
95.1507681897670068
 30
0.0
 11
482.7189759198278125
 21
95.1204061794911411
 31
0.0
  0
LINE
  5
898B
  8
0
 10
482.7344802076052019
 20
95.109442992475806
 30
0.0
 11
482.7721266029356002
 21
95.0828229709505877
 31
0.0
  0
LINE
  5
898C
  8
0
 10
482.5644173065008999
 20
95.2384544611270059
 30
0.0
 11
482.6065431668276915
 21
95.2086669795911149
 31
0.0
  0
LINE
  5
898D
  8
0
 10
482.6225867469727859
 20
95.1973224553124879
 30
0.0
 11
482.6653214914277896
 21
95.1671044276911289
 31
0.0
  0
LINE
  5
898E
  8
0
 10
482.6817075046034233
 20
95.1555177666309078
 30
0.0
 11
482.7240029798277874
 21
95.1256103492911365
 31
0.0
  0
LINE
  5
898F
  8
0
 10
482.7403956581835018
 20
95.1140189752155294
 30
0.0
 11
482.7770918051277818
 21
95.0880708808911237
 31
0.0
  0
LINE
  5
8990
  8
0
 10
482.8236793560520255
 20
95.1292726328501885
 30
0.0
 11
482.7751609012050267
 21
95.1490802090194592
 31
0.0
  0
LINE
  5
8991
  8
0
 10
482.7586664299277004
 20
95.155814048791143
 30
0.0
 11
482.7027755687622061
 21
95.1786313973447733
 31
0.0
  0
LINE
  5
8992
  8
0
 10
482.7068080231147178
 20
95.1844521626824331
 30
0.0
 11
482.7620759436277922
 21
95.1618891285911133
 31
0.0
  0
LINE
  5
8993
  8
0
 10
482.7792452073999243
 20
95.1548798019615987
 30
0.0
 11
482.8270989719277964
 21
95.1353426330911418
 31
0.0
  0
LINE
  5
8994
  8
0
 10
482.8545638382395282
 20
95.3000368538216378
 30
0.0
 11
482.8005624319907838
 21
95.2898052780564626
 31
0.0
  0
LINE
  5
8995
  8
0
 10
482.7859092651880246
 20
95.2870289617156061
 30
0.0
 11
482.7204354528277008
 21
95.2746237241911444
 31
0.0
  0
LINE
  5
8996
  8
0
 10
482.7186021490277881
 20
95.2811655111911335
 30
0.0
 11
482.7829337601218072
 21
95.293354337357087
 31
0.0
  0
LINE
  5
8997
  8
0
 10
482.7987535292276107
 20
95.296351688291125
 30
0.0
 11
482.8513825483440769
 21
95.3063232396222588
 31
0.0
  0
LINE
  5
8998
  8
0
 10
482.5671699177544838
 20
95.2420578514911256
 30
0.0
 11
482.6269755256276994
 21
95.2420578514911256
 31
0.0
  0
LINE
  5
8999
  8
0
 10
482.642756315227814
 20
95.2420578514911256
 30
0.0
 11
482.7099994871277886
 21
95.2420578514911256
 31
0.0
  0
LINE
  5
899A
  8
0
 10
482.725756020327708
 20
95.2420578514911256
 30
0.0
 11
482.7929551620277948
 21
95.2420578514911256
 31
0.0
  0
LINE
  5
899B
  8
0
 10
482.8087098269107855
 20
95.2420578514911256
 30
0.0
 11
482.8680219958548037
 21
95.2420578514911256
 31
0.0
  0
LINE
  5
899C
  8
0
 10
482.5671981184274841
 20
95.2487787443911316
 30
0.0
 11
482.6267785692277812
 21
95.2487787443911316
 31
0.0
  0
LINE
  5
899D
  8
0
 10
482.6425913216277763
 20
95.2487787443911316
 30
0.0
 11
482.7099036730277817
 21
95.2487787443911316
 31
0.0
  0
LINE
  5
899E
  8
0
 10
482.7256687048277968
 20
95.2487787443911316
 30
0.0
 11
482.7928918300278269
 21
95.2487787443911316
 31
0.0
  0
LINE
  5
899F
  8
0
 10
482.808647519527824
 20
95.2487787443911316
 30
0.0
 11
482.8680317667430018
 21
95.2487787443911316
 31
0.0
  0
LINE
  5
89A0
  8
0
 10
482.8563902668072956
 20
95.183592712169883
 30
0.0
 11
482.7985633455418224
 21
95.1945491032162039
 31
0.0
  0
LINE
  5
89A1
  8
0
 10
482.7838798375278202
 20
95.1973311682911287
 30
0.0
 11
482.7187674956745127
 21
95.2096679184770949
 31
0.0
  0
LINE
  5
89A2
  8
0
 10
482.7204149429607014
 20
95.2162449195261757
 30
0.0
 11
482.7855726479277791
 21
95.2038995743911158
 31
0.0
  0
LINE
  5
89A3
  8
0
 10
482.8004849979221831
 20
95.2010741509932075
 30
0.0
 11
482.8580933320278064
 21
95.1901591753911163
 31
0.0
  0
LINE
  5
89A4
  8
0
 10
485.1072436809276951
 20
93.4177254676911133
 30
0.0
 11
485.1072436809276951
 21
92.7484341291911392
 31
0.0
  0
ARC
  5
89A5
  8
0
 10
482.5481885628278178
 20
59.8303392958911289
 30
0.0
 40
29.5275590550999993
 50
87.7457844972967962
 51
89.1137899504230262
  0
ARC
  5
89A6
  8
0
 10
482.5481885723935989
 20
59.8303388497089728
 30
0.0
 40
29.52755950137675
 50
90.8862100547462575
 51
92.254215487432873
  0
ARC
  5
89A7
  8
0
 10
482.5481885628278178
 20
97.9610325543911244
 30
0.0
 40
0.4527559055
 50
0.0
 51
180.0
  0
ARC
  5
89A8
  8
0
 10
485.087558641527778
 20
93.4177254676911133
 30
0.0
 40
0.0196850394
 50
0.0
 51
90.0
  0
ARC
  5
89A9
  8
0
 10
485.087558641527778
 20
92.7484341291911392
 30
0.0
 40
0.0196850394
 50
270.0
 51
0.0
  0
LINE
  5
89AA
  8
0
 10
482.9835226757339797
 20
93.4001820728834957
 30
0.0
 11
482.9835226757339797
 21
92.7543972782787307
 31
0.0
  0
ARC
  5
89AB
  8
0
 10
483.0264650124216814
 20
93.4027770007704703
 30
0.0
 40
0.0430206686478661
 50
126.3855509350955941
 51
183.4580754859032083
  0
ARC
  5
89AC
  8
0
 10
483.0092144501952021
 20
92.7541030105446254
 30
0.0
 40
0.0256934596428573
 50
179.3437758843421932
 51
260.6749637555893742
  0
ARC
  5
89AD
  8
0
 10
482.5493145614514106
 20
94.9900751488926574
 30
0.0
 40
0.6146890507117547
 50
69.5935814931007855
 51
90.1049555134836453
  0
ARC
  5
89AE
  8
0
 10
482.6148922470210891
 20
95.1663477876773811
 30
0.0
 40
0.4266133318408557
 50
35.3766042071582234
 51
69.5935814931007855
  0
ARC
  5
89AF
  8
0
 10
482.7586258219628803
 20
95.2827196004882779
 30
0.0
 40
0.2423260700259429
 50
0.4484848088691775
 51
32.6160087198435207
  0
ARC
  5
89B0
  8
0
 10
482.7400658850635864
 20
95.2901688713271966
 30
0.0
 40
0.2609376653031883
 50
336.5211923537087841
 51
358.7807151538411858
  0
ARC
  5
89B1
  8
0
 10
482.6630660639403914
 20
95.3426827507726102
 30
0.0
 40
0.3529181107731643
 50
296.1390110739221768
 51
333.6807723281613107
  0
ARC
  5
89B2
  8
0
 10
482.5673217723548873
 20
95.5074349941523337
 30
0.0
 40
0.5431655718636471
 50
281.5515722590495216
 51
297.5495534469354197
  0
ARC
  5
89B3
  8
0
 10
482.5451031173686829
 20
95.6228325978725024
 30
0.0
 40
0.6606764220377032
 50
270.2675797660965031
 51
281.4353856459684948
  0
ARC
  5
89B4
  8
0
 10
482.5510753000526165
 20
95.0314263122445197
 30
0.0
 40
0.5281066151493264
 50
69.648251269002202
 51
90.3131918467538242
  0
ARC
  5
89B5
  8
0
 10
482.59496745099392
 20
95.1497536600185185
 30
0.0
 40
0.4019009015485276
 50
45.7672077810947897
 51
69.648251269002202
  0
ARC
  5
89B6
  8
0
 10
482.7125032499479858
 20
95.2704800523210764
 30
0.0
 40
0.2334089853205957
 50
13.7641406538617801
 51
45.7672077810947897
  0
ARC
  5
89B7
  8
0
 10
482.7458126904203937
 20
95.2786395341177439
 30
0.0
 40
0.1991147297115577
 50
337.2032707078557792
 51
13.7641406538617801
  0
ARC
  5
89B8
  8
0
 10
482.6609095694357165
 20
95.314323816893662
 30
0.0
 40
0.2912120043192824
 50
286.1884504286969104
 51
337.2032707078557792
  0
ARC
  5
89B9
  8
0
 10
482.5332680832743222
 20
95.4921453748107183
 30
0.0
 40
0.502307727755897
 50
271.7021563124957879
 51
296.6431023827299782
  0
ARC
  5
89BA
  8
0
 10
482.6338002468909281
 20
95.2716199413162883
 30
0.0
 40
0.260273317333403
 50
298.632044127515428
 51
327.7067074418137054
  0
ARC
  5
89BB
  8
0
 10
482.7057583908350011
 20
95.2261416806722565
 30
0.0
 40
0.1751484286633642
 50
327.7067074418137054
 51
8.5096994123269312
  0
ARC
  5
89BC
  8
0
 10
482.675818526833325
 20
95.2140278358826038
 30
0.0
 40
0.2066891909669812
 50
10.6031020375909399
 51
50.0655458104446467
  0
ARC
  5
89BD
  8
0
 10
482.587140286145825
 20
95.1154290187492819
 30
0.0
 40
0.3392488734860419
 50
49.2708943573663092
 51
71.7156712485996906
  0
ARC
  5
89BE
  8
0
 10
482.5495685714465139
 20
95.0107679747890757
 30
0.0
 40
0.4504221459504058
 50
71.3545132880958306
 51
90.1755437578381276
  0
ARC
  5
89BF
  8
0
 10
482.6193640930353013
 20
95.3279931020550748
 30
0.0
 40
0.3179764882028195
 50
292.7050031161678021
 51
329.4300270926655116
  0
ARC
  5
89C0
  8
0
 10
482.7220986230146877
 20
95.2582360726374446
 30
0.0
 40
0.1942005935550316
 50
331.7353447294933062
 51
359.6731728456894075
  0
ARC
  5
89C1
  8
0
 10
482.7087672592185754
 20
95.2531445495077946
 30
0.0
 40
0.2075670310298647
 50
1.099727243952292
 51
42.183944949269339
  0
ARC
  5
89C2
  8
0
 10
482.5973899935947884
 20
95.1497104454138167
 30
0.0
 40
0.3595588984745107
 50
42.4791657722852065
 51
73.8637121058317518
  0
ARC
  5
89C3
  8
0
 10
482.5494702305667829
 20
95.016564322502461
 30
0.0
 40
0.5008588787468059
 50
72.8309547641849377
 51
90.1466166185886806
  0
ARC
  5
89C4
  8
0
 10
482.6998875272411169
 20
95.2615521192920056
 30
0.0
 40
0.1989836809015932
 50
323.8139033148135013
 51
354.7806920601909724
  0
ARC
  5
89C5
  8
0
 10
482.706250315338707
 20
95.2556946701649565
 30
0.0
 40
0.1921862728660695
 50
356.3473476385893832
 51
43.0991661189504001
  0
ARC
  5
89C6
  8
0
 10
482.5922249960223098
 20
95.1489947762664769
 30
0.0
 40
0.3483484987823785
 50
43.0991661189504001
 51
68.5280110893597225
  0
ARC
  5
89C7
  8
0
 10
482.5523030434376892
 20
95.0475015138862886
 30
0.0
 40
0.4574110707617022
 50
68.5280110893597225
 51
90.5153910147262479
  0
ARC
  5
89C8
  8
0
 10
482.548404924442309
 20
95.0026070559921152
 30
0.0
 40
0.4520310091779414
 50
76.8408631523143271
 51
90.027424248443765
  0
ARC
  5
89C9
  8
0
 10
482.5656953178291246
 20
95.0765622335209741
 30
0.0
 40
0.3760815128873475
 50
53.8426088448656017
 51
76.8408631523143271
  0
ARC
  5
89CA
  8
0
 10
482.6598950431140906
 20
95.2054708720633585
 30
0.0
 40
0.2164224219008528
 50
19.961716503437799
 51
53.8426088448656017
  0
ARC
  5
89CB
  8
0
 10
482.7178556089295967
 20
95.2265229453248168
 30
0.0
 40
0.1547570590278751
 50
337.0121122614770002
 51
19.961716503437799
  0
ARC
  5
89CC
  8
0
 10
482.6480595362136228
 20
95.2561322087114775
 30
0.0
 40
0.2305739453058096
 50
303.7025001136577202
 51
337.0121122614770002
  0
ARC
  5
89CD
  8
0
 10
482.5619958538748051
 20
95.3851670584670046
 30
0.0
 40
0.3856769751574041
 50
284.3981961626514021
 51
303.7025001136577202
  0
ARC
  5
89CE
  8
0
 10
482.5339044330264073
 20
95.5178170758169784
 30
0.0
 40
0.5211777852679378
 50
271.5705256665074785
 51
283.7632441476785061
  0
ARC
  5
89CF
  8
0
 10
482.5481880633150809
 20
95.433217170706385
 30
0.0
 40
0.005749891236964
 50
270.0049769820107031
 51
278.3188842785767179
  0
ARC
  5
89D0
  8
0
 10
482.5482844340100996
 20
95.4325580944029781
 30
0.0
 40
0.0050838064941506
 50
278.3188842785734209
 51
302.4395841076100169
  0
ARC
  5
89D1
  8
0
 10
482.5497215551382055
 20
95.4302970082423769
 30
0.0
 40
0.0024046596593993
 50
302.439584107609619
 51
356.951017633944673
  0
ARC
  5
89D2
  8
0
 10
482.6161473748284152
 20
95.4256279332549724
 30
0.0
 40
0.0044685203823271
 50
193.1144101874843102
 51
314.5138648832087256
  0
ARC
  5
89D3
  8
0
 10
482.6796365029077265
 20
95.4072813707276453
 30
0.0
 40
0.0046462108986291
 50
184.8768307064239877
 51
293.2962797276550191
  0
ARC
  5
89D4
  8
0
 10
482.735141340724681
 20
95.3785875038427093
 30
0.0
 40
0.0055790557013449
 50
184.042281114442801
 51
265.0382714883850213
  0
ARC
  5
89D5
  8
0
 10
482.7795592919242154
 20
95.3409673798471147
 30
0.0
 40
0.007789993197128
 50
183.4920023022125122
 51
236.7185132778213017
  0
ARC
  5
89D6
  8
0
 10
482.815376992776919
 20
95.2974219574635413
 30
0.0
 40
0.0166578815121172
 50
183.6837922743476952
 51
207.2092673749531002
  0
ARC
  5
89D7
  8
0
 10
482.695421913288385
 20
95.2443683284763836
 30
0.0
 40
0.1133114719559197
 50
358.8316297307604827
 51
2.2306838230621948
  0
ARC
  5
89D8
  8
0
 10
482.8463324622680943
 20
95.1897053683960337
 30
0.0
 40
0.0117696218415388
 50
328.7107516705087846
 51
2.2097288067670702
  0
ARC
  5
89D9
  8
0
 10
482.8199967874734284
 20
95.1353455004518338
 30
0.0
 40
0.0071021850331664
 50
301.2324961218765793
 51
359.9768680102671965
  0
ARC
  5
89DA
  8
0
 10
482.7718124136478082
 20
95.0880930516938889
 30
0.0
 40
0.0052794380328774
 50
273.4117955398942854
 51
359.7593878075603016
  0
ARC
  5
89DB
  8
0
 10
482.7070385009027973
 20
95.0516362247718263
 30
0.0
 40
0.0044499981847016
 50
243.3804314775622117
 51
359.009560136814514
  0
ARC
  5
89DC
  8
0
 10
482.6305164443679132
 20
95.0289998221159351
 30
0.0
 40
0.0042993981994348
 50
221.012453714355587
 51
350.5307316145447203
  0
ARC
  5
89DD
  8
0
 10
482.5493707998240893
 20
95.0201106614541686
 30
0.0
 40
0.0027622762090386
 50
299.7136974167672179
 51
355.0589131900831035
  0
ARC
  5
89DE
  8
0
 10
482.5480455660269854
 20
95.022432753566747
 30
0.0
 40
0.0054359172462982
 50
281.2642618315916252
 51
299.7136974167606809
  0
ARC
  5
89DF
  8
0
 10
482.5481832747645967
 20
95.0221848673288747
 30
0.0
 40
0.0051666332690037
 50
270.0568503125796269
 51
280.3034680529676166
  0
LINE
  5
89E0
  8
0
 10
482.8680219958548037
 20
95.2420578514911256
 30
0.0
 11
482.8680536189264103
 21
95.2638097407348141
 31
0.0
  0
ARC
  5
89E1
  8
0
 10
482.5481994308864842
 20
95.3745716778734618
 30
0.0
 40
0.0057399848711048
 50
269.8915163920227087
 51
289.6701431586200215
  0
ARC
  5
89E2
  8
0
 10
482.549093636915984
 20
95.3720701506528883
 30
0.0
 40
0.0030834377026405
 50
289.6701431586200215
 51
349.2349988445686222
  0
ARC
  5
89E3
  8
0
 10
482.5489330860373229
 20
95.0731488038738348
 30
0.0
 40
0.3363976351567472
 50
67.2394005964263783
 51
90.1268084875967332
  0
ARC
  5
89E4
  8
0
 10
482.5911365652152085
 20
95.1737404937910725
 30
0.0
 40
0.2273113310891536
 50
38.9931191711585114
 51
67.2394005964263783
  0
ARC
  5
89E5
  8
0
 10
482.6664022709641131
 20
95.2346744958596503
 30
0.0
 40
0.1304718811218632
 50
8.5987024240200061
 51
38.9931191711585114
  0
ARC
  5
89E6
  8
0
 10
482.6672871095613004
 20
95.2348082946187162
 30
0.0
 40
0.1295769836690373
 50
330.0345432454549268
 51
8.5987024240192014
  0
ARC
  5
89E7
  8
0
 10
482.621042497996882
 20
95.261470472391764
 30
0.0
 40
0.182957090659755
 50
303.3848558963960045
 51
330.0345432454549268
  0
ARC
  5
89E8
  8
0
 10
482.5595444822623108
 20
95.3547907714180951
 30
0.0
 40
0.2947188200203347
 50
282.5632730951082863
 51
303.3848558963960045
  0
ARC
  5
89E9
  8
0
 10
482.548344772789676
 20
95.4050466890172544
 30
0.0
 40
0.3462075638970549
 50
269.9741479515765832
 51
282.5632730951082863
  0
ARC
  5
89EA
  8
0
 10
482.5489941693928131
 20
95.1267255951878639
 30
0.0
 40
0.2241858900799358
 50
69.0881624451776446
 51
90.2058914515577754
  0
ARC
  5
89EB
  8
0
 10
482.5807079384031226
 20
95.2003020973199341
 30
0.0
 40
0.1441754188143527
 50
33.2663661447992283
 51
70.4247794860125822
  0
ARC
  5
89EC
  8
0
 10
482.6268844604613264
 20
95.2339307895542362
 30
0.0
 40
0.0871640693686685
 50
1.2413154052272579
 51
31.4329909033842192
  0
ARC
  5
89ED
  8
0
 10
482.6197201013129074
 20
95.2366580177032915
 30
0.0
 40
0.0943117046715385
 50
315.3963424511326252
 51
359.4903107858073099
  0
ARC
  5
89EE
  8
0
 10
482.5640919251704872
 20
95.2929440217321542
 30
0.0
 40
0.1734448249762385
 50
280.6757307181683814
 51
315.0618527713249932
  0
ARC
  5
89EF
  8
0
 10
482.5483598347199745
 20
95.3478634795203703
 30
0.0
 40
0.2303887241748386
 50
269.9574060736890146
 51
281.9904154941904721
  0
ARC
  5
89F0
  8
0
 10
482.594676671107095
 20
95.369065595867653
 30
0.0
 40
0.0045011779199298
 50
194.5017438154960985
 51
314.0473578849656064
  0
ARC
  5
89F1
  8
0
 10
482.6383632424792154
 20
95.3568385208275942
 30
0.0
 40
0.004905722666354
 50
188.9841304879442987
 51
289.4193344982566032
  0
ARC
  5
89F2
  8
0
 10
482.6765609518932933
 20
95.3372047439876837
 30
0.0
 40
0.0056817074440039
 50
185.0479458922584968
 51
264.3274654522095943
  0
ARC
  5
89F3
  8
0
 10
482.7080755537983237
 20
95.3118744303920806
 30
0.0
 40
0.0081851907840186
 50
185.0392642388326863
 51
235.533930264139002
  0
ARC
  5
89F4
  8
0
 10
482.7332899138378934
 20
95.281753904706818
 30
0.0
 40
0.0146995456408876
 50
182.2940487445451083
 51
209.0164877939103008
  0
ARC
  5
89F5
  8
0
 10
482.8806937740969261
 20
95.2474317624672864
 30
0.0
 40
0.1550309209873817
 50
179.5021809206741068
 51
181.9864689584773032
  0
ARC
  5
89F6
  8
0
 10
482.7778585497675863
 20
95.2023853139862837
 30
0.0
 40
0.0078613163655279
 50
319.9905903586761156
 51
11.1058253992560108
  0
ARC
  5
89F7
  8
0
 10
482.7554719295441146
 20
95.1616011961379229
 30
0.0
 40
0.0066102879751734
 50
298.8986600250738093
 51
2.4964926874154529
  0
ARC
  5
89F8
  8
0
 10
482.7188175616822718
 20
95.1255892220725627
 30
0.0
 40
0.0051854611851922
 50
271.7500206785592809
 51
0.2334418797161751
  0
ARC
  5
89F9
  8
0
 10
482.6693525136627727
 20
95.0978518430431166
 30
0.0
 40
0.0046067214249255
 50
246.4002650824959062
 51
356.0633475892291813
  0
ARC
  5
89FA
  8
0
 10
482.6110677734816932
 20
95.0803318379190756
 30
0.0
 40
0.0043217116201738
 50
221.6972846337831129
 51
349.9552475413200909
  0
ARC
  5
89FB
  8
0
 10
482.5494175557479934
 20
95.337948284829281
 30
0.0
 40
0.2271516492217678
 50
269.6900024541307062
 51
296.4140750722659163
  0
ARC
  5
89FC
  8
0
 10
482.586349596956893
 20
95.2635950381492052
 30
0.0
 40
0.1441312844928631
 50
296.4140750722659163
 51
328.8717081487324094
  0
ARC
  5
89FD
  8
0
 10
482.6351955750786829
 20
95.2340963540603411
 30
0.0
 40
0.087069020765799
 50
328.8717081487324094
 51
21.9891155174233894
  0
ARC
  5
89FE
  8
0
 10
482.6020271304814742
 20
95.2207027615811938
 30
0.0
 40
0.1228395957751545
 50
21.9891155174233894
 51
63.82064325225695
  0
ARC
  5
89FF
  8
0
 10
482.5472699704237129
 20
95.1215146267271052
 30
0.0
 40
0.2360719666617329
 50
62.5147902014684718
 51
89.7770527413975401
  0
ARC
  5
8A00
  8
0
 10
482.5493850782240202
 20
95.3965085660979923
 30
0.0
 40
0.3443462618378619
 50
269.8009113768786733
 51
289.859751158915401
  0
ARC
  5
8A01
  8
0
 10
482.5776258198279152
 20
95.3183228156825351
 30
0.0
 40
0.2612165375849345
 50
289.859751158915401
 51
312.7994856257760716
  0
ARC
  5
8A02
  8
0
 10
482.6462811537210769
 20
95.2441804641986636
 30
0.0
 40
0.1601688104678026
 50
312.7994856257760716
 51
341.2179324873167729
  0
ARC
  5
8A03
  8
0
 10
482.6734489664808052
 20
95.2349412737440559
 30
0.0
 40
0.1314729450791861
 50
341.2179324873167729
 51
30.2530405020209798
  0
ARC
  5
8A04
  8
0
 10
482.6189142152232989
 20
95.2031336684514855
 30
0.0
 40
0.1946058433903489
 50
30.2530405020209798
 51
56.9740971546231734
  0
ARC
  5
8A05
  8
0
 10
482.5623745698266021
 20
95.1161563603508569
 30
0.0
 40
0.2983448602837147
 50
56.9740971546231734
 51
76.1867604114872563
  0
ARC
  5
8A06
  8
0
 10
482.5481819244841972
 20
95.0584318438766616
 30
0.0
 40
0.3577885393757527
 50
76.1867604114872563
 51
89.9989369525176244
  0
LINE
  5
8A07
  8
0
 10
482.7929579218277922
 20
95.2420557693911292
 30
0.0
 11
482.7929577302778057
 21
95.2459927487911244
 31
0.0
  0
LINE
  5
8A08
  8
0
 10
482.7929577302778057
 20
95.2459927487911244
 30
0.0
 11
482.7928918300278269
 21
95.2487787443911316
 31
0.0
  0
LINE
  5
8A09
  8
0
 10
482.7928918300278269
 20
95.2487787443911316
 30
0.0
 11
482.7928161329076033
 21
95.2669614478994191
 31
0.0
  0
ARC
  5
8A0A
  8
0
 10
482.548181600381497
 20
95.1336841491055054
 30
0.0
 40
0.0049625357984778
 50
270.0803855265060065
 51
285.2197552123467972
  0
ARC
  5
8A0B
  8
0
 10
482.5485118719208799
 20
95.1324702023302251
 30
0.0
 40
0.0037044634385072
 50
285.2197552123467972
 51
347.0980396579180933
  0
ARC
  5
8A0C
  8
0
 10
482.6605701139540088
 20
95.1666572516335947
 30
0.0
 40
0.0047749294952407
 50
266.8742666594088746
 51
5.348556075672791
  0
ARC
  5
8A0D
  8
0
 10
482.6276341890144863
 20
95.2442397824472238
 30
0.0
 40
0.0823970076971133
 50
358.4811415944528221
 51
3.1563718277490982
  0
LINE
  5
8A0E
  8
0
 10
482.7099064328277791
 20
95.2487766622911352
 30
0.0
 11
482.7098672537293282
 21
95.2606034536570263
 31
0.0
  0
ARC
  5
8A0F
  8
0
 10
482.5490277493337885
 20
95.285909536498437
 30
0.0
 40
0.1164106935078325
 50
269.5869600730493971
 51
299.1085941577738936
  0
ARC
  5
8A10
  8
0
 10
482.5710928374618902
 20
95.2462803868128702
 30
0.0
 40
0.0710528097509672
 50
299.1085941577734957
 51
329.8683542034520997
  0
ARC
  5
8A11
  8
0
 10
482.5912305979641133
 20
95.234592070539648
 30
0.0
 40
0.0477687779835312
 50
329.8683542034514176
 51
28.2138157034432915
  0
ARC
  5
8A12
  8
0
 10
482.5729871547954986
 20
95.2248043576289831
 30
0.0
 40
0.0684719792497417
 50
28.2138157034439985
 51
68.6797433263624129
  0
ARC
  5
8A13
  8
0
 10
482.5414960665054878
 20
95.1441181924473796
 30
0.0
 40
0.1550857535203546
 50
68.6797433263624129
 51
87.5267173529230149
  0
ARC
  5
8A14
  8
0
 10
482.549299124470906
 20
95.2820599344015307
 30
0.0
 40
0.1058440035317171
 50
269.3988165284508227
 51
300.3322510037523898
  0
ARC
  5
8A15
  8
0
 10
482.5712967437314092
 20
95.2444641175717237
 30
0.0
 40
0.0622855290837719
 50
300.3322510037523898
 51
333.0764301508498875
  0
ARC
  5
8A16
  8
0
 10
482.590368576771084
 20
95.2347785574427235
 30
0.0
 40
0.0408952301025637
 50
333.0764301508498875
 51
34.1688413948751801
  0
ARC
  5
8A17
  8
0
 10
482.5667533048995779
 20
95.2187484021389281
 30
0.0
 40
0.0694372507848843
 50
34.168841394875848
 51
52.6581965420088522
  0
ARC
  5
8A18
  8
0
 10
482.5601308973133996
 20
95.2100683945954245
 30
0.0
 40
0.0803550716842962
 50
52.6581965420083691
 51
75.9387122816224149
  0
ARC
  5
8A19
  8
0
 10
482.54839210198611
 20
95.1771712165649291
 30
0.0
 40
0.1151686174331002
 50
74.2497857205776342
 51
90.1012597349317446
  0
ARC
  5
8A1A
  8
0
 10
482.5481734235319209
 20
95.191967058884785
 30
0.0
 40
0.0046098784531865
 50
270.1881653335204874
 51
287.042129251324809
  0
ARC
  5
8A1B
  8
0
 10
482.5484156628035066
 20
95.1911768086290664
 30
0.0
 40
0.0037833342430234
 50
287.042129251328106
 51
348.4821880293346226
  0
ARC
  5
8A1C
  8
0
 10
482.602611259775415
 20
95.2052083888502807
 30
0.0
 40
0.0020663779411963
 50
240.0348036444966908
 51
313.7527264348250924
  0
ARC
  5
8A1D
  8
0
 10
482.598273582638285
 20
95.2097391538761428
 30
0.0
 40
0.0083387996956456
 50
313.7527264348267977
 51
352.6126543620204075
  0
ARC
  5
8A1E
  8
0
 10
482.5708190049203949
 20
95.2437755117209406
 30
0.0
 40
0.0561827836141013
 50
358.248039467906608
 51
5.1091161628012776
  0
LINE
  5
8A1F
  8
0
 10
482.6267785692277812
 20
95.2487787443911316
 30
0.0
 11
482.626823869764678
 21
95.2533104612275281
 31
0.0
  0
ARC
  5
8A20
  8
0
 10
482.5562037459188218
 20
95.2283606522583455
 30
0.0
 40
0.0058381763605504
 50
52.1213856389673182
 51
134.3475124605888027
  0
ARC
  5
8A21
  8
0
 10
482.5658617807104065
 20
95.2406312431235449
 30
0.0
 40
0.002612448201246
 50
184.6870998403651924
 51
236.4324483834353998
  0
ARC
  5
8A22
  8
0
 10
482.5668376283758221
 20
95.2373651909228585
 30
0.0
 40
0.0047044106374194
 50
85.9496210748265241
 51
139.5431029176114066
  0
ARC
  5
8A23
  8
0
 10
482.5668301971853111
 20
95.2524349058147664
 30
0.0
 40
0.0036746268377081
 50
193.7652752986087989
 51
275.7463565113953905
  0
ARC
  5
8A24
  8
0
 10
482.9758587414793283
 20
94.8850797786101765
 30
0.0
 40
0.5518559222113866
 50
138.2855495196847073
 51
138.3876204073083898
  0
ARC
  5
8A25
  8
0
 10
482.5481875183543821
 20
95.2620685702422207
 30
0.0
 40
0.0054178923527783
 50
270.0110450794235248
 51
288.6569751846757867
  0
ARC
  5
8A26
  8
0
 10
482.5488587492184251
 20
95.2600903210409768
 30
0.0
 40
0.003328872247076
 50
288.6033935783547122
 51
348.6754916209214912
  0
ARC
  5
8A27
  8
0
 10
482.5562359587765968
 20
95.2610222768781512
 30
0.0
 40
0.0044081985223435
 50
201.081811849182202
 51
306.26828913726672
  0
ARC
  5
8A28
  8
0
 10
482.5482067688545271
 20
95.235044506316413
 30
0.0
 40
0.0052774310288498
 50
269.8023412231976863
 51
291.8930131496570084
  0
ARC
  5
8A29
  8
0
 10
482.5489855943171165
 20
95.2331064342464515
 30
0.0
 40
0.0031887251018292
 50
291.8930131496605895
 51
349.687706328773686
  0
ARC
  5
8A2A
  8
0
 10
482.5554527994823957
 20
95.2432770779982434
 30
0.0
 40
0.0873120288092218
 50
359.199894853622709
 51
3.6126893222880172
  0
ARC
  5
8A2B
  8
0
 10
482.6173531165113104
 20
95.2952347237702213
 30
0.0
 40
0.0051968688862586
 50
180.756352824660496
 51
269.3219455093284864
  0
ARC
  5
8A2C
  8
0
 10
482.5481933983805902
 20
95.3165982345279588
 30
0.0
 40
0.00640211206301
 50
269.9567237097164139
 51
281.2105518293971045
  0
ARC
  5
8A2D
  8
0
 10
482.5487524067241907
 20
95.3137777623540359
 30
0.0
 40
0.0035267766717724
 50
281.2105518294035846
 51
342.8743600209102169
  0
LINE
  5
8A2E
  8
0
 10
482.5375334218277885
 20
95.2574681411911541
 30
0.0
 11
482.5018589335035131
 21
95.2826938137400958
 31
0.0
  0
LINE
  5
8A2F
  8
0
 10
482.4842204251277735
 20
95.2951661226911426
 30
0.0
 11
482.4426049099075726
 21
95.324592735668034
 31
0.0
  0
LINE
  5
8A30
  8
0
 10
482.4254758441277886
 20
95.3367048142911386
 30
0.0
 11
482.3840099362724914
 21
95.3660256389002541
 31
0.0
  0
LINE
  5
8A31
  8
0
 10
482.366800961527872
 20
95.3781942216910466
 30
0.0
 11
482.3372531554642819
 21
95.3990876756487012
 31
0.0
  0
LINE
  5
8A32
  8
0
 10
482.5324624850376267
 20
95.2522949969262811
 30
0.0
 11
482.4948126298475017
 21
95.2789174648103767
 31
0.0
  0
LINE
  5
8A33
  8
0
 10
482.4790855088277794
 20
95.2900382187911248
 30
0.0
 11
482.4360279126877913
 21
95.3204845369354103
 31
0.0
  0
LINE
  5
8A34
  8
0
 10
482.4203777692277981
 20
95.3315508594911307
 30
0.0
 11
482.3775765761815251
 21
95.3618158733339243
 31
0.0
  0
LINE
  5
8A35
  8
0
 10
482.3617183190415858
 20
95.3730293545773833
 30
0.0
 11
482.3306226498427236
 21
95.3950173130572381
 31
0.0
  0
LINE
  5
8A36
  8
0
 10
482.3964551246277779
 20
95.3111554562911323
 30
0.0
 11
482.3430182081239082
 21
95.3329709861062042
 31
0.0
  0
LINE
  5
8A37
  8
0
 10
482.3245933632277911
 20
95.3404928974911314
 30
0.0
 11
482.2825894549108057
 21
95.3576409213277856
 31
0.0
  0
LINE
  5
8A38
  8
0
 10
482.2774571594188728
 20
95.352269164148467
 30
0.0
 11
482.3210926136277976
 21
95.3344550645911539
 31
0.0
  0
LINE
  5
8A39
  8
0
 10
482.3379068707980082
 20
95.3275906728149778
 30
0.0
 11
482.3929337193278002
 21
95.3051260559911242
 31
0.0
  0
LINE
  5
8A3A
  8
0
 10
482.4628594205278205
 20
95.3560724387911307
 30
0.0
 11
482.4349973960513012
 21
95.3901963102700847
 31
0.0
  0
LINE
  5
8A3B
  8
0
 10
482.4213700131277847
 20
95.4068863776911229
 30
0.0
 11
482.4024194854853249
 21
95.4300959391686092
 31
0.0
  0
LINE
  5
8A3C
  8
0
 10
482.3950464389022841
 20
95.4273333142268143
 30
0.0
 11
482.4149031119067104
 21
95.4030139558206542
 31
0.0
  0
LINE
  5
8A3D
  8
0
 10
482.4275930246449775
 20
95.3874720501870996
 30
0.0
 11
482.4563828313276872
 21
95.352211882191142
 31
0.0
  0
LINE
  5
8A3E
  8
0
 10
482.506058224927699
 20
95.3679384582911354
 30
0.0
 11
482.4920326469925271
 21
95.4049513754693521
 31
0.0
  0
LINE
  5
8A3F
  8
0
 10
482.484581727327793
 20
95.4246140426911325
 30
0.0
 11
482.4754249246138897
 21
95.4487784646804727
 31
0.0
  0
LINE
  5
8A40
  8
0
 10
482.4676446818863838
 20
95.4474435685597058
 30
0.0
 11
482.4770969522277824
 21
95.4224415170911158
 31
0.0
  0
LINE
  5
8A41
  8
0
 10
482.4842730942452818
 20
95.4035618796023357
 30
0.0
 11
482.498570998327807
 21
95.3658303049911353
 31
0.0
  0
LINE
  5
8A42
  8
0
 10
482.5442543147278229
 20
95.4546227753860848
 30
0.0
 11
482.5442543147278229
 21
95.4301691051911405
 31
0.0
  0
LINE
  5
8A43
  8
0
 10
482.5442543147278229
 20
95.4095313161939771
 30
0.0
 11
482.5442543147278229
 21
95.3714942222911333
 31
0.0
  0
LINE
  5
8A44
  8
0
 10
482.5442543147278229
 20
95.3508896440710316
 30
0.0
 11
482.5442543147278229
 21
95.3127392394278843
 31
0.0
  0
LINE
  5
8A45
  8
0
 10
482.5442543147278229
 20
95.2922793928731124
 30
0.0
 11
482.5442543147278229
 21
95.2594366450911423
 31
0.0
  0
LINE
  5
8A46
  8
0
 10
482.5442543147278229
 20
95.2325356099847795
 30
0.0
 11
482.5442543147278229
 21
95.1904213805902657
 31
0.0
  0
LINE
  5
8A47
  8
0
 10
482.5442543147278229
 20
95.1695399951341869
 30
0.0
 11
482.5442543147278229
 21
95.1316430568911358
 31
0.0
  0
LINE
  5
8A48
  8
0
 10
482.5442543147278229
 20
95.110812745251863
 30
0.0
 11
482.5442543147278229
 21
95.0729615679516229
 31
0.0
  0
LINE
  5
8A49
  8
0
 10
482.5442543147278229
 20
95.0521731876340539
 30
0.0
 11
482.5442543147278229
 21
95.0198727427911365
 31
0.0
  0
LINE
  5
8A4A
  8
0
 10
482.5375334218277885
 20
95.2918646098467121
 30
0.0
 11
482.5375334218277885
 21
95.2574681411911541
 31
0.0
  0
LINE
  5
8A4B
  8
0
 10
482.506058224927699
 20
95.3679384582911354
 30
0.0
 11
482.5060582554830262
 21
95.4069909609164171
 31
0.0
  0
LINE
  5
8A4C
  8
0
 10
482.4898339591277932
 20
95.2420578514911256
 30
0.0
 11
482.489833958727786
 21
95.2086669795911149
 31
0.0
  0
LINE
  5
8A4D
  8
0
 10
482.484580587685798
 20
95.450171058795604
 30
0.0
 11
482.484581727327793
 21
95.4246140426911325
 31
0.0
  0
LINE
  5
8A4E
  8
0
 10
482.4842218538518068
 20
95.341830195446974
 30
0.0
 11
482.4842204251277735
 21
95.2951661226911426
 31
0.0
  0
LINE
  5
8A4F
  8
0
 10
482.4628594205278205
 20
95.3560724387911307
 30
0.0
 11
482.4628594849202159
 21
95.3987387638887157
 31
0.0
  0
LINE
  5
8A50
  8
0
 10
482.4537883649277887
 20
95.3079260007911273
 30
0.0
 11
482.4537858039278149
 21
95.2487787443911316
 31
0.0
  0
LINE
  5
8A51
  8
0
 10
482.4310556349278158
 20
95.2420578514911256
 30
0.0
 11
482.4310556341278016
 21
95.1671044276911289
 31
0.0
  0
LINE
  5
8A52
  8
0
 10
482.4254758441277886
 20
95.3367048142911386
 30
0.0
 11
482.425475950713917
 21
95.3866566255505433
 31
0.0
  0
LINE
  5
8A53
  8
0
 10
482.4224287600267758
 20
95.1491385708166462
 30
0.0
 11
482.4224287597277794
 21
95.0975355754911362
 31
0.0
  0
LINE
  5
8A54
  8
0
 10
482.3964551246277779
 20
95.3111554562911323
 30
0.0
 11
482.3964552222277007
 21
95.348466654691137
 31
0.0
  0
LINE
  5
8A55
  8
0
 10
482.3777749765278031
 20
95.2811655111911335
 30
0.0
 11
482.377775064527782
 21
95.3113145508911543
 31
0.0
  0
LINE
  5
8A56
  8
0
 10
482.3707084207277944
 20
95.2487787443911316
 30
0.0
 11
482.3707085017277905
 21
95.275615246191137
 31
0.0
  0
LINE
  5
8A57
  8
0
 10
482.3108044780278192
 20
95.2420578514911256
 30
0.0
 11
482.310804477627812
 21
95.2038995743911158
 31
0.0
  0
LINE
  5
8A58
  8
0
 10
482.2382837939279057
 20
95.2420578514911256
 30
0.0
 11
482.2382837935277848
 21
95.1901591753911163
 31
0.0
  0
LINE
  5
8A59
  8
0
 10
482.4810538844276948
 20
95.0795780564911155
 30
0.0
 11
482.4810519385483758
 21
95.1205683044125863
 31
0.0
  0
LINE
  5
8A5A
  8
0
 10
482.4213661986676129
 20
95.4364058133605084
 30
0.0
 11
482.4213700131277847
 21
95.4068863776911229
 31
0.0
  0
LINE
  5
8A5B
  8
0
 10
482.3723741457278038
 20
95.1256103492911365
 30
0.0
 11
482.3723655171277755
 21
95.1699618203911371
 31
0.0
  0
LINE
  5
8A5C
  8
0
 10
482.3667942250336864
 20
95.4150561988656705
 30
0.0
 11
482.3668009615277015
 21
95.3781942216911176
 31
0.0
  0
LINE
  5
8A5D
  8
0
 10
482.3245858050327115
 20
95.3911440861591444
 30
0.0
 11
482.3245933632277911
 21
95.3404928974911314
 31
0.0
  0
LINE
  5
8A5E
  8
0
 10
482.2976156592278016
 20
95.344039491091138
 30
0.0
 11
482.2976235963276963
 21
95.2963516882911392
 31
0.0
  0
LINE
  5
8A5F
  8
0
 10
482.334301181927799
 20
95.1618891285911133
 30
0.0
 11
482.3342917533278182
 21
95.2014605370911369
 31
0.0
  0
LINE
  5
8A60
  8
0
 10
482.2877186050278056
 20
95.29133923329114
 30
0.0
 11
482.287729606027824
 21
95.2487787443911316
 31
0.0
  0
LINE
  5
8A61
  8
0
 10
482.4885362432278271
 20
95.0774570570911379
 30
0.0
 11
482.5028112418110027
 21
95.1151281850194152
 31
0.0
  0
LINE
  5
8A62
  8
0
 10
482.4951523952104822
 20
95.1167834404158015
 30
0.0
 11
482.4810538844276948
 21
95.0795780564911155
 31
0.0
  0
LINE
  5
8A63
  8
0
 10
482.4288688888278216
 20
95.0936304066911191
 30
0.0
 11
482.4577773504436777
 21
95.1290358546258261
 31
0.0
  0
LINE
  5
8A64
  8
0
 10
482.4507238194865977
 20
95.1321898047991397
 30
0.0
 11
482.4224287597277794
 21
95.0975355754911362
 31
0.0
  0
LINE
  5
8A65
  8
0
 10
482.5365887940441212
 20
95.2329688025762096
 30
0.0
 11
482.494797967527802
 21
95.2034182257911397
 31
0.0
  0
LINE
  5
8A66
  8
0
 10
482.4790787602823912
 20
95.1923030677501885
 30
0.0
 11
482.4360673755277844
 21
95.1618894258911325
 31
0.0
  0
LINE
  5
8A67
  8
0
 10
482.4203395725862151
 20
95.1507681897670068
 30
0.0
 11
482.3774012057277787
 21
95.1204061794911411
 31
0.0
  0
LINE
  5
8A68
  8
0
 10
482.5319598190546913
 20
95.2384544611270059
 30
0.0
 11
482.489833958727786
 21
95.2086669795911149
 31
0.0
  0
LINE
  5
8A69
  8
0
 10
482.4737903785829189
 20
95.1973224553124879
 30
0.0
 11
482.4310556341278016
 21
95.1671044276911289
 31
0.0
  0
LINE
  5
8A6A
  8
0
 10
482.4146696209522247
 20
95.1555177666309078
 30
0.0
 11
482.3723741457278038
 21
95.1256103492911365
 31
0.0
  0
LINE
  5
8A6B
  8
0
 10
482.3377106956277771
 20
95.155814048791143
 30
0.0
 11
482.393601556793385
 21
95.1786313973447733
 31
0.0
  0
LINE
  5
8A6C
  8
0
 10
482.3895691024408734
 20
95.1844521626824331
 30
0.0
 11
482.334301181927799
 21
95.1618891285911133
 31
0.0
  0
LINE
  5
8A6D
  8
0
 10
482.2418132873161767
 20
95.3000368538216378
 30
0.0
 11
482.2958146935648074
 21
95.2898052780564626
 31
0.0
  0
LINE
  5
8A6E
  8
0
 10
482.3104678603676803
 20
95.2870289617156061
 30
0.0
 11
482.3759416727277767
 21
95.2746237241911444
 31
0.0
  0
LINE
  5
8A6F
  8
0
 10
482.3777749765278031
 20
95.2811655111911335
 30
0.0
 11
482.3134433654337272
 21
95.293354337357087
 31
0.0
  0
LINE
  5
8A70
  8
0
 10
482.2976235963279237
 20
95.296351688291125
 30
0.0
 11
482.2449945772115143
 21
95.3063232396222588
 31
0.0
  0
LINE
  5
8A71
  8
0
 10
482.5292072078011074
 20
95.2420578514911256
 30
0.0
 11
482.4694015999277781
 21
95.2420578514911256
 31
0.0
  0
LINE
  5
8A72
  8
0
 10
482.4536208103277772
 20
95.2420578514911256
 30
0.0
 11
482.3863776384276889
 21
95.2420578514911256
 31
0.0
  0
LINE
  5
8A73
  8
0
 10
482.3706211052278263
 20
95.2420578514911256
 30
0.0
 11
482.3034219635277964
 21
95.2420578514911256
 31
0.0
  0
LINE
  5
8A74
  8
0
 10
482.287667298644692
 20
95.2420578514911256
 30
0.0
 11
482.2283551297007875
 21
95.2420578514911256
 31
0.0
  0
LINE
  5
8A75
  8
0
 10
482.5291790071281071
 20
95.2487787443911316
 30
0.0
 11
482.46959855632781
 21
95.2487787443911316
 31
0.0
  0
LINE
  5
8A76
  8
0
 10
482.4537858039278149
 20
95.2487787443911316
 30
0.0
 11
482.3864734525278095
 21
95.2487787443911316
 31
0.0
  0
LINE
  5
8A77
  8
0
 10
482.3707084207277944
 20
95.2487787443911316
 30
0.0
 11
482.3034852955278211
 21
95.2487787443911316
 31
0.0
  0
LINE
  5
8A78
  8
0
 10
482.287729606027824
 20
95.2487787443911316
 30
0.0
 11
482.2283453588125894
 21
95.2487787443911316
 31
0.0
  0
LINE
  5
8A79
  8
0
 10
482.2399868587481819
 20
95.183592712169883
 30
0.0
 11
482.2978137800137119
 21
95.1945491032162039
 31
0.0
  0
LINE
  5
8A7A
  8
0
 10
482.3124972880278278
 20
95.1973311682911287
 30
0.0
 11
482.3776096298810785
 21
95.2096679184770949
 31
0.0
  0
LINE
  5
8A7B
  8
0
 10
482.3759621825948898
 20
95.2162449195261757
 30
0.0
 11
482.310804477627812
 21
95.2038995743911158
 31
0.0
  0
LINE
  5
8A7C
  8
0
 10
482.2958921276335218
 20
95.2010741509932075
 30
0.0
 11
482.2382837935277848
 21
95.1901591753911163
 31
0.0
  0
ARC
  5
8A7D
  8
0
 10
482.5470625641041806
 20
94.9900751488926574
 30
0.0
 40
0.6146890507117547
 50
89.8950444865163547
 51
110.4064185068992003
  0
ARC
  5
8A7E
  8
0
 10
482.4814848785345021
 20
95.1663477876773811
 30
0.0
 40
0.4266133318408557
 50
110.4064185068992003
 51
144.6233957928417055
  0
ARC
  5
8A7F
  8
0
 10
482.3377513024194059
 20
95.2827196010247945
 30
0.0
 40
0.2423260687485245
 50
147.3839912374837127
 51
179.5515153156243002
  0
ARC
  5
8A80
  8
0
 10
482.3576195854722073
 20
95.2904553098285874
 30
0.0
 40
0.2622519364836898
 50
181.2757682382680002
 51
203.4223241430566134
  0
ARC
  5
8A81
  8
0
 10
482.4333110616151998
 20
95.3426827507726102
 30
0.0
 40
0.3529181107731643
 50
206.3192276718386893
 51
243.8609889260777948
  0
ARC
  5
8A82
  8
0
 10
482.5290553532005902
 20
95.5074349941523337
 30
0.0
 40
0.5431655718636471
 50
242.4504465530646087
 51
258.4484277409504784
  0
ARC
  5
8A83
  8
0
 10
482.5453018255029747
 20
95.0314263122445197
 30
0.0
 40
0.5281066151493264
 50
89.68680815324619
 51
110.351748730997798
  0
ARC
  5
8A84
  8
0
 10
482.501409674561728
 20
95.1497536600185185
 30
0.0
 40
0.4019009015485276
 50
110.351748730997798
 51
134.232792218905189
  0
ARC
  5
8A85
  8
0
 10
482.3838738756077191
 20
95.2704800523210764
 30
0.0
 40
0.2334089853205957
 50
134.232792218905189
 51
166.2358593461381986
  0
ARC
  5
8A86
  8
0
 10
482.3505644351350838
 20
95.2786395341177439
 30
0.0
 40
0.1991147297115577
 50
166.2358593461381986
 51
202.7967292921441924
  0
ARC
  5
8A87
  8
0
 10
482.4354675561198178
 20
95.314323816893662
 30
0.0
 40
0.2912120043192824
 50
202.7967292921441924
 51
253.8115495713030896
  0
ARC
  5
8A88
  8
0
 10
482.5503480408011114
 20
95.4416128924999754
 30
0.0
 40
0.4515587622470975
 50
241.9287465096726066
 51
269.7259947951005188
  0
ARC
  5
8A89
  8
0
 10
482.4625768786646063
 20
95.2716199413162883
 30
0.0
 40
0.260273317333403
 50
212.2932925581864083
 51
241.3679558724846004
  0
ARC
  5
8A8A
  8
0
 10
482.3906187347205901
 20
95.2261416806722565
 30
0.0
 40
0.1751484286633642
 50
171.4903005876730901
 51
212.2932925581856125
  0
ARC
  5
8A8B
  8
0
 10
482.4205585987223799
 20
95.2140278358826038
 30
0.0
 40
0.2066891909669812
 50
129.9344541895553107
 51
169.3968979624090139
  0
ARC
  5
8A8C
  8
0
 10
482.509236839409823
 20
95.1154290187492819
 30
0.0
 40
0.3392488734860419
 50
108.2843287514002952
 51
130.7291056426336979
  0
ARC
  5
8A8D
  8
0
 10
482.5468085541090204
 20
95.0107679747890757
 30
0.0
 40
0.4504221459504061
 50
89.8244562421618866
 51
108.6454867119041978
  0
ARC
  5
8A8E
  8
0
 10
482.4770130325202899
 20
95.3279931020550748
 30
0.0
 40
0.3179764882028195
 50
210.5699729073344884
 51
247.2949968838321979
  0
ARC
  5
8A8F
  8
0
 10
482.3742785025409034
 20
95.2582360726374446
 30
0.0
 40
0.1942005935550316
 50
180.3268271543105925
 51
208.2646552705066938
  0
ARC
  5
8A90
  8
0
 10
482.3876098663369021
 20
95.2531445495077946
 30
0.0
 40
0.2075670310298647
 50
137.816055050730597
 51
178.9002727560477126
  0
ARC
  5
8A91
  8
0
 10
482.4989871319606891
 20
95.1497104454138167
 30
0.0
 40
0.3595588984745107
 50
106.1362878941682055
 51
137.5208342277148006
  0
ARC
  5
8A92
  8
0
 10
482.5469068949888083
 20
95.0165643225024752
 30
0.0
 40
0.500858878746783
 50
89.8533833814113052
 51
107.1690452358150054
  0
ARC
  5
8A93
  8
0
 10
482.3964895983144174
 20
95.2615521192920056
 30
0.0
 40
0.1989836809015932
 50
185.2193079398089139
 51
216.1860966851864987
  0
ARC
  5
8A94
  8
0
 10
482.3901268102169979
 20
95.2556946701649565
 30
0.0
 40
0.1921862728660695
 50
136.900833881049607
 51
183.6526523614105884
  0
ARC
  5
8A95
  8
0
 10
482.5041521295332245
 20
95.1489947762664769
 30
0.0
 40
0.3483484987823785
 50
111.4719889106402064
 51
136.900833881049607
  0
ARC
  5
8A96
  8
0
 10
482.544074082117902
 20
95.0475015138862886
 30
0.0
 40
0.4574110707617022
 50
89.4846089852737521
 51
111.4719889106402064
  0
ARC
  5
8A97
  8
0
 10
482.5479722011132822
 20
95.0026070559921152
 30
0.0
 40
0.4520310091779414
 50
89.9725757515562492
 51
103.1591368476857014
  0
ARC
  5
8A98
  8
0
 10
482.5306818077264097
 20
95.0765622335209741
 30
0.0
 40
0.3760815128873475
 50
103.1591368476857014
 51
126.1573911551344054
  0
ARC
  5
8A99
  8
0
 10
482.4364820824413869
 20
95.2054708720633585
 30
0.0
 40
0.2164224219008528
 50
126.1573911551344054
 51
160.038283496562201
  0
ARC
  5
8A9A
  8
0
 10
482.3785215166258808
 20
95.2265229453248168
 30
0.0
 40
0.1547570590278751
 50
160.038283496562201
 51
202.9878877385231135
  0
ARC
  5
8A9B
  8
0
 10
482.4483175893420253
 20
95.2561322087114775
 30
0.0
 40
0.2305739453058096
 50
202.9878877385222893
 51
236.2974998863419103
  0
ARC
  5
8A9C
  8
0
 10
482.5343812716807861
 20
95.3851670584670046
 30
0.0
 40
0.3856769751574041
 50
236.2974998863419103
 51
255.6018038373485979
  0
ARC
  5
8A9D
  8
0
 10
482.5624726886964027
 20
95.5178170555663257
 30
0.0
 40
0.5211777646868886
 50
256.2367557319295202
 51
268.4294756277708984
  0
ARC
  5
8A9E
  8
0
 10
482.5481890622405103
 20
95.433217170706385
 30
0.0
 40
0.005749891236964
 50
261.6811157214232253
 51
269.9950230179861137
  0
ARC
  5
8A9F
  8
0
 10
482.5480926915453779
 20
95.4325580944029781
 30
0.0
 40
0.0050838064941506
 50
237.5604158923900115
 51
261.6811157214265791
  0
ARC
  5
8AA0
  8
0
 10
482.5466555704173857
 20
95.4302970082423769
 30
0.0
 40
0.0024046596593993
 50
183.0489823660552986
 51
237.5604158923904095
  0
ARC
  5
8AA1
  8
0
 10
482.4802297507272897
 20
95.4256279332549724
 30
0.0
 40
0.0044685203823271
 50
225.4861351167913028
 51
346.8855898125156045
  0
ARC
  5
8AA2
  8
0
 10
482.4167406226479216
 20
95.4072813707276453
 30
0.0
 40
0.0046462108986291
 50
246.7037202723450093
 51
355.1231692935759838
  0
ARC
  5
8AA3
  8
0
 10
482.3612357848307965
 20
95.3785875038427093
 30
0.0
 40
0.0055790557013449
 50
274.9617285116149787
 51
355.957718885557199
  0
ARC
  5
8AA4
  8
0
 10
482.316817833631319
 20
95.3409673798471147
 30
0.0
 40
0.007789993197128
 50
303.2814867221787267
 51
356.5079976977875162
  0
ARC
  5
8AA5
  8
0
 10
482.2810001327786722
 20
95.2974219574635413
 30
0.0
 40
0.0166578815121172
 50
332.7907326250469282
 51
356.3162077256523048
  0
ARC
  5
8AA6
  8
0
 10
482.4009552122672062
 20
95.2443683284763836
 30
0.0
 40
0.1133114719559197
 50
177.7693161769377923
 51
181.1683702692394036
  0
ARC
  5
8AA7
  8
0
 10
482.2500446632874969
 20
95.1897053683960337
 30
0.0
 40
0.0117696218415388
 50
177.7902711932329112
 51
211.2892483294911017
  0
ARC
  5
8AA8
  8
0
 10
482.5470063257315019
 20
95.0201106614541686
 30
0.0
 40
0.0027622762090386
 50
184.9410868099170102
 51
240.2863025832328958
  0
ARC
  5
8AA9
  8
0
 10
482.5483315595286058
 20
95.022432753566747
 30
0.0
 40
0.0054359172462982
 50
240.2863025832365054
 51
258.7357381684083748
  0
ARC
  5
8AAA
  8
0
 10
482.5481938507909945
 20
95.0221848673288747
 30
0.0
 40
0.0051666332690037
 50
259.6965319470323266
 51
269.9431496874203731
  0
LINE
  5
8AAB
  8
0
 10
482.2283551297007875
 20
95.2420578514911256
 30
0.0
 11
482.2283235066291809
 21
95.2638097407348141
 31
0.0
  0
ARC
  5
8AAC
  8
0
 10
482.5481776946689934
 20
95.3745716778734618
 30
0.0
 40
0.0057399848711048
 50
250.3298568413800069
 51
270.108483607977405
  0
ARC
  5
8AAD
  8
0
 10
482.5472834886396072
 20
95.3720701506528883
 30
0.0
 40
0.0030834377026405
 50
190.7650011554312925
 51
250.3298568413800069
  0
ARC
  5
8AAE
  8
0
 10
482.5474440395183251
 20
95.0731488038738348
 30
0.0
 40
0.3363976351567472
 50
89.8731915124032668
 51
112.7605994035735932
  0
ARC
  5
8AAF
  8
0
 10
482.5052405603403258
 20
95.1737404937910725
 30
0.0
 40
0.2273113310891536
 50
112.7605994035735932
 51
141.0068808288415028
  0
ARC
  5
8AB0
  8
0
 10
482.4299748545914781
 20
95.2346744958596503
 30
0.0
 40
0.1304718811218632
 50
141.0068808288415028
 51
171.4012975759800099
  0
ARC
  5
8AB1
  8
0
 10
482.4290900159942908
 20
95.2348082946187162
 30
0.0
 40
0.1295769836690373
 50
171.4012975759808057
 51
209.9654567545451016
  0
ARC
  5
8AB2
  8
0
 10
482.4753346275585955
 20
95.261470472391764
 30
0.0
 40
0.182957090659755
 50
209.9654567545451016
 51
236.6151441036039955
  0
ARC
  5
8AB3
  8
0
 10
482.5368326432932804
 20
95.3547907714180951
 30
0.0
 40
0.2947188200203347
 50
236.6151441036039955
 51
257.4367269048884737
  0
ARC
  5
8AB4
  8
0
 10
482.5480323527658015
 20
95.4050466890172544
 30
0.0
 40
0.3462075638970549
 50
257.4367269048917137
 51
270.0258520484234168
  0
ARC
  5
8AB5
  8
0
 10
482.5473829561627781
 20
95.1267255951878781
 30
0.0
 40
0.2241858900799303
 50
89.7941085484422246
 51
110.911837554822597
  0
ARC
  5
8AB6
  8
0
 10
482.5156691871525823
 20
95.2003020973199341
 30
0.0
 40
0.1441754188143527
 50
109.5752205139874036
 51
146.7336338552007931
  0
ARC
  5
8AB7
  8
0
 10
482.469492665094208
 20
95.2339307895542362
 30
0.0
 40
0.0871640693686685
 50
148.567009096615692
 51
178.7586845947718928
  0
ARC
  5
8AB8
  8
0
 10
482.4766570242426269
 20
95.2366580177032915
 30
0.0
 40
0.0943117046715385
 50
180.5096892141926048
 51
224.6036575488672895
  0
ARC
  5
8AB9
  8
0
 10
482.5322852003849903
 20
95.2929440217321542
 30
0.0
 40
0.1734448249762385
 50
224.9381472286750068
 51
259.3242692818316186
  0
ARC
  5
8ABA
  8
0
 10
482.548017290835503
 20
95.3478634795203703
 30
0.0
 40
0.2303887241748386
 50
258.0095845058062878
 51
270.0425939263109854
  0
ARC
  5
8ABB
  8
0
 10
482.5017004544483825
 20
95.369065595867653
 30
0.0
 40
0.0045011779199298
 50
225.9526421150343936
 51
345.4982561845030773
  0
ARC
  5
8ABC
  8
0
 10
482.4580138830763758
 20
95.3568385208275942
 30
0.0
 40
0.004905722666354
 50
250.5806655017433968
 51
351.0158695120557013
  0
ARC
  5
8ABD
  8
0
 10
482.4198161736624115
 20
95.3372047439876837
 30
0.0
 40
0.0056817074440039
 50
275.6725345477904057
 51
354.9520541077415032
  0
ARC
  5
8ABE
  8
0
 10
482.3883015717572107
 20
95.3118744303920806
 30
0.0
 40
0.0081851907840186
 50
304.4660697358610264
 51
354.9607357611673137
  0
ARC
  5
8ABF
  8
0
 10
482.3630872117175841
 20
95.281753904706818
 30
0.0
 40
0.0146995456408876
 50
330.9835122060896992
 51
357.7059512554549201
  0
ARC
  5
8AC0
  8
0
 10
482.215683351458722
 20
95.2474317624672864
 30
0.0
 40
0.1550309209873817
 50
358.0135310415228105
 51
0.4978190793258243
  0
ARC
  5
8AC1
  8
0
 10
482.3185185757878912
 20
95.2023853139862837
 30
0.0
 40
0.0078613163655279
 50
168.8941746007440088
 51
220.0094096413239129
  0
ARC
  5
8AC2
  8
0
 10
482.3409051960114766
 20
95.1616011961379229
 30
0.0
 40
0.0066102879751734
 50
177.5035073125845031
 51
241.1013399749261055
  0
ARC
  5
8AC3
  8
0
 10
482.3775595638733193
 20
95.1255892220725627
 30
0.0
 40
0.0051854611851922
 50
179.7665581202838041
 51
268.2499793214407191
  0
ARC
  5
8AC4
  8
0
 10
482.4270246118928185
 20
95.0978518430431166
 30
0.0
 40
0.0046067214249255
 50
183.9366524107707903
 51
293.5997349175041222
  0
ARC
  5
8AC5
  8
0
 10
482.4853093520737843
 20
95.0803318379190756
 30
0.0
 40
0.0043217116201738
 50
190.0447524586799091
 51
318.3027153662170008
  0
ARC
  5
8AC6
  8
0
 10
482.5469595698074841
 20
95.337948284829281
 30
0.0
 40
0.2271516492217678
 50
243.5859249277341974
 51
270.3099975458659969
  0
ARC
  5
8AC7
  8
0
 10
482.5100275285985845
 20
95.2635950381492052
 30
0.0
 40
0.1441312844928631
 50
211.1282918512675906
 51
243.5859249277341974
  0
ARC
  5
8AC8
  8
0
 10
482.4611815504767947
 20
95.2340963540603411
 30
0.0
 40
0.087069020765799
 50
158.0108844825766141
 51
211.1282918512675906
  0
ARC
  5
8AC9
  8
0
 10
482.494349995074117
 20
95.2207027615811938
 30
0.0
 40
0.1228395957751545
 50
116.1793567477430003
 51
158.0108844825766141
  0
ARC
  5
8ACA
  8
0
 10
482.5491071551318782
 20
95.1215146267271052
 30
0.0
 40
0.2360719666617329
 50
90.2229472586024741
 51
117.4852097985314998
  0
ARC
  5
8ACB
  8
0
 10
482.5469920473316279
 20
95.3965085660979923
 30
0.0
 40
0.3443462618378619
 50
250.140248841084599
 51
270.1990886231213267
  0
ARC
  5
8ACC
  8
0
 10
482.518751305727676
 20
95.3183228156825351
 30
0.0
 40
0.2612165375849345
 50
227.2005143742238999
 51
250.140248841084599
  0
ARC
  5
8ACD
  8
0
 10
482.4500959718345143
 20
95.2441804641986636
 30
0.0
 40
0.1601688104678026
 50
198.7820675126831986
 51
227.2005143742238999
  0
ARC
  5
8ACE
  8
0
 10
482.422928159074786
 20
95.2349412737440559
 30
0.0
 40
0.1314729450791861
 50
149.7469594979789917
 51
198.7820675126831986
  0
ARC
  5
8ACF
  8
0
 10
482.4774629103322923
 20
95.2031336684514855
 30
0.0
 40
0.1946058433903489
 50
123.0259028453768053
 51
149.7469594979789917
  0
ARC
  5
8AD0
  8
0
 10
482.5340025557288754
 20
95.1161563603508569
 30
0.0
 40
0.2983448602837147
 50
103.8132395885127011
 51
123.0259028453768053
  0
ARC
  5
8AD1
  8
0
 10
482.5481952010712803
 20
95.0584318438766616
 30
0.0
 40
0.3577885393757527
 50
90.0010630474823756
 51
103.8132395885127011
  0
LINE
  5
8AD2
  8
0
 10
482.303419203727799
 20
95.2420557693911292
 30
0.0
 11
482.3034193952777855
 21
95.2459927487911244
 31
0.0
  0
LINE
  5
8AD3
  8
0
 10
482.3034193952777855
 20
95.2459927487911244
 30
0.0
 11
482.3034852955278211
 21
95.2487787443911316
 31
0.0
  0
LINE
  5
8AD4
  8
0
 10
482.3034852955278211
 20
95.2487787443911316
 30
0.0
 11
482.3035609926479879
 21
95.2669614478994191
 31
0.0
  0
ARC
  5
8AD5
  8
0
 10
482.5481955251739805
 20
95.1336841491055054
 30
0.0
 40
0.0049625357984778
 50
254.7802447876532028
 51
269.9196144734941072
  0
ARC
  5
8AD6
  8
0
 10
482.547865253634825
 20
95.1324702023302251
 30
0.0
 40
0.0037044634385072
 50
192.9019603420811961
 51
254.7802447876532028
  0
ARC
  5
8AD7
  8
0
 10
482.4358070116015824
 20
95.1666572516335947
 30
0.0
 40
0.0047749294952407
 50
174.6514439243271966
 51
273.1257333405911822
  0
ARC
  5
8AD8
  8
0
 10
482.4687429365409912
 20
95.2442397824472238
 30
0.0
 40
0.0823970076971133
 50
176.8436281722509023
 51
181.5188584055472063
  0
LINE
  5
8AD9
  8
0
 10
482.3864706927276984
 20
95.2487766622911352
 30
0.0
 11
482.3865098718262061
 21
95.2606034536570263
 31
0.0
  0
ARC
  5
8ADA
  8
0
 10
482.5473493762218027
 20
95.285909536498437
 30
0.0
 40
0.1164106935078325
 50
240.8914058422261064
 51
270.4130399269506029
  0
ARC
  5
8ADB
  8
0
 10
482.525284288093701
 20
95.2462803868128702
 30
0.0
 40
0.0710528097509672
 50
210.1316457965479003
 51
240.8914058422261064
  0
ARC
  5
8ADC
  8
0
 10
482.5051465275914211
 20
95.234592070539648
 30
0.0
 40
0.0477687779835312
 50
151.7861842965567121
 51
210.1316457965486109
  0
ARC
  5
8ADD
  8
0
 10
482.5233899707600926
 20
95.2248043576289831
 30
0.0
 40
0.0684719792497417
 50
111.3202566736376014
 51
151.7861842965560015
  0
ARC
  5
8ADE
  8
0
 10
482.5548810590499897
 20
95.1441181924473796
 30
0.0
 40
0.1550857535203546
 50
92.4732826470769851
 51
111.3202566736376014
  0
ARC
  5
8ADF
  8
0
 10
482.5470780010847989
 20
95.2820599344015307
 30
0.0
 40
0.1058440035317171
 50
239.6677489962476102
 51
270.6011834715491773
  0
ARC
  5
8AE0
  8
0
 10
482.525080381824182
 20
95.2444641175717237
 30
0.0
 40
0.0622855290837719
 50
206.9235698491501125
 51
239.6677489962476102
  0
ARC
  5
8AE1
  8
0
 10
482.5060085487845072
 20
95.2347785574427235
 30
0.0
 40
0.0408952301025637
 50
145.8311586051248128
 51
206.9235698491501125
  0
ARC
  5
8AE2
  8
0
 10
482.5296238206560133
 20
95.2187484021389281
 30
0.0
 40
0.0694372507848843
 50
127.3418034579911051
 51
145.8311586051241022
  0
ARC
  5
8AE3
  8
0
 10
482.5362462282420779
 20
95.2100683945954245
 30
0.0
 40
0.0803550716842962
 50
104.0612877183774998
 51
127.3418034579916025
  0
ARC
  5
8AE4
  8
0
 10
482.5479850235694244
 20
95.1771712165649291
 30
0.0
 40
0.1151686174331002
 50
89.8987402650682697
 51
105.7502142794222948
  0
ARC
  5
8AE5
  8
0
 10
482.5482037020236135
 20
95.191967058884785
 30
0.0
 40
0.0046098784531865
 50
252.957870748675191
 51
269.8118346664795126
  0
ARC
  5
8AE6
  8
0
 10
482.5479614627520846
 20
95.1911768086290664
 30
0.0
 40
0.0037833342430234
 50
191.5178119706654059
 51
252.957870748671894
  0
ARC
  5
8AE7
  8
0
 10
482.4937658657801194
 20
95.2052083888502807
 30
0.0
 40
0.0020663779411963
 50
226.2472735651749076
 51
299.9651963555033944
  0
ARC
  5
8AE8
  8
0
 10
482.4981035429173062
 20
95.2097391538761428
 30
0.0
 40
0.0083387996956456
 50
187.3873456379795073
 51
226.2472735651732023
  0
ARC
  5
8AE9
  8
0
 10
482.5255581206351962
 20
95.2437755117209406
 30
0.0
 40
0.0561827836141013
 50
174.890883837198686
 51
181.7519605320935057
  0
LINE
  5
8AEA
  8
0
 10
482.46959855632781
 20
95.2487787443911316
 30
0.0
 11
482.4695532557909132
 21
95.2533104612275281
 31
0.0
  0
ARC
  5
8AEB
  8
0
 10
482.5401733796367125
 20
95.2283606522583455
 30
0.0
 40
0.0058381763605504
 50
45.6524875394111476
 51
127.8786143610327031
  0
ARC
  5
8AEC
  8
0
 10
482.5305153448451847
 20
95.2406312431235449
 30
0.0
 40
0.002612448201246
 50
303.5675516165646854
 51
355.3129001596348076
  0
ARC
  5
8AED
  8
0
 10
482.529539497179826
 20
95.2373651909228585
 30
0.0
 40
0.0047044106374194
 50
40.4568970823885792
 51
94.0503789251734759
  0
ARC
  5
8AEE
  8
0
 10
482.5295469283702801
 20
95.2524349058147664
 30
0.0
 40
0.0036746268377081
 50
264.2536434886046095
 51
346.2347247013912011
  0
ARC
  5
8AEF
  8
0
 10
482.1205183840763198
 20
94.8850797786101765
 30
0.0
 40
0.5518559222113866
 50
41.6123795926915321
 51
41.71445048031525
  0
ARC
  5
8AF0
  8
0
 10
482.5481896072012091
 20
95.2620685702422207
 30
0.0
 40
0.0054178923527783
 50
251.3430248153242133
 51
269.9889549205764752
  0
ARC
  5
8AF1
  8
0
 10
482.5475183763372229
 20
95.2600903210409768
 30
0.0
 40
0.003328872247076
 50
191.3245083790785088
 51
251.3966064216452025
  0
ARC
  5
8AF2
  8
0
 10
482.5401411667789944
 20
95.2610222768781512
 30
0.0
 40
0.0044081985223435
 50
233.7317108627333084
 51
338.9181881508179117
  0
ARC
  5
8AF3
  8
0
 10
482.5481703567011209
 20
95.235044506316413
 30
0.0
 40
0.0052774310288498
 50
248.1069868503431053
 51
270.1976587768022
  0
ARC
  5
8AF4
  8
0
 10
482.5473915312384747
 20
95.2331064342464515
 30
0.0
 40
0.0031887251018292
 50
190.312293671226314
 51
248.1069868503394105
  0
ARC
  5
8AF5
  8
0
 10
482.5409243260731955
 20
95.2432770779982434
 30
0.0
 40
0.0873120288092218
 50
176.3873106777120086
 51
180.800105146377291
  0
ARC
  5
8AF6
  8
0
 10
482.4790240090442808
 20
95.2952347237702213
 30
0.0
 40
0.0051968688862586
 50
270.6780544906715136
 51
359.2436471753393903
  0
ARC
  5
8AF7
  8
0
 10
482.548183727175001
 20
95.3165982345279588
 30
0.0
 40
0.00640211206301
 50
258.7894481706030092
 51
270.0432762902834725
  0
ARC
  5
8AF8
  8
0
 10
482.5476247188312868
 20
95.3137777623540359
 30
0.0
 40
0.0035267766717724
 50
197.1256399790898115
 51
258.7894481705964154
  0
ARC
  5
8AF9
  8
0
 10
482.5483307149577854
 20
95.074020704079544
 30
0.0
 40
0.0039372276017974
 50
267.930906890157928
 51
344.3948939520770978
  0
ARC
  5
8AFA
  8
0
 10
482.5480464106977934
 20
95.074020704079544
 30
0.0
 40
0.0039372276017974
 50
195.6051006382454887
 51
272.069093109842072
  0
LINE
  5
8AFB
  8
0
 10
482.4616220216074112
 20
95.0629125428159654
 30
0.0
 11
482.461619866648789
 21
95.0282924912712446
 31
0.0
  0
LINE
  5
8AFC
  8
0
 10
482.3848892914278963
 20
95.0940126718292476
 30
0.0
 11
482.384889291327795
 21
95.0515593039911266
 31
0.0
  0
LINE
  5
8AFD
  8
0
 10
482.3192853208277029
 20
95.1482919209911415
 30
0.0
 11
482.3192853204278094
 21
95.0880708808911237
 31
0.0
  0
LINE
  5
8AFE
  8
0
 10
482.2692809157277907
 20
95.1891430187911141
 30
0.0
 11
482.2692781536277948
 21
95.1353426330911418
 31
0.0
  0
LINE
  5
8AFF
  8
0
 10
482.4691048650278162
 20
95.0261784578909356
 30
0.0
 11
482.4813443341108155
 21
95.0584779080348454
 31
0.0
  0
LINE
  5
8B00
  8
0
 10
482.473658390982223
 20
95.0600616566336072
 30
0.0
 11
482.461619866648789
 21
95.0282924912712446
 31
0.0
  0
LINE
  5
8B01
  8
0
 10
482.3913325106278194
 20
95.0476579207911385
 30
0.0
 11
482.4161784082039048
 21
95.078087763699159
 31
0.0
  0
LINE
  5
8B02
  8
0
 10
482.4091140314179142
 20
95.0812284302791682
 30
0.0
 11
482.384889291327795
 21
95.0515593039911266
 31
0.0
  0
LINE
  5
8B03
  8
0
 10
482.3618969179503893
 20
95.109442992475806
 30
0.0
 11
482.324250522619991
 21
95.0828229709505877
 31
0.0
  0
LINE
  5
8B04
  8
0
 10
482.3559814673720894
 20
95.1140189752155294
 30
0.0
 11
482.3192853204278094
 21
95.0880708808911237
 31
0.0
  0
LINE
  5
8B05
  8
0
 10
482.2726977695035089
 20
95.1292726328501885
 30
0.0
 11
482.3212162243506214
 21
95.1490802090194592
 31
0.0
  0
LINE
  5
8B06
  8
0
 10
482.3171319181557237
 20
95.1548798019615987
 30
0.0
 11
482.2692781536277948
 21
95.1353426330911418
 31
0.0
  0
ARC
  5
8B07
  8
0
 10
482.2763803380821059
 20
95.1353455004518338
 30
0.0
 40
0.0071021850331664
 50
180.0231319897328035
 51
238.767503878123307
  0
ARC
  5
8B08
  8
0
 10
482.324564711907783
 20
95.0880930516938889
 30
0.0
 40
0.0052794380328774
 50
180.2406121924396984
 51
266.5882044601056009
  0
ARC
  5
8B09
  8
0
 10
482.3893386246527939
 20
95.0516362247718263
 30
0.0
 40
0.0044499981847016
 50
180.9904398631854008
 51
296.619568522437703
  0
ARC
  5
8B0A
  8
0
 10
482.465860681187678
 20
95.0289998221159351
 30
0.0
 40
0.0042993981994348
 50
189.4692683854551944
 51
318.9875462856443846
  0
ARC
  5
8B0B
  8
0
 10
482.35719495678768
 20
95.7599555571921712
 30
0.0
 40
0.2618372726865713
 50
131.8175030074127108
 51
178.6288487619397927
  0
ARC
  5
8B0C
  8
0
 10
482.5150787930866727
 20
95.5834806225798133
 30
0.0
 40
0.4986298154553757
 50
105.7804164894897951
 51
131.8175030074127108
  0
ARC
  5
8B0D
  8
0
 10
482.54811390125559
 20
95.4581578885767073
 30
0.0
 40
0.6282173831510552
 50
89.9931905848023632
 51
105.5714100133630069
  0
ARC
  5
8B0E
  8
0
 10
482.3466799913092018
 20
95.7487948750654141
 30
0.0
 40
0.2512710384956946
 50
138.4495357836794085
 51
179.212980744487794
  0
ARC
  5
8B0F
  8
0
 10
482.4878863814524834
 20
95.6236441221967226
 30
0.0
 40
0.4399558432917529
 50
101.8178961906804005
 51
138.4495357836794085
  0
ARC
  5
8B10
  8
0
 10
482.5545112699954871
 20
95.3889432903258125
 30
0.0
 40
0.683541795060203
 50
90.5299889596232248
 51
103.2552173372651936
  0
ARC
  5
8B11
  8
0
 10
482.7391821687677975
 20
95.7599555571921712
 30
0.0
 40
0.2618372726865713
 50
1.3711512380602191
 51
48.1824969925872892
  0
ARC
  5
8B12
  8
0
 10
482.5812983324688048
 20
95.5834806225798133
 30
0.0
 40
0.4986298154553757
 50
48.1824969925872892
 51
74.2195835105101906
  0
ARC
  5
8B13
  8
0
 10
482.5482632243001149
 20
95.4581578885767073
 30
0.0
 40
0.6282173831510552
 50
74.428589986636922
 51
90.0068094151976226
  0
ARC
  5
8B14
  8
0
 10
482.7496971342465031
 20
95.7487948750654141
 30
0.0
 40
0.2512710384956946
 50
0.7870192555121835
 51
41.5504642163205986
  0
ARC
  5
8B15
  8
0
 10
482.6084907441031078
 20
95.6236441221967226
 30
0.0
 40
0.4399558432917529
 50
41.5504642163205986
 51
78.182103809319571
  0
ARC
  5
8B16
  8
0
 10
482.5418658555602178
 20
95.3889432903258125
 30
0.0
 40
0.683541795060203
 50
76.7447826627347922
 51
89.4700110403768036
  0
ARC
  5
8B17
  8
0
 10
482.5512740081869083
 20
95.6228325978725024
 30
0.0
 40
0.6606764220377032
 50
258.5646143540315052
 51
269.7324202339034969
  0
LINE
  5
8B19
  8
0
 10
481.3867712399527932
 20
89.335048302451824
 30
0.0
 11
481.3867712399527932
 21
88.921662475591134
 31
0.0
  0
LINE
  5
8B1A
  8
0
 10
483.7096058856026843
 20
89.3350483023911437
 30
0.0
 11
483.7096058856026843
 21
88.921662475591134
 31
0.0
  0
ENDSEC
  0
EOF
