  0
SECTION
  2
HEADER
  9
$ACADVER
  1
AC1009
  9
$INSBASE
 10
4087.7932316698088471
 20
169.3797275785587999
 30
0.0
  9
$EXTMIN
 10
4076.4785102681098579
 20
169.373498872587902
 30
0.0
  9
$EXTMAX
 10
4099.1079530715069268
 20
173.0267157125599056
 30
0.0
  9
$LIMMIN
 10
0.0
 20
0.0
  9
$LIMMAX
 10
11.6929133858000007
 20
8.2677165353999982
  9
$ORTHOMODE
 70
     0
  9
$REGENMODE
 70
     1
  9
$FILLMODE
 70
     1
  9
$QTEXTMODE
 70
     0
  9
$MIRRTEXT
 70
     0
  9
$DRAGMODE
 70
     2
  9
$LTSCALE
 40
0.6431102362
  9
$OSMODE
 70
  4095
  9
$ATTMODE
 70
     1
  9
$TEXTSIZE
 40
0.2
  9
$TRACEWID
 40
0.05
  9
$TEXTSTYLE
  7
STANDARD
  9
$CLAYER
  8
0
  9
$CELTYPE
  6
BYLAYER
  9
$CECOLOR
 62
   256
  9
$DIMSCALE
 40
1.0
  9
$DIMASZ
 40
0.1875
  9
$DIMEXO
 40
0.0625
  9
$DIMDLI
 40
0.4443307087
  9
$DIMRND
 40
0.0
  9
$DIMDLE
 40
0.0
  9
$DIMEXE
 40
0.125
  9
$DIMTP
 40
0.01
  9
$DIMTM
 40
0.01
  9
$DIMTXT
 40
2.0
  9
$DIMCEN
 40
0.1052362205
  9
$DIMTSZ
 40
0.0
  9
$DIMTOL
 70
     1
  9
$DIMLIM
 70
     0
  9
$DIMTIH
 70
     1
  9
$DIMTOH
 70
     1
  9
$DIMSE1
 70
     0
  9
$DIMSE2
 70
     0
  9
$DIMTAD
 70
     0
  9
$DIMZIN
 70
     0
  9
$DIMBLK
  1

  9
$DIMASO
 70
     1
  9
$DIMSHO
 70
     1
  9
$DIMPOST
  1
\X
  9
$DIMAPOST
  1

  9
$DIMALT
 70
     1
  9
$DIMALTD
 70
     2
  9
$DIMALTF
 40
25.3999999999999986
  9
$DIMLFAC
 40
1.0
  9
$DIMTOFL
 70
     0
  9
$DIMTVP
 40
0.0
  9
$DIMTIX
 70
     0
  9
$DIMSOXD
 70
     0
  9
$DIMSAH
 70
     0
  9
$DIMBLK1
  1

  9
$DIMBLK2
  1

  9
$DIMSTYLE
  2
STANDARD
  9
$DIMCLRD
 70
     0
  9
$DIMCLRE
 70
     0
  9
$DIMCLRT
 70
     0
  9
$DIMTFAC
 40
1.0
  9
$DIMGAP
 40
0.09
  9
$LUNITS
 70
     2
  9
$LUPREC
 70
     4
  9
$SKETCHINC
 40
0.1
  9
$FILLETRAD
 40
0.0
  9
$AUNITS
 70
     0
  9
$AUPREC
 70
     0
  9
$MENU
  1
.
  9
$ELEVATION
 40
0.0
  9
$PELEVATION
 40
0.0
  9
$THICKNESS
 40
0.0
  9
$LIMCHECK
 70
     0
  9
$BLIPMODE
 70
     0
  9
$CHAMFERA
 40
0.0
  9
$CHAMFERB
 40
0.0
  9
$SKPOLY
 70
     0
  9
$TDCREATE
 40
2458060.468368056230247
  9
$TDUPDATE
 40
2459033.4366782400757074
  9
$TDINDWG
 40
0.3813496528
  9
$TDUSRTIMER
 40
0.3813496528
  9
$USRTIMER
 70
     1
  9
$ANGBASE
 50
0.0
  9
$ANGDIR
 70
     0
  9
$PDMODE
 70
     0
  9
$PDSIZE
 40
0.3125
  9
$PLINEWID
 40
0.0
  9
$COORDS
 70
     1
  9
$SPLFRAME
 70
     0
  9
$SPLINETYPE
 70
     6
  9
$SPLINESEGS
 70
     8
  9
$ATTDIA
 70
     1
  9
$ATTREQ
 70
     1
  9
$HANDLING
 70
     1
  9
$HANDSEED
  5
744A
  9
$SURFTAB1
 70
     6
  9
$SURFTAB2
 70
     6
  9
$SURFTYPE
 70
     6
  9
$SURFU
 70
     6
  9
$SURFV
 70
     6
  9
$UCSNAME
  2

  9
$UCSORG
 10
0.0
 20
0.0
 30
0.0
  9
$UCSXDIR
 10
1.0
 20
0.0
 30
0.0
  9
$UCSYDIR
 10
0.0
 20
1.0
 30
0.0
  9
$PUCSNAME
  2

  9
$PUCSORG
 10
0.0
 20
0.0
 30
0.0
  9
$PUCSXDIR
 10
1.0
 20
0.0
 30
0.0
  9
$PUCSYDIR
 10
0.0
 20
1.0
 30
0.0
  9
$USERI1
 70
     0
  9
$USERI2
 70
     0
  9
$USERI3
 70
     0
  9
$USERI4
 70
     0
  9
$USERI5
 70
     0
  9
$USERR1
 40
0.0
  9
$USERR2
 40
0.0
  9
$USERR3
 40
0.0
  9
$USERR4
 40
0.0
  9
$USERR5
 40
0.0
  9
$WORLDVIEW
 70
     1
  9
$SHADEDGE
 70
     3
  9
$SHADEDIF
 70
    70
  9
$TILEMODE
 70
     1
  9
$MAXACTVP
 70
    64
  9
$PLIMCHECK
 70
     0
  9
$PEXTMIN
 10
1.0000000000000000E+20
 20
1.0000000000000000E+20
 30
1.0000000000000000E+20
  9
$PEXTMAX
 10
-1.0000000000000000E+20
 20
-1.0000000000000000E+20
 30
-1.0000000000000000E+20
  9
$PLIMMIN
 10
0.0
 20
0.0
  9
$PLIMMAX
 10
12.0
 20
9.0
  9
$UNITMODE
 70
     0
  9
$VISRETAIN
 70
     1
  9
$PLINEGEN
 70
     0
  9
$PSLTSCALE
 70
     1
  0
ENDSEC
  0
SECTION
  2
TABLES
  0
TABLE
  2
VPORT
 70
     1
  0
VPORT
  2
*ACTIVE
 70
     0
 10
0.0
 20
0.0
 11
1.0
 21
1.0
 12
0.0
 22
0.0
 13
0.0
 23
0.0
 14
1.0
 24
1.0
 15
0.0
 25
0.0
 16
0.0
 26
0.0
 36
65.1655515803151673
 17
4087.793212890625
 27
171.2001008767236101
 37
0.0
 40
22.9223776335924185
 41
2.127494456762749
 42
50.0
 43
0.0
 44
0.0
 50
0.0
 51
0.0
 71
     0
 72
   100
 73
     1
 74
     1
 75
     0
 76
     0
 77
     0
 78
     0
  0
ENDTAB
  0
TABLE
  2
LTYPE
 70
     2
  0
LTYPE
  2
CONTINUOUS
 70
     0
  3
Solid line
 72
    65
 73
     0
 40
0.0
  0
LTYPE
  2
PHANTOM2
 70
     0
  3
___ _ _ ___ _ _ ___ _ _ ___ _ _
 72
    65
 73
     6
 40
1.25
 49
0.625
 49
-0.125
 49
0.125
 49
-0.125
 49
0.125
 49
-0.125
  0
ENDTAB
  0
TABLE
  2
LAYER
 70
     2
  0
LAYER
  2
0
 70
     0
 62
   255
  6
CONTINUOUS
  0
LAYER
  2
DEFPOINTS
 70
     0
 62
     7
  6
CONTINUOUS
  0
ENDTAB
  0
TABLE
  2
STYLE
 70
     1
  0
STYLE
  2
STANDARD
 70
     0
 40
0.0
 41
0.8
 50
0.0
 71
     0
 42
0.2
  3
txt
  4

  0
ENDTAB
  0
TABLE
  2
VIEW
 70
     0
  0
ENDTAB
  0
TABLE
  2
UCS
 70
     0
  0
ENDTAB
  0
TABLE
  2
APPID
 70
     9
  0
APPID
  2
ACAD
 70
     0
  0
APPID
  2
ACAD_MLEADERVER
 70
     0
  0
APPID
  2
ACAD_EXEMPT_FROM_CAD_STANDARDS
 70
     0
  0
APPID
  2
ACAD_NAV_VCDISPLAY
 70
     0
  0
APPID
  2
ACAECLAYERSTANDARD
 70
     0
  0
APPID
  2
ACCMTRANSPARENCY
 70
     0
  0
APPID
  2
ACAD_DSTYLE_DIMJAG
 70
     0
  0
APPID
  2
ACAD_DSTYLE_DIMTALN
 70
     0
  0
APPID
  2
ACDBATTR
 70
     0
  0
ENDTAB
  0
TABLE
  2
DIMSTYLE
 70
     1
  0
DIMSTYLE
  2
STANDARD
 70
     0
  3

  4

  5

  6

  7

 40
1.0
 41
0.1875
 42
0.0625
 43
0.38
 44
0.125
 45
0.0
 46
0.0
 47
0.01
 48
0.01
140
0.15625
141
0.09
142
0.0
143
25.3999999999999986
144
1.0
145
0.0
146
1.0
147
0.09
 71
     1
 72
     0
 73
     1
 74
     1
 75
     0
 76
     0
 77
     0
 78
     4
170
     0
171
     2
172
     0
173
     0
174
     0
175
     0
176
     0
177
     0
178
     0
  0
ENDTAB
  0
ENDSEC
  0
SECTION
  2
BLOCKS
  0
BLOCK
  8
0
  2
$MODEL_SPACE
 70
     0
 10
0.0
 20
0.0
 30
0.0
  3
$MODEL_SPACE
  1

  0
ENDBLK
  5
21
  8
0
  0
BLOCK
 67
     1
  8
0
  2
$PAPER_SPACE
 70
     0
 10
0.0
 20
0.0
 30
0.0
  3
$PAPER_SPACE
  1

  0
ENDBLK
  5
1D
 67
     1
  8
0
  0
BLOCK
  8
0
  2
_FILLED
 70
     0
 10
0.0
 20
0.0
 30
0.0
  3
_FILLED
  1

  0
SOLID
  5
67BB
  8
0
  6
BYBLOCK
 62
     0
 10
0.0
 20
0.0
 30
0.0
 11
-1.0
 21
0.1666666667
 31
0.0
 12
-1.0
 22
-0.1666666667
 32
0.0
 13
-1.0
 23
-0.1666666667
 33
0.0
  0
ENDBLK
  5
67BC
  8
0
  6
BYBLOCK
 62
     0
  0
ENDSEC
  0
SECTION
  2
ENTITIES
  0
ATTDEF
  5
3930
  8
DEFPOINTS
 10
4087.7912736052730907
 20
169.3768322059212039
 30
0.0
 40
0.001
  1
K-98068W-4
  3

  2
MODELNUMBER
 70
     0
1001
ACDBATTR
1070
     0
1070
     1
  0
ATTDEF
  5
3931
  8
DEFPOINTS
 10
4087.7912736052730907
 20
169.3751655392545956
 30
0.0
 40
0.001
  1
ARTIFACTS
  3

  2
TRADENAME
 70
     0
1001
ACDBATTR
1070
     0
1070
     1
  0
ATTDEF
  5
3932
  8
DEFPOINTS
 10
4087.7912736052730907
 20
169.373498872587902
 30
0.0
 40
0.001
  1
BATHROOM SINK FAUCET HANDLES
  3

  2
PRODUCT
 70
     0
1001
ACDBATTR
1070
     0
1070
     1
  0
LINE
  5
722A
  8
0
 10
4099.1079530715069268
 20
172.4266120931098953
 30
0.0
 11
4099.1079530715069268
 21
172.2233996050098881
 31
0.0
  0
LINE
  5
722B
  8
0
 10
4098.9586244968149913
 20
172.084862096118087
 30
0.0
 11
4098.9586244968149913
 21
172.5651496019017088
 31
0.0
  0
LINE
  5
722C
  8
0
 10
4098.7890409013152748
 20
172.7089558955100017
 30
0.0
 11
4098.7890409013152748
 21
171.9410558026098954
 31
0.0
  0
LINE
  5
722D
  8
0
 10
4098.7160263597152152
 20
172.7383071192099067
 30
0.0
 11
4098.7160263597152152
 21
171.9117045788100029
 31
0.0
  0
LINE
  5
722E
  8
0
 10
4098.5064109751147043
 20
172.7482997200098964
 30
0.0
 11
4098.5064109751147043
 21
171.9017119780098994
 31
0.0
  0
LINE
  5
722F
  8
0
 10
4098.3683063042153663
 20
172.6934171080098963
 30
0.0
 11
4098.3683063042153663
 21
171.9565945901098871
 31
0.0
  0
LINE
  5
7230
  8
0
 10
4096.8434916724154391
 20
172.0632200161099092
 30
0.0
 11
4096.8434916724154391
 21
172.5867885629099021
 31
0.0
  0
LINE
  5
7231
  8
0
 10
4096.3796500413591275
 20
169.7222487528399029
 30
0.0
 11
4096.3710120072692007
 21
169.7568008895644027
 31
0.0
  0
LINE
  5
7232
  8
0
 10
4096.6043310242157531
 20
169.8620378532098982
 30
0.0
 11
4096.6043310242157531
 21
169.7990956875098902
 31
0.0
  0
LINE
  5
7233
  8
0
 10
4096.1643310242152438
 20
170.3071135785098988
 30
0.0
 11
4096.1643310242152438
 21
170.2968694345098868
 31
0.0
  0
LINE
  5
7234
  8
0
 10
4096.110331024216066
 20
171.9535223366098933
 30
0.0
 11
4096.110331024216066
 21
171.7285956875099089
 31
0.0
  0
LINE
  5
7235
  8
0
 10
4096.0691775898158085
 20
172.9125956875099064
 30
0.0
 11
4096.0691775898158085
 21
172.9145956875098875
 31
0.0
  0
LINE
  5
7236
  8
0
 10
4096.0353310242153384
 20
170.7112249339099037
 30
0.0
 11
4096.0353310242153384
 21
171.6398544908099097
 31
0.0
  0
LINE
  5
7237
  8
0
 10
4095.5353310242148837
 20
170.7112249339099037
 30
0.0
 11
4095.5353310242148837
 21
171.6398544908099097
 31
0.0
  0
LINE
  5
7238
  8
0
 10
4095.5014844586148683
 20
172.9125956875099064
 30
0.0
 11
4095.5014844586148683
 21
172.9145956875098875
 31
0.0
  0
LINE
  5
7239
  8
0
 10
4095.460331024215975
 20
171.9535223366098933
 30
0.0
 11
4095.460331024215975
 21
171.7285956875099089
 31
0.0
  0
LINE
  5
723A
  8
0
 10
4095.4063310242149782
 20
170.3071135785098988
 30
0.0
 11
4095.4063310242149782
 21
170.2968694345098868
 31
0.0
  0
LINE
  5
723B
  8
0
 10
4094.9663310242081025
 20
169.862037853207994
 30
0.0
 11
4094.9663310242081025
 21
169.7990956875098902
 31
0.0
  0
LINE
  5
723C
  8
0
 10
4095.1910120069578625
 20
169.7222487528399029
 30
0.0
 11
4095.1996500414102229
 21
169.7568008901610881
 31
0.0
  0
LINE
  5
723D
  8
0
 10
4096.9053310242152293
 20
169.3795248214098876
 30
0.0
 11
4094.665331024219995
 21
169.3795248214098876
 31
0.0
  0
LINE
  5
723E
  8
0
 10
4094.665331024219995
 20
169.3795248214098876
 30
0.0
 11
4094.665331024219995
 21
169.3795248214098876
 31
0.0
  0
LINE
  5
723F
  8
0
 10
4095.0603310241581312
 20
169.6995248215399101
 30
0.0
 11
4096.510331024158404
 21
169.6995248215399101
 31
0.0
  0
LINE
  5
7240
  8
0
 10
4096.5743272042145691
 20
169.7690956875098891
 30
0.0
 11
4094.9963348442161077
 21
169.7690956875098891
 31
0.0
  0
LINE
  5
7241
  8
0
 10
4096.2055614492155655
 20
170.2398808124098935
 30
0.0
 11
4095.3651005992160208
 21
170.2398808124098935
 31
0.0
  0
LINE
  5
7242
  8
0
 10
4095.4297133771151493
 20
170.3363745892098962
 30
0.0
 11
4096.1409486712145736
 21
170.3363745892098962
 31
0.0
  0
LINE
  5
7243
  8
0
 10
4096.0840528287153575
 20
170.6522944468098899
 30
0.0
 11
4095.4866092197148646
 21
170.6522944468098899
 31
0.0
  0
LINE
  5
7244
  8
0
 10
4096.0853310242146108
 20
171.6990152886098997
 30
0.0
 11
4095.485331024216066
 21
171.6990152886098997
 31
0.0
  0
LINE
  5
7245
  8
0
 10
4098.9805063939156753
 20
172.084862096118087
 30
0.0
 11
4098.9586244968149913
 21
172.084862096118087
 31
0.0
  0
LINE
  5
7246
  8
0
 10
4098.3683063042153663
 20
172.6934171080098963
 30
0.0
 11
4096.8434916724154391
 21
172.5867916820099026
 31
0.0
  0
LINE
  5
7247
  8
0
 10
4098.3683063042153663
 20
171.9565945901098871
 30
0.0
 11
4096.8434916724154391
 21
172.0632200161099092
 31
0.0
  0
LINE
  5
7248
  8
0
 10
4098.9805063939156753
 20
172.5651496019017088
 30
0.0
 11
4098.9586244968149913
 21
172.5651496019017088
 31
0.0
  0
LINE
  5
7249
  8
0
 10
4095.4271327984151867
 20
172.6568553243099018
 30
0.0
 11
4096.1435292499154457
 21
172.6568553243099018
 31
0.0
  0
LINE
  5
724A
  8
0
 10
4096.09973686221565
 20
172.7760420921098898
 30
0.0
 11
4095.4709251861149824
 21
172.7760420921098898
 31
0.0
  0
LINE
  5
724B
  8
0
 10
4095.4779661000147826
 20
172.9075956875099109
 30
0.0
 11
4096.0926959484158942
 21
172.9075956875099109
 31
0.0
  0
ARC
  5
724C
  8
0
 10
4096.1643310242152438
 20
170.4397634937099042
 30
0.0
 40
0.106
 50
108.1388433357082022
 51
257.2564147777981134
  0
ARC
  5
724D
  8
0
 10
4095.4063310242149782
 20
170.4397634937099042
 30
0.0
 40
0.106
 50
282.7435852222020003
 51
71.861156664291812
  0
ARC
  5
724E
  8
0
 10
4095.5003310242150292
 20
170.580595687509998
 30
0.0
 40
0.073
 50
100.8343349783076945
 51
213.3199193708937003
  0
ARC
  5
724F
  8
0
 10
4096.0703310242161024
 20
170.580595687509998
 30
0.0
 40
0.073
 50
326.6800806291063282
 51
79.1656650216922344
  0
ARC
  5
7250
  8
0
 10
4095.4753310242158477
 20
170.7112249339099037
 30
0.0
 40
0.06
 50
280.8343349784939278
 51
0.0
  0
ARC
  5
7251
  8
0
 10
4096.0953310242157386
 20
170.7112249339099037
 30
0.0
 40
0.06
 50
180.0
 51
259.1656650215060722
  0
ARC
  5
7252
  8
0
 10
4095.3463310242159423
 20
170.2968694345098868
 30
0.0
 40
0.06
 50
288.2296362632902742
 51
0.0
  0
ARC
  5
7253
  8
0
 10
4096.224331024215644
 20
170.2968694345098868
 30
0.0
 40
0.06
 50
180.0
 51
251.7703637367096121
  0
ARC
  5
7254
  8
0
 10
4095.1619077319578537
 20
169.7295248215399113
 30
0.0
 40
0.03
 50
270.0
 51
345.963756531997717
  0
ARC
  5
7255
  8
0
 10
4096.408754316357772
 20
169.7295248215399113
 30
0.0
 40
0.03
 50
194.0362434680023114
 51
270.0
  0
ARC
  5
7256
  8
0
 10
4095.4363310242160878
 20
170.3071135785098988
 30
0.0
 40
0.03
 50
102.7435852220952057
 51
180.0
  0
ARC
  5
7257
  8
0
 10
4096.134331024216408
 20
170.3071135785098988
 30
0.0
 40
0.03
 50
0.0
 51
77.2564147779047374
  0
ARC
  5
7258
  8
0
 10
4094.9963310242242187
 20
169.8620378531952042
 30
0.0
 40
0.0300000000156386
 50
97.6832466259085379
 51
179.9999999756693967
  0
ARC
  5
7259
  8
0
 10
4096.5743310242160078
 20
169.8620378532098982
 30
0.0
 40
0.03
 50
0.0
 51
82.3167533852918183
  0
ARC
  5
725A
  8
0
 10
4096.5743310242160078
 20
169.7990956875098902
 30
0.0
 40
0.03
 50
270.0
 51
0.0
  0
ARC
  5
725B
  8
0
 10
4094.9963310242210355
 20
169.7990956875231063
 30
0.0
 40
0.0300000000131977
 50
180.0000000252082941
 51
269.9999999895518954
  0
ARC
  5
725C
  8
0
 10
4098.5910263597161247
 20
171.9550058490098934
 30
0.0
 40
0.1
 50
212.2042275041060009
 51
327.7957724962062116
  0
ARC
  5
725D
  8
0
 10
4098.4410263597146695
 20
171.9550058490098934
 30
0.0
 40
0.05
 50
200.7460921058035126
 51
299.9999999999997158
  0
ARC
  5
725E
  8
0
 10
4098.7410263597148514
 20
171.9550058490098934
 30
0.0
 40
0.05
 50
240.000000000000199
 51
343.7994138982987238
  0
ARC
  5
725F
  8
0
 10
4098.3662136100156204
 20
171.9266676686098947
 30
0.0
 40
0.03
 50
20.7460921050990308
 51
86.0000000005912568
  0
ARC
  5
7260
  8
0
 10
4098.4810263597146331
 20
171.8857238167099126
 30
0.0
 40
0.03
 50
32.2042275036943977
 51
119.999999999907601
  0
ARC
  5
7261
  8
0
 10
4098.7010263597148878
 20
171.8857238167099126
 30
0.0
 40
0.03
 50
60.000000000092399
 51
147.7957724952975127
  0
ARC
  5
7262
  8
0
 10
4098.8178496263153647
 20
171.9326857747099098
 30
0.0
 40
0.03
 50
111.1377620068938938
 51
163.7994138980996013
  0
ARC
  5
7263
  8
0
 10
4099.0779530715290093
 20
172.2233996049918971
 30
0.0
 40
0.0299999999789197
 50
287.4646230929290027
 51
0.0000000344481043
  0
ARC
  5
7264
  8
0
 10
4098.9591592679162204
 20
172.0538785040552057
 30
0.0
 40
0.0309882067447578
 50
90.9888164364392935
 51
152.2961567267836074
  0
ARC
  5
7265
  8
0
 10
4098.9802223037995645
 20
172.1151683902772049
 30
0.0
 40
0.0303076256551614
 50
270.5370728551570778
 51
350.0864196407858913
  0
ARC
  5
7266
  8
0
 10
4098.5910263597161247
 20
172.6950058490099025
 30
0.0
 40
0.1
 50
32.204227503793831
 51
147.7957724958939991
  0
ARC
  5
7267
  8
0
 10
4098.4410263597146695
 20
172.6950058490099025
 30
0.0
 40
0.05
 50
60.0000000000002771
 51
159.2539078941964874
  0
ARC
  5
7268
  8
0
 10
4098.7410263597148514
 20
172.6950058490099025
 30
0.0
 40
0.05
 50
16.2005861017012798
 51
119.9999999999997016
  0
ARC
  5
7269
  8
0
 10
4098.3662136100156204
 20
172.7233440295098887
 30
0.0
 40
0.03
 50
273.9999999994087148
 51
339.2539078949009763
  0
ARC
  5
726A
  8
0
 10
4098.4810263597146331
 20
172.7642878813099117
 30
0.0
 40
0.03
 50
240.000000000092399
 51
327.7957724963042097
  0
ARC
  5
726B
  8
0
 10
4098.7010263597148878
 20
172.7642878813099117
 30
0.0
 40
0.03
 50
212.2042275047024873
 51
299.9999999999075726
  0
ARC
  5
726C
  8
0
 10
4098.8178496263153647
 20
172.7173259234099021
 30
0.0
 40
0.03
 50
196.2005861019003135
 51
248.8622379931061062
  0
ARC
  5
726D
  8
0
 10
4099.0779530715271903
 20
172.4266120931278863
 30
0.0
 40
0.0299999999789407
 50
359.99999996558779
 51
72.5353769070705283
  0
ARC
  5
726E
  8
0
 10
4098.958261975334608
 20
172.5946770861656887
 30
0.0
 40
0.0295297095952486
 50
206.0116175285428994
 51
270.7034093082207846
  0
ARC
  5
726F
  8
0
 10
4098.9802223037995645
 20
172.5348433077425909
 30
0.0
 40
0.0303076256551479
 50
9.9135803592076801
 51
89.4629271448690133
  0
ARC
  5
7270
  8
0
 10
4096.1703310242146472
 20
171.9535223366098933
 30
0.0
 40
0.06
 50
136.0236248148040943
 51
180.0
  0
ARC
  5
7271
  8
0
 10
4095.4003310242151201
 20
171.9535223366098933
 30
0.0
 40
0.06
 50
0.0
 51
43.9763751851959199
  0
ARC
  5
7272
  8
0
 10
4096.0953310242157386
 20
171.6398544908099097
 30
0.0
 40
0.06
 50
99.594068226904426
 51
180.0
  0
ARC
  5
7273
  8
0
 10
4095.4753310242158477
 20
171.6398544908099097
 30
0.0
 40
0.06
 50
0.0
 51
80.405931773095574
  0
ARC
  5
7274
  8
0
 10
4096.7679530715149667
 20
172.065005849009907
 30
0.0
 40
0.05
 50
180.0
 51
336.6460943294025014
  0
ARC
  5
7275
  8
0
 10
4096.8413989781147393
 20
172.0332930946098884
 30
0.0
 40
0.03
 50
85.9999999999904929
 51
156.6460943292024979
  0
ARC
  5
7276
  8
0
 10
4095.4903310242148109
 20
171.7285956875099089
 30
0.0
 40
0.03
 50
180.0
 51
260.405931773095574
  0
ARC
  5
7277
  8
0
 10
4096.0803310242154112
 20
171.7285956875099089
 30
0.0
 40
0.03
 50
279.594068226904426
 51
0.0
  0
ARC
  5
7278
  8
0
 10
4095.7853310242157931
 20
172.3250058490098979
 30
0.0
 40
0.475
 50
151.3894402962037873
 51
223.9763751851959057
  0
ARC
  5
7279
  8
0
 10
4095.7853310242157931
 20
172.3250058490098979
 30
0.0
 40
0.475
 50
316.0236248148041227
 51
330.56316375250492
  0
ARC
  5
727A
  8
0
 10
4096.013991758114571
 20
172.842568423009908
 30
0.0
 40
0.1161467285
 50
334.0533559626023248
 51
23.9914337443981296
  0
ARC
  5
727B
  8
0
 10
4096.7679530715149667
 20
172.5850058490100025
 30
0.0
 40
0.05
 50
23.3539056705990191
 51
180.0
  0
ARC
  5
727C
  8
0
 10
4096.8413989781147393
 20
172.616718603509895
 30
0.0
 40
0.03
 50
203.3539056707973884
 51
274.0000000000094929
  0
ARC
  5
727D
  8
0
 10
4096.0926959484158942
 20
172.8775956875099098
 30
0.0
 40
0.03
 50
23.9914337443981296
 51
90.0
  0
ARC
  5
727E
  8
0
 10
4096.0914550587158374
 20
172.8048763032099089
 30
0.0
 40
0.03
 50
286.0252002940122225
 51
334.0533559626023248
  0
ARC
  5
727F
  8
0
 10
4095.5084844586158397
 20
172.9145956875098875
 30
0.0
 40
0.007
 50
144.1212738597056102
 51
180.0
  0
ARC
  5
7280
  8
0
 10
4096.0621775898152919
 20
172.9145956875098875
 30
0.0
 40
0.007
 50
0.0
 51
35.8787261402944111
  0
ARC
  5
7281
  8
0
 10
4095.5064844586149775
 20
172.9125956875099064
 30
0.0
 40
0.005
 50
180.0
 51
270.0
  0
ARC
  5
7282
  8
0
 10
4096.0641775898147898
 20
172.9125956875099064
 30
0.0
 40
0.005
 50
270.0
 51
0.0
  0
ARC
  5
7283
  8
0
 10
4099.1139568954831702
 20
172.5569502316535875
 30
0.0
 40
0.1052434905524871
 50
189.2345425433080948
 51
255.1344942097437922
  0
ARC
  5
7284
  8
0
 10
4098.7260113037709743
 20
172.4694232394089966
 30
0.0
 40
0.2343705853481741
 50
28.6312462611331391
 51
69.7759724772986232
  0
ARC
  5
7285
  8
0
 10
4099.11756771488308
 20
172.0897891527939976
 30
0.0
 40
0.1093647629049401
 50
106.2542037080951047
 51
169.3767595970620903
  0
ARC
  5
7286
  8
0
 10
4098.7263684441004443
 20
172.1801746549645884
 30
0.0
 40
0.2338589117918777
 50
290.1769692396555911
 51
331.415812026141225
  0
ARC
  5
7287
  8
0
 10
4096.5177545398792063
 20
172.5060486154368107
 30
0.0
 40
0.1934256951754812
 50
24.0920922788580114
 51
83.9861638309388923
  0
ARC
  5
7288
  8
0
 10
4096.5324594046551283
 20
172.6715426321873963
 30
0.0
 40
0.0273991126803867
 50
78.2935985138215216
 51
159.9250603545563933
  0
ARC
  5
7289
  8
0
 10
4096.2558619596111384
 20
172.7916369309961055
 30
0.0
 40
0.2741977725527457
 50
274.7471032742084844
 51
336.1912386821982182
  0
ARC
  5
728A
  8
0
 10
4096.2715328600170324
 20
172.6029279529489884
 30
0.0
 40
0.0848392356046915
 50
209.7157276970791884
 51
274.7471032742084844
  0
ARC
  5
728B
  8
0
 10
4096.4380850182524227
 20
172.6979882291427089
 30
0.0
 40
0.2766101341335056
 50
193.4646356339727049
 51
209.7157276970777957
  0
ARC
  5
728C
  8
0
 10
4096.1438298734638011
 20
172.6315256273933016
 30
0.0
 40
0.0253314808174426
 50
4.6538181209875429
 51
90.6799786014567246
  0
ARC
  5
728D
  8
0
 10
4096.146664734244041
 20
172.7382558721604937
 30
0.0
 40
0.0814609136478673
 50
197.4637052805433086
 51
267.7941027198457959
  0
ARC
  5
728E
  8
0
 10
4096.1198634170341393
 20
172.7273608102040896
 30
0.0
 40
0.052677750681374
 50
112.4619230037603046
 51
194.9071032362600988
  0
ARC
  5
728F
  8
0
 10
4096.5177570648847905
 20
172.1439632381386104
 30
0.0
 40
0.1934256951754812
 50
276.0146352744342835
 51
335.9060755012387745
  0
ARC
  5
7290
  8
0
 10
4096.532464237808199
 20
171.978469426493092
 30
0.0
 40
0.0273991126803884
 50
200.0757387508350007
 51
281.7072005915567274
  0
ARC
  5
7291
  8
0
 10
4096.255868467748769
 20
171.8583712699860087
 30
0.0
 40
0.2741977725527457
 50
23.8095604231882305
 51
85.2536958311752073
  0
ARC
  5
7292
  8
0
 10
4096.2715367362252437
 20
172.0470804665771141
 30
0.0
 40
0.0848392356046915
 50
85.2536958311752073
 51
150.2850714082989896
  0
ARC
  5
7293
  8
0
 10
4095.8597684664391636
 20
172.7505040997286017
 30
0.0
 40
0.2675573366933992
 50
38.9489864543268425
 51
77.5044729367763381
  0
ARC
  5
7294
  8
0
 10
4095.7755195059480684
 20
172.3423981949374024
 30
0.0
 40
0.6842514978249076
 50
78.0107271423706834
 51
89.1784046436358437
  0
ARC
  5
7295
  8
0
 10
4095.795636066003226
 20
172.3909230583230965
 30
0.0
 40
0.6357398122989105
 50
90.9287781727405218
 51
105.7787103161258955
  0
ARC
  5
7296
  8
0
 10
4095.7017900724058563
 20
172.7622317740303117
 30
0.0
 40
0.2531279439917355
 50
108.191754061957397
 51
141.8201683975204048
  0
LINE
  5
7297
  8
0
 10
4095.5014844585148239
 20
172.9125956875099064
 30
0.0
 11
4095.5014844585148239
 21
172.9145956875098875
 31
0.0
  0
ARC
  5
7298
  8
0
 10
4095.5566702902151519
 20
172.842568423009908
 30
0.0
 40
0.1161467285
 50
156.0085662556018065
 51
205.9466440373977036
  0
ARC
  5
7299
  8
0
 10
4095.4779660999161024
 20
172.8775956875099098
 30
0.0
 40
0.03
 50
90.0
 51
156.0085662556018065
  0
ARC
  5
729A
  8
0
 10
4095.479206989614795
 20
172.8048763032099089
 30
0.0
 40
0.03
 50
205.9466440373977036
 51
253.9747997059876923
  0
ARC
  5
729B
  8
0
 10
4095.5084844585148858
 20
172.9145956875098875
 30
0.0
 40
0.007
 50
144.1212738597056102
 51
180.0
  0
ARC
  5
729C
  8
0
 10
4095.4239973140879556
 20
172.7382558721604937
 30
0.0
 40
0.0814609136478673
 50
272.2058972801542041
 51
342.5362947194566914
  0
ARC
  5
729D
  8
0
 10
4095.4507986312969479
 20
172.7273608102040896
 30
0.0
 40
0.052677750681374
 50
345.0928967637382812
 51
67.5380769962396812
  0
ARC
  5
729E
  8
0
 10
4095.1072625796759894
 20
172.7058998875720022
 30
0.0
 40
0.3028202781706492
 50
329.5558394780402978
 51
346.1832013872560196
  0
ARC
  5
729F
  8
0
 10
4095.4265685074669818
 20
172.6315256273933016
 30
0.0
 40
0.0253314808174426
 50
89.3200213985433038
 51
175.3461818790125051
  0
ARC
  5
72A0
  8
0
 10
4096.611848748839293
 20
170.1680372966347079
 30
0.0
 40
0.2782932678781443
 50
214.0463895292461132
 51
263.0847448888779923
  0
ARC
  5
72A1
  8
0
 10
4097.5834402110858719
 20
170.7757490172228074
 30
0.0
 40
1.424148498465047
 50
206.5136173836260127
 51
212.4200692593142037
  0
ARC
  5
72A2
  8
0
 10
4096.1267451296389481
 20
170.0546290089216086
 30
0.0
 40
0.2013212430651748
 50
25.0889608956355694
 51
66.9524268950015653
  0
ARC
  5
72A3
  8
0
 10
4094.9588132995918386
 20
170.1680372966347079
 30
0.0
 40
0.2782932678781443
 50
276.9152551111220077
 51
325.9536104707524942
  0
ARC
  5
72A4
  8
0
 10
4093.9872218373461692
 20
170.7757490172228074
 30
0.0
 40
1.424148498465047
 50
327.5799307406858247
 51
333.4863826163738736
  0
ARC
  5
72A5
  8
0
 10
4095.4439169187908192
 20
170.0546290089216086
 30
0.0
 40
0.2013212430651748
 50
113.0475731049984063
 51
154.9110391043643915
  0
ARC
  5
72A6
  8
0
 10
4096.5846321963963419
 20
169.3637850088450989
 30
0.0
 40
0.3210848483878834
 50
2.8098068518493089
 51
68.7420826725624039
  0
ARC
  5
72A7
  8
0
 10
4096.5098890137123817
 20
169.1807414515492951
 30
0.0
 40
0.5187835582900583
 50
68.3785067349033255
 51
89.9511832329626486
  0
ARC
  5
72A8
  8
0
 10
4094.9944627668469366
 20
169.3577083794276916
 30
0.0
 40
0.3298539997417552
 50
112.2404040299666974
 51
176.2077064775442068
  0
ARC
  5
72A9
  8
0
 10
4095.0607730346027893
 20
169.1807414515492951
 30
0.0
 40
0.5187835582900583
 50
90.0488167670373372
 51
111.6214932650966034
  0
LINE
  5
72AA
  8
0
 10
4096.6943310242158987
 20
172.0395727782099016
 30
0.0
 11
4096.7179530715147848
 21
172.0395727782099016
 31
0.0
  0
LINE
  5
72AB
  8
0
 10
4096.7179530715147848
 20
172.0395727782099016
 30
0.0
 11
4096.7179530715147848
 21
172.6104389199099103
 31
0.0
  0
LINE
  5
72AC
  8
0
 10
4096.7179530715147848
 20
172.6104389199099103
 30
0.0
 11
4096.6943310242158987
 21
172.6104389199099103
 31
0.0
  0
LINE
  5
72AD
  8
0
 10
4096.6943310242158987
 20
172.6104389199099103
 30
0.0
 11
4096.6943310242158987
 21
172.0395727782099016
 31
0.0
  0
LINE
  5
72AE
  8
0
 10
4096.5067249394751343
 20
172.6809473478959944
 30
0.0
 11
4096.5067299037982593
 21
171.969064351866308
 31
0.0
  0
ARC
  5
72AF
  8
0
 10
4096.3419077321159421
 20
169.7495248214098922
 30
0.0
 40
0.0300000000000305
 50
14.03624229344992
 51
40.7199395545798595
  0
ARC
  5
72B0
  8
0
 10
4095.2287543164161434
 20
169.7495248214100059
 30
0.0
 40
0.0299999999999743
 50
139.2800604454089921
 51
165.9637565320086878
  0
LINE
  5
72B1
  8
0
 10
4096.1313310240711871
 20
170.540495812209997
 30
0.0
 11
4095.4393310241662221
 21
170.5404958122740027
 31
0.0
  0
LINE
  5
72B2
  8
0
 10
4096.110331024216066
 20
171.9535223366098933
 30
0.0
 11
4095.460331024215975
 21
171.9535223366098933
 31
0.0
  0
LINE
  5
72B3
  8
0
 10
4076.4785102681098579
 20
172.4268148502588076
 30
0.0
 11
4076.4785102681098579
 21
172.2236023621588004
 31
0.0
  0
LINE
  5
72B4
  8
0
 10
4076.6278388428017934
 20
172.084862096118087
 30
0.0
 11
4076.6278388428017934
 21
172.5651496019017088
 31
0.0
  0
LINE
  5
72B5
  8
0
 10
4076.7974224383028741
 20
172.7091586526588003
 30
0.0
 11
4076.7974224383028741
 21
171.9412585597588077
 31
0.0
  0
LINE
  5
72B6
  8
0
 10
4076.8704369799020242
 20
172.7385098763587905
 30
0.0
 11
4076.8704369799020242
 21
171.9119073359588015
 31
0.0
  0
LINE
  5
72B7
  8
0
 10
4077.0800523645020803
 20
172.7485024771588087
 30
0.0
 11
4077.0800523645020803
 21
171.9019147351588117
 31
0.0
  0
LINE
  5
72B8
  8
0
 10
4077.2181570354018731
 20
172.6936198651588086
 30
0.0
 11
4077.2181570354018731
 21
171.9567973472587994
 31
0.0
  0
LINE
  5
72B9
  8
0
 10
4078.7429716672018003
 20
172.0634227732587931
 30
0.0
 11
4078.7429716672018003
 21
172.586991320058786
 31
0.0
  0
LINE
  5
72BA
  8
0
 10
4079.2068132982590214
 20
169.7224515099887867
 30
0.0
 11
4079.2154513323480387
 21
169.7570036467132866
 31
0.0
  0
LINE
  5
72BB
  8
0
 10
4078.982132315401941
 20
169.8622406103588105
 30
0.0
 11
4078.982132315401941
 21
169.7992984446588025
 31
0.0
  0
LINE
  5
72BC
  8
0
 10
4079.4221323154029051
 20
170.3073163356588111
 30
0.0
 11
4079.4221323154029051
 21
170.2970721916587991
 31
0.0
  0
LINE
  5
72BD
  8
0
 10
4079.4761323154011734
 20
171.9537250937588055
 30
0.0
 11
4079.4761323154011734
 21
171.7287984446587927
 31
0.0
  0
LINE
  5
72BE
  8
0
 10
4079.5172857498018857
 20
172.9127984446587902
 30
0.0
 11
4079.5172857498018857
 21
172.9147984446587998
 31
0.0
  0
LINE
  5
72BF
  8
0
 10
4079.551132315401901
 20
170.7114276910587876
 30
0.0
 11
4079.551132315401901
 21
171.6400572479587936
 31
0.0
  0
LINE
  5
72C0
  8
0
 10
4080.0511323154028105
 20
170.7114276910587876
 30
0.0
 11
4080.0511323154028105
 21
171.6400572479587936
 31
0.0
  0
LINE
  5
72C1
  8
0
 10
4080.0849788810028258
 20
172.9127984446587902
 30
0.0
 11
4080.0849788810028258
 21
172.9147984446587998
 31
0.0
  0
LINE
  5
72C2
  8
0
 10
4080.1261323154021738
 20
171.9537250937588055
 30
0.0
 11
4080.1261323154021738
 21
171.7287984446587927
 31
0.0
  0
LINE
  5
72C3
  8
0
 10
4080.1801323154018064
 20
170.3073163356588111
 30
0.0
 11
4080.1801323154018064
 21
170.2970721916587991
 31
0.0
  0
LINE
  5
72C4
  8
0
 10
4080.6201323154091369
 20
169.8622406103567926
 30
0.0
 11
4080.6201323154091369
 21
169.7992984446588025
 31
0.0
  0
LINE
  5
72C5
  8
0
 10
4080.3954513326598317
 20
169.7224515099887867
 30
0.0
 11
4080.3868132982070165
 21
169.7570036473098867
 31
0.0
  0
LINE
  5
72C6
  8
0
 10
4078.6811323154020101
 20
169.3797275785587999
 30
0.0
 11
4080.9211323153967896
 21
169.3797275785587999
 31
0.0
  0
LINE
  5
72C7
  8
0
 10
4080.9211323153967896
 20
169.3797275785587999
 30
0.0
 11
4080.9211323153967896
 21
169.3797275785587999
 31
0.0
  0
LINE
  5
72C8
  8
0
 10
4080.5261323154600177
 20
169.699727578688794
 30
0.0
 11
4079.0761323154588354
 21
169.699727578688794
 31
0.0
  0
LINE
  5
72C9
  8
0
 10
4079.0121361354031251
 20
169.7692984446588014
 30
0.0
 11
4080.5901284954020412
 21
169.7692984446588014
 31
0.0
  0
LINE
  5
72CA
  8
0
 10
4079.3809018904012191
 20
170.2400835695588057
 30
0.0
 11
4080.2213627404021281
 21
170.2400835695588057
 31
0.0
  0
LINE
  5
72CB
  8
0
 10
4080.1567499625020901
 20
170.3365773463588084
 30
0.0
 11
4079.4455146684022111
 21
170.3365773463588084
 31
0.0
  0
LINE
  5
72CC
  8
0
 10
4079.5024105109018819
 20
170.6524972039588022
 30
0.0
 11
4080.0998541199019201
 21
170.6524972039588022
 31
0.0
  0
LINE
  5
72CD
  8
0
 10
4079.5011323154021738
 20
171.699218045758812
 30
0.0
 11
4080.1011323154020829
 21
171.699218045758812
 31
0.0
  0
LINE
  5
72CE
  8
0
 10
4076.6059569457020189
 20
172.084862096118087
 30
0.0
 11
4076.6278388428017934
 21
172.084862096118087
 31
0.0
  0
LINE
  5
72CF
  8
0
 10
4077.2181570354018731
 20
172.6936198651588086
 30
0.0
 11
4078.7429716672018003
 21
172.5869944391587865
 31
0.0
  0
LINE
  5
72D0
  8
0
 10
4077.2181570354018731
 20
171.9567973472587994
 30
0.0
 11
4078.7429716672018003
 21
172.0634227732587931
 31
0.0
  0
LINE
  5
72D1
  8
0
 10
4076.6059569457020189
 20
172.5651496019017088
 30
0.0
 11
4076.6278388428017934
 21
172.5651496019017088
 31
0.0
  0
LINE
  5
72D2
  8
0
 10
4080.1593305412020527
 20
172.6570580814588141
 30
0.0
 11
4079.4429340897017937
 21
172.6570580814588141
 31
0.0
  0
LINE
  5
72D3
  8
0
 10
4079.4867264774020441
 20
172.7762448492588021
 30
0.0
 11
4080.1155381535018023
 21
172.7762448492588021
 31
0.0
  0
LINE
  5
72D4
  8
0
 10
4080.1084972396020021
 20
172.9077984446587948
 30
0.0
 11
4079.4937673912017999
 21
172.9077984446587948
 31
0.0
  0
ARC
  5
72D5
  8
0
 10
4079.4221323154029051
 20
170.439966250858788
 30
0.0
 40
0.106
 50
282.7435852222020003
 51
71.861156664291812
  0
ARC
  5
72D6
  8
0
 10
4080.1801323154018064
 20
170.439966250858788
 30
0.0
 40
0.106
 50
108.1388433357082022
 51
257.2564147777981134
  0
ARC
  5
72D7
  8
0
 10
4080.0861323154022102
 20
170.5807984446587966
 30
0.0
 40
0.073
 50
326.6800806291063282
 51
79.1656650216922344
  0
ARC
  5
72D8
  8
0
 10
4079.5161323154020465
 20
170.5807984446587966
 30
0.0
 40
0.073
 50
100.8343349783076945
 51
213.3199193708937003
  0
ARC
  5
72D9
  8
0
 10
4080.1111323154018464
 20
170.7114276910587876
 30
0.0
 40
0.06
 50
180.0
 51
259.1656650215060722
  0
ARC
  5
72DA
  8
0
 10
4079.4911323154028651
 20
170.7114276910587876
 30
0.0
 40
0.06
 50
280.8343349784939278
 51
0.0
  0
ARC
  5
72DB
  8
0
 10
4080.2401323154022066
 20
170.2970721916587991
 30
0.0
 40
0.06
 50
180.0
 51
251.7703637367096121
  0
ARC
  5
72DC
  8
0
 10
4079.3621323154020502
 20
170.2970721916587991
 30
0.0
 40
0.06
 50
288.2296362632902742
 51
0.0
  0
ARC
  5
72DD
  8
0
 10
4080.4245556076598405
 20
169.7297275786887951
 30
0.0
 40
0.03
 50
194.0362434680023114
 51
270.0
  0
ARC
  5
72DE
  8
0
 10
4079.1777090232599221
 20
169.7297275786887951
 30
0.0
 40
0.03
 50
270.0
 51
345.963756531997717
  0
ARC
  5
72DF
  8
0
 10
4080.1501323154011516
 20
170.3073163356588111
 30
0.0
 40
0.03
 50
0.0
 51
77.2564147779047374
  0
ARC
  5
72E0
  8
0
 10
4079.4521323154021957
 20
170.3073163356588111
 30
0.0
 40
0.03
 50
102.7435852220952057
 51
180.0
  0
ARC
  5
72E1
  8
0
 10
4080.5901323153948397
 20
169.8622406103440881
 30
0.0
 40
0.0300000000156386
 50
0.0000000243305818
 51
82.3167533740914763
  0
ARC
  5
72E2
  8
0
 10
4079.0121323154021411
 20
169.8622406103588105
 30
0.0
 40
0.03
 50
97.6832466147081959
 51
180.0
  0
ARC
  5
72E3
  8
0
 10
4079.0121323154021411
 20
169.7992984446588025
 30
0.0
 40
0.03
 50
180.0
 51
270.0
  0
ARC
  5
72E4
  8
0
 10
4080.5901323153962039
 20
169.7992984446719902
 30
0.0
 40
0.0300000000131977
 50
270.0000000104481046
 51
359.9999999747917059
  0
ARC
  5
72E5
  8
0
 10
4076.9954369799020242
 20
171.9552086061588057
 30
0.0
 40
0.1
 50
212.2042275037937884
 51
327.7957724958940275
  0
ARC
  5
72E6
  8
0
 10
4077.1454369799021151
 20
171.9552086061588057
 30
0.0
 40
0.05
 50
240.000000000000199
 51
339.2539078941965158
  0
ARC
  5
72E7
  8
0
 10
4076.8454369799019332
 20
171.9552086061588057
 30
0.0
 40
0.05
 50
196.200586101701191
 51
299.9999999999997158
  0
ARC
  5
72E8
  8
0
 10
4077.2202497296011643
 20
171.926870425758807
 30
0.0
 40
0.03
 50
93.9999999994087574
 51
159.2539078949008911
  0
ARC
  5
72E9
  8
0
 10
4077.1054369799021515
 20
171.8859265738587965
 30
0.0
 40
0.03
 50
60.000000000092399
 51
147.7957724963056023
  0
ARC
  5
72EA
  8
0
 10
4076.8854369799018968
 20
171.8859265738587965
 30
0.0
 40
0.03
 50
32.2042275047025228
 51
119.999999999907601
  0
ARC
  5
72EB
  8
0
 10
4076.7686137133018747
 20
171.9328885318587936
 30
0.0
 40
0.03
 50
16.2005861019003383
 51
68.8622379931060777
  0
ARC
  5
72EC
  8
0
 10
4076.5085102680900491
 20
172.2236023621408094
 30
0.0
 40
0.0299999999789197
 50
179.9999999655518934
 51
252.5353769070709973
  0
ARC
  5
72ED
  8
0
 10
4076.6273121954518501
 20
172.0537122057135093
 30
0.0
 40
0.0311543420674255
 50
28.3117206821800913
 51
89.0313996151018188
  0
ARC
  5
72EE
  8
0
 10
4076.6066493194389295
 20
172.1156047456163094
 30
0.0
 40
0.0307504451927935
 50
190.2113646380545049
 51
268.7098253258125169
  0
ARC
  5
72EF
  8
0
 10
4076.9954369799020242
 20
172.6952086061587863
 30
0.0
 40
0.1
 50
32.2042275041059796
 51
147.7957724962062116
  0
ARC
  5
72F0
  8
0
 10
4077.1454369799021151
 20
172.6952086061587863
 30
0.0
 40
0.05
 50
20.746092105803509
 51
119.9999999999997016
  0
ARC
  5
72F1
  8
0
 10
4076.8454369799019332
 20
172.6952086061587863
 30
0.0
 40
0.05
 50
60.0000000000002771
 51
163.7994138982986954
  0
ARC
  5
72F2
  8
0
 10
4077.2202497296011643
 20
172.723546786658801
 30
0.0
 40
0.03
 50
200.7460921050989953
 51
266.0000000005912852
  0
ARC
  5
72F3
  8
0
 10
4077.1054369799021515
 20
172.7644906384587955
 30
0.0
 40
0.03
 50
212.2042275036943977
 51
299.9999999999075726
  0
ARC
  5
72F4
  8
0
 10
4076.8854369799018968
 20
172.7644906384587955
 30
0.0
 40
0.03
 50
240.000000000092399
 51
327.7957724952975127
  0
ARC
  5
72F5
  8
0
 10
4076.7686137133018747
 20
172.7175286805587859
 30
0.0
 40
0.03
 50
291.1377620068939223
 51
343.799413898099715
  0
ARC
  5
72F6
  8
0
 10
4076.5085102680900491
 20
172.4268148502767986
 30
0.0
 40
0.0299999999789407
 50
107.4646230929295001
 51
180.00000003441221
  0
ARC
  5
72F7
  8
0
 10
4076.627687189885819
 20
172.5953461368895034
 30
0.0
 40
0.030196915800722
 50
270.2877482139246013
 51
333.6211039855116951
  0
ARC
  5
72F8
  8
0
 10
4076.6058416115411092
 20
172.5352745942363981
 30
0.0
 40
0.0298752302915206
 50
89.7788074938190164
 51
170.3862768125270009
  0
ARC
  5
72F9
  8
0
 10
4079.4161323154021375
 20
171.9537250937588055
 30
0.0
 40
0.06
 50
0.0
 51
43.9763751851959199
  0
ARC
  5
72FA
  8
0
 10
4080.1861323154021193
 20
171.9537250937588055
 30
0.0
 40
0.06
 50
136.0236248148040943
 51
180.0
  0
ARC
  5
72FB
  8
0
 10
4079.4911323154028651
 20
171.6400572479587936
 30
0.0
 40
0.06
 50
0.0
 51
80.405931773095574
  0
ARC
  5
72FC
  8
0
 10
4080.1111323154018464
 20
171.6400572479587936
 30
0.0
 40
0.06
 50
99.594068226904426
 51
180.0
  0
ARC
  5
72FD
  8
0
 10
4078.8185102681018179
 20
172.0652086061587909
 30
0.0
 40
0.05
 50
203.3539056705974986
 51
0.0
  0
ARC
  5
72FE
  8
0
 10
4078.7450643615020454
 20
172.0334958517588007
 30
0.0
 40
0.03
 50
23.3539056707974595
 51
94.0000000000095213
  0
ARC
  5
72FF
  8
0
 10
4080.0961323154028833
 20
171.7287984446587927
 30
0.0
 40
0.03
 50
279.594068226904426
 51
0.0
  0
ARC
  5
7300
  8
0
 10
4079.5061323154018282
 20
171.7287984446587927
 30
0.0
 40
0.03
 50
180.0
 51
260.405931773095574
  0
ARC
  5
7301
  8
0
 10
4079.8011323154009915
 20
172.3252086061588102
 30
0.0
 40
0.475
 50
316.0236248148041227
 51
28.6105597037961985
  0
ARC
  5
7302
  8
0
 10
4079.8011323154009915
 20
172.3252086061588102
 30
0.0
 40
0.475
 50
209.4368362474951084
 51
223.9763751851959057
  0
ARC
  5
7303
  8
0
 10
4079.5724715815022137
 20
172.8427711801587918
 30
0.0
 40
0.1161467285
 50
156.0085662556018065
 51
205.9466440373977036
  0
ARC
  5
7304
  8
0
 10
4078.8185102681018179
 20
172.5852086061588011
 30
0.0
 40
0.05
 50
0.0
 51
156.6460943294009951
  0
ARC
  5
7305
  8
0
 10
4078.7450643615020454
 20
172.6169213606588073
 30
0.0
 40
0.03
 50
265.9999999999905071
 51
336.6460943292025263
  0
ARC
  5
7306
  8
0
 10
4079.4937673912017999
 20
172.8777984446587936
 30
0.0
 40
0.03
 50
90.0
 51
156.0085662556018065
  0
ARC
  5
7307
  8
0
 10
4079.4950082809018568
 20
172.8050790603587927
 30
0.0
 40
0.03
 50
205.9466440373977036
 51
253.9747997059876923
  0
ARC
  5
7308
  8
0
 10
4080.0779788810032187
 20
172.9147984446587998
 30
0.0
 40
0.007
 50
0.0
 51
35.8787261402944111
  0
ARC
  5
7309
  8
0
 10
4079.5242857498019475
 20
172.9147984446587998
 30
0.0
 40
0.007
 50
144.1212738597056102
 51
180.0
  0
ARC
  5
730A
  8
0
 10
4080.0799788810018072
 20
172.9127984446587902
 30
0.0
 40
0.005
 50
270.0
 51
0.0
  0
ARC
  5
730B
  8
0
 10
4079.5222857498019948
 20
172.9127984446587902
 30
0.0
 40
0.005
 50
180.0
 51
270.0
  0
ARC
  5
730C
  8
0
 10
4076.4725064441340692
 20
172.5571529888024997
 30
0.0
 40
0.1052434905524871
 50
284.8655057902561794
 51
350.7654574566919905
  0
ARC
  5
730D
  8
0
 10
4076.8604520358471746
 20
172.4696259965577951
 30
0.0
 40
0.2343705853481741
 50
110.2240275227013058
 51
151.3687537388667863
  0
ARC
  5
730E
  8
0
 10
4076.4688956247341594
 20
172.0899919099429098
 30
0.0
 40
0.1093647629049401
 50
10.6232404029378706
 51
73.7457962919048526
  0
ARC
  5
730F
  8
0
 10
4076.8600948955181593
 20
172.1803774121135007
 30
0.0
 40
0.2338589117918777
 50
208.5841879738588034
 51
249.8230307603442952
  0
ARC
  5
7310
  8
0
 10
4079.0687087997380331
 20
172.5062513725856093
 30
0.0
 40
0.1934256951754812
 50
96.013836169061122
 51
155.9079077211420099
  0
ARC
  5
7311
  8
0
 10
4079.0540039349621111
 20
172.6717453893361949
 30
0.0
 40
0.0273991126803867
 50
20.0749396454435605
 51
101.7064014861785068
  0
ARC
  5
7312
  8
0
 10
4079.330601380006101
 20
172.7918396881449041
 30
0.0
 40
0.2741977725527457
 50
203.8087613178018955
 51
265.2528967257914019
  0
ARC
  5
7313
  8
0
 10
4079.3149304796011165
 20
172.6031307100979006
 30
0.0
 40
0.0848392356046915
 50
265.2528967257914019
 51
330.2842723029208969
  0
ARC
  5
7314
  8
0
 10
4079.1483783213661809
 20
172.6981909862915927
 30
0.0
 40
0.2766101341335056
 50
330.284272302922318
 51
346.5353643660271814
  0
ARC
  5
7315
  8
0
 10
4079.4426334661529836
 20
172.6317283845422139
 30
0.0
 40
0.0253314808174426
 50
89.3200213985433038
 51
175.3461818790125051
  0
ARC
  5
7316
  8
0
 10
4079.4397986053741079
 20
172.738458629309406
 30
0.0
 40
0.0814609136478673
 50
272.2058972801542041
 51
342.5362947194566914
  0
ARC
  5
7317
  8
0
 10
4079.4665999225840096
 20
172.7275635673528882
 30
0.0
 40
0.052677750681374
 50
345.0928967637382812
 51
67.5380769962396812
  0
ARC
  5
7318
  8
0
 10
4079.0687062747319942
 20
172.1441659952874943
 30
0.0
 40
0.1934256951754812
 50
204.0939244987611971
 51
263.9853647255657165
  0
ARC
  5
7319
  8
0
 10
4079.0539991018099499
 20
171.9786721836420043
 30
0.0
 40
0.0273991126803884
 50
258.2927994084432726
 51
339.9242612491635214
  0
ARC
  5
731A
  8
0
 10
4079.3305948718680156
 20
171.8585740271348072
 30
0.0
 40
0.2741977725527457
 50
94.7463041688247642
 51
156.1904395768117979
  0
ARC
  5
731B
  8
0
 10
4079.3149266033929052
 20
172.0472832237259126
 30
0.0
 40
0.0848392356046915
 50
29.71492859170095
 51
94.7463041688247642
  0
ARC
  5
731C
  8
0
 10
4079.7266948731789853
 20
172.7507068568774002
 30
0.0
 40
0.2675573366933992
 50
102.4955270632236051
 51
141.0510135456731859
  0
ARC
  5
731D
  8
0
 10
4079.7991265288128488
 20
172.445129796238092
 30
0.0
 40
0.5815859163218072
 50
88.0718227659981636
 51
102.9487339736502065
  0
ARC
  5
731E
  8
0
 10
4079.8170479807349693
 20
172.5566512434957076
 30
0.0
 40
0.4697380565462466
 50
71.8082459380426172
 51
89.799109950381208
  0
ARC
  5
731F
  8
0
 10
4079.8846732672109283
 20
172.7624345311791103
 30
0.0
 40
0.2531279439917355
 50
38.179831602479581
 51
71.8082459380426172
  0
LINE
  5
7320
  8
0
 10
4080.0849788811019607
 20
172.9127984446587902
 30
0.0
 11
4080.0849788811019607
 21
172.9147984446587998
 31
0.0
  0
ARC
  5
7321
  8
0
 10
4080.029793049401178
 20
172.8427711801587918
 30
0.0
 40
0.1161467285
 50
334.0533559626023248
 51
23.9914337443981296
  0
ARC
  5
7322
  8
0
 10
4080.1084972397020465
 20
172.8777984446587936
 30
0.0
 40
0.03
 50
23.9914337443981296
 51
90.0
  0
ARC
  5
7323
  8
0
 10
4080.1072563500028991
 20
172.8050790603587927
 30
0.0
 40
0.03
 50
286.0252002940122225
 51
334.0533559626023248
  0
ARC
  5
7324
  8
0
 10
4080.0779788811018989
 20
172.9147984446587998
 30
0.0
 40
0.007
 50
0.0
 51
35.8787261402944111
  0
ARC
  5
7325
  8
0
 10
4080.1624660255301933
 20
172.738458629309406
 30
0.0
 40
0.0814609136478673
 50
197.4637052805433086
 51
267.7941027198457959
  0
ARC
  5
7326
  8
0
 10
4080.135664708321201
 20
172.7275635673528882
 30
0.0
 40
0.052677750681374
 50
112.4619230037603046
 51
194.9071032362600988
  0
ARC
  5
7327
  8
0
 10
4080.4792007599407953
 20
172.7061026447208008
 30
0.0
 40
0.3028202781706492
 50
193.8167986127440088
 51
210.4441605219597022
  0
ARC
  5
7328
  8
0
 10
4080.1598948321498028
 20
172.6317283845422139
 30
0.0
 40
0.0253314808174426
 50
4.6538181209875429
 51
90.6799786014567246
  0
ARC
  5
7329
  8
0
 10
4078.9746145907788559
 20
170.1682400537835917
 30
0.0
 40
0.2782932678781443
 50
276.9152551111220077
 51
325.9536104707524942
  0
ARC
  5
732A
  8
0
 10
4078.0030231285318223
 20
170.7759517743716913
 30
0.0
 40
1.424148498465047
 50
327.5799307406858247
 51
333.4863826163738736
  0
ARC
  5
732B
  8
0
 10
4079.4597182099792008
 20
170.0548317660704924
 30
0.0
 40
0.2013212430651748
 50
113.0475731049984063
 51
154.9110391043643915
  0
ARC
  5
732C
  8
0
 10
4080.6276500400258556
 20
170.1682400537835917
 30
0.0
 40
0.2782932678781443
 50
214.0463895292475058
 51
263.0847448888779923
  0
ARC
  5
732D
  8
0
 10
4081.5992415022728892
 20
170.7759517743716913
 30
0.0
 40
1.424148498465047
 50
206.5136173836260127
 51
212.4200692593142037
  0
ARC
  5
732E
  8
0
 10
4080.1425464208259655
 20
170.0548317660704924
 30
0.0
 40
0.2013212430651748
 50
25.0889608956355694
 51
66.9524268950015653
  0
ARC
  5
732F
  8
0
 10
4079.001831143221807
 20
169.3639877659938975
 30
0.0
 40
0.3210848483878834
 50
111.2579173274375961
 51
177.1901931481505983
  0
ARC
  5
7330
  8
0
 10
4079.0765743259048577
 20
169.1809442086982074
 30
0.0
 40
0.5187835582900583
 50
90.0488167670373372
 51
111.6214932650966034
  0
ARC
  5
7331
  8
0
 10
4080.5920005727698481
 20
169.3579111365766039
 30
0.0
 40
0.3298539997417552
 50
3.7922935224557199
 51
67.7595959700333026
  0
ARC
  5
7332
  8
0
 10
4080.5256903050139954
 20
169.1809442086982074
 30
0.0
 40
0.5187835582900583
 50
68.3785067349033255
 51
89.9511832329626486
  0
LINE
  5
7333
  8
0
 10
4078.892132315400886
 20
172.0397755353588138
 30
0.0
 11
4078.8685102681019998
 21
172.0397755353588138
 31
0.0
  0
LINE
  5
7334
  8
0
 10
4078.8685102681019998
 20
172.0397755353588138
 30
0.0
 11
4078.8685102681019998
 21
172.6106416770587941
 31
0.0
  0
LINE
  5
7335
  8
0
 10
4078.8685102681019998
 20
172.6106416770587941
 30
0.0
 11
4078.892132315400886
 21
172.6106416770587941
 31
0.0
  0
LINE
  5
7336
  8
0
 10
4078.892132315400886
 20
172.6106416770587941
 30
0.0
 11
4078.892132315400886
 21
172.0397755353588138
 31
0.0
  0
LINE
  5
7337
  8
0
 10
4079.0797384001421051
 20
172.681150105044793
 30
0.0
 11
4079.0797334358198896
 21
171.9692671090151919
 31
0.0
  0
ARC
  5
7338
  8
0
 10
4079.2445556075022068
 20
169.7497275785588045
 30
0.0
 40
0.0300000000000305
 50
139.280060445420105
 51
165.9637577065500977
  0
ARC
  5
7339
  8
0
 10
4080.357709023202915
 20
169.7497275785588045
 30
0.0
 40
0.0299999999999743
 50
14.03624346799125
 51
40.7199395545909724
  0
LINE
  5
733A
  8
0
 10
4079.4551323155478713
 20
170.5406985693587956
 30
0.0
 11
4080.1471323154519268
 21
170.5406985694228865
 31
0.0
  0
LINE
  5
733B
  8
0
 10
4079.4761323154011734
 20
171.9537250937588055
 30
0.0
 11
4080.1261323154021738
 21
171.9537250937588055
 31
0.0
  0
LINE
  5
733D
  8
0
 10
4079.0081214229680882
 20
169.8919712804130882
 30
0.0
 11
4080.5941432078370781
 21
169.8919712804130882
 31
0.0
  0
LINE
  5
733E
  8
0
 10
4094.9923201317810708
 20
169.8917685232642043
 30
0.0
 11
4096.5783419166491512
 21
169.8917685232642043
 31
0.0
  0
ENDSEC
  0
EOF
