  0
SECTION
  2
HEADER
  9
$ACADVER
  1
AC1009
  9
$INSBASE
 10
4131.7890149310032939
 20
154.7524149221098071
 30
0.0
  9
$EXTMIN
 10
4130.6690149310061315
 20
154.7469975231034027
 30
0.0
  9
$EXTMAX
 10
4132.9090149310013658
 20
158.3992666887585017
 30
0.0
  9
$LIMMIN
 10
0.0
 20
0.0
  9
$LIMMAX
 10
11.6929133858000007
 20
8.2677165353999982
  9
$ORTHOMODE
 70
     0
  9
$REGENMODE
 70
     1
  9
$FILLMODE
 70
     1
  9
$QTEXTMODE
 70
     0
  9
$MIRRTEXT
 70
     0
  9
$DRAGMODE
 70
     2
  9
$LTSCALE
 40
0.6431102362
  9
$OSMODE
 70
  4095
  9
$ATTMODE
 70
     1
  9
$TEXTSIZE
 40
0.2
  9
$TRACEWID
 40
0.05
  9
$TEXTSTYLE
  7
STANDARD
  9
$CLAYER
  8
0
  9
$CELTYPE
  6
BYLAYER
  9
$CECOLOR
 62
   256
  9
$DIMSCALE
 40
1.0
  9
$DIMASZ
 40
0.1875
  9
$DIMEXO
 40
0.0625
  9
$DIMDLI
 40
0.4443307087
  9
$DIMRND
 40
0.0
  9
$DIMDLE
 40
0.0
  9
$DIMEXE
 40
0.125
  9
$DIMTP
 40
0.01
  9
$DIMTM
 40
0.01
  9
$DIMTXT
 40
2.0
  9
$DIMCEN
 40
0.1052362205
  9
$DIMTSZ
 40
0.0
  9
$DIMTOL
 70
     1
  9
$DIMLIM
 70
     0
  9
$DIMTIH
 70
     1
  9
$DIMTOH
 70
     1
  9
$DIMSE1
 70
     0
  9
$DIMSE2
 70
     0
  9
$DIMTAD
 70
     0
  9
$DIMZIN
 70
     0
  9
$DIMBLK
  1

  9
$DIMASO
 70
     1
  9
$DIMSHO
 70
     1
  9
$DIMPOST
  1
\X
  9
$DIMAPOST
  1

  9
$DIMALT
 70
     1
  9
$DIMALTD
 70
     2
  9
$DIMALTF
 40
25.3999999999999986
  9
$DIMLFAC
 40
1.0
  9
$DIMTOFL
 70
     0
  9
$DIMTVP
 40
0.0
  9
$DIMTIX
 70
     0
  9
$DIMSOXD
 70
     0
  9
$DIMSAH
 70
     0
  9
$DIMBLK1
  1

  9
$DIMBLK2
  1

  9
$DIMSTYLE
  2
STANDARD
  9
$DIMCLRD
 70
     0
  9
$DIMCLRE
 70
     0
  9
$DIMCLRT
 70
     0
  9
$DIMTFAC
 40
1.0
  9
$DIMGAP
 40
0.09
  9
$LUNITS
 70
     2
  9
$LUPREC
 70
     4
  9
$SKETCHINC
 40
0.1
  9
$FILLETRAD
 40
0.0
  9
$AUNITS
 70
     0
  9
$AUPREC
 70
     0
  9
$MENU
  1
.
  9
$ELEVATION
 40
0.0
  9
$PELEVATION
 40
0.0
  9
$THICKNESS
 40
0.0
  9
$LIMCHECK
 70
     0
  9
$BLIPMODE
 70
     0
  9
$CHAMFERA
 40
0.0
  9
$CHAMFERB
 40
0.0
  9
$SKPOLY
 70
     0
  9
$TDCREATE
 40
2458060.468368056230247
  9
$TDUPDATE
 40
2459033.4371296297758818
  9
$TDINDWG
 40
0.3818010417
  9
$TDUSRTIMER
 40
0.3818010417
  9
$USRTIMER
 70
     1
  9
$ANGBASE
 50
0.0
  9
$ANGDIR
 70
     0
  9
$PDMODE
 70
     0
  9
$PDSIZE
 40
0.3125
  9
$PLINEWID
 40
0.0
  9
$COORDS
 70
     1
  9
$SPLFRAME
 70
     0
  9
$SPLINETYPE
 70
     6
  9
$SPLINESEGS
 70
     8
  9
$ATTDIA
 70
     1
  9
$ATTREQ
 70
     1
  9
$HANDLING
 70
     1
  9
$HANDSEED
  5
7328
  9
$SURFTAB1
 70
     6
  9
$SURFTAB2
 70
     6
  9
$SURFTYPE
 70
     6
  9
$SURFU
 70
     6
  9
$SURFV
 70
     6
  9
$UCSNAME
  2

  9
$UCSORG
 10
0.0
 20
0.0
 30
0.0
  9
$UCSXDIR
 10
1.0
 20
0.0
 30
0.0
  9
$UCSYDIR
 10
0.0
 20
1.0
 30
0.0
  9
$PUCSNAME
  2

  9
$PUCSORG
 10
0.0
 20
0.0
 30
0.0
  9
$PUCSXDIR
 10
1.0
 20
0.0
 30
0.0
  9
$PUCSYDIR
 10
0.0
 20
1.0
 30
0.0
  9
$USERI1
 70
     0
  9
$USERI2
 70
     0
  9
$USERI3
 70
     0
  9
$USERI4
 70
     0
  9
$USERI5
 70
     0
  9
$USERR1
 40
0.0
  9
$USERR2
 40
0.0
  9
$USERR3
 40
0.0
  9
$USERR4
 40
0.0
  9
$USERR5
 40
0.0
  9
$WORLDVIEW
 70
     1
  9
$SHADEDGE
 70
     3
  9
$SHADEDIF
 70
    70
  9
$TILEMODE
 70
     1
  9
$MAXACTVP
 70
    64
  9
$PLIMCHECK
 70
     0
  9
$PEXTMIN
 10
1.0000000000000000E+20
 20
1.0000000000000000E+20
 30
1.0000000000000000E+20
  9
$PEXTMAX
 10
-1.0000000000000000E+20
 20
-1.0000000000000000E+20
 30
-1.0000000000000000E+20
  9
$PLIMMIN
 10
0.0
 20
0.0
  9
$PLIMMAX
 10
12.0
 20
9.0
  9
$UNITMODE
 70
     0
  9
$VISRETAIN
 70
     1
  9
$PLINEGEN
 70
     0
  9
$PSLTSCALE
 70
     1
  0
ENDSEC
  0
SECTION
  2
TABLES
  0
TABLE
  2
VPORT
 70
     1
  0
VPORT
  2
*ACTIVE
 70
     0
 10
0.0
 20
0.0
 11
1.0
 21
1.0
 12
0.0
 22
0.0
 13
0.0
 23
0.0
 14
1.0
 24
1.0
 15
0.0
 25
0.0
 16
0.0
 26
0.0
 36
12.1805622093339796
 17
4131.7890625
 27
156.5731294988563889
 37
0.0
 40
4.2845865642324998
 41
2.127494456762749
 42
50.0
 43
0.0
 44
0.0
 50
0.0
 51
0.0
 71
     0
 72
   100
 73
     1
 74
     1
 75
     0
 76
     0
 77
     0
 78
     0
  0
ENDTAB
  0
TABLE
  2
LTYPE
 70
     2
  0
LTYPE
  2
CONTINUOUS
 70
     0
  3
Solid line
 72
    65
 73
     0
 40
0.0
  0
LTYPE
  2
PHANTOM2
 70
     0
  3
___ _ _ ___ _ _ ___ _ _ ___ _ _
 72
    65
 73
     6
 40
1.25
 49
0.625
 49
-0.125
 49
0.125
 49
-0.125
 49
0.125
 49
-0.125
  0
ENDTAB
  0
TABLE
  2
LAYER
 70
     2
  0
LAYER
  2
0
 70
     0
 62
   255
  6
CONTINUOUS
  0
LAYER
  2
DEFPOINTS
 70
     0
 62
     7
  6
CONTINUOUS
  0
ENDTAB
  0
TABLE
  2
STYLE
 70
     1
  0
STYLE
  2
STANDARD
 70
     0
 40
0.0
 41
0.8
 50
0.0
 71
     0
 42
0.2
  3
txt
  4

  0
ENDTAB
  0
TABLE
  2
VIEW
 70
     0
  0
ENDTAB
  0
TABLE
  2
UCS
 70
     0
  0
ENDTAB
  0
TABLE
  2
APPID
 70
     9
  0
APPID
  2
ACAD
 70
     0
  0
APPID
  2
ACAD_MLEADERVER
 70
     0
  0
APPID
  2
ACAD_EXEMPT_FROM_CAD_STANDARDS
 70
     0
  0
APPID
  2
ACAD_NAV_VCDISPLAY
 70
     0
  0
APPID
  2
ACAECLAYERSTANDARD
 70
     0
  0
APPID
  2
ACCMTRANSPARENCY
 70
     0
  0
APPID
  2
ACAD_DSTYLE_DIMJAG
 70
     0
  0
APPID
  2
ACAD_DSTYLE_DIMTALN
 70
     0
  0
APPID
  2
ACDBATTR
 70
     0
  0
ENDTAB
  0
TABLE
  2
DIMSTYLE
 70
     1
  0
DIMSTYLE
  2
STANDARD
 70
     0
  3

  4

  5

  6

  7

 40
1.0
 41
0.1875
 42
0.0625
 43
0.38
 44
0.125
 45
0.0
 46
0.0
 47
0.01
 48
0.01
140
0.15625
141
0.09
142
0.0
143
25.3999999999999986
144
1.0
145
0.0
146
1.0
147
0.09
 71
     1
 72
     0
 73
     1
 74
     1
 75
     0
 76
     0
 77
     0
 78
     4
170
     0
171
     2
172
     0
173
     0
174
     0
175
     0
176
     0
177
     0
178
     0
  0
ENDTAB
  0
ENDSEC
  0
SECTION
  2
BLOCKS
  0
BLOCK
  8
0
  2
$MODEL_SPACE
 70
     0
 10
0.0
 20
0.0
 30
0.0
  3
$MODEL_SPACE
  1

  0
ENDBLK
  5
21
  8
0
  0
BLOCK
 67
     1
  8
0
  2
$PAPER_SPACE
 70
     0
 10
0.0
 20
0.0
 30
0.0
  3
$PAPER_SPACE
  1

  0
ENDBLK
  5
1D
 67
     1
  8
0
  0
BLOCK
  8
0
  2
_FILLED
 70
     0
 10
0.0
 20
0.0
 30
0.0
  3
_FILLED
  1

  0
SOLID
  5
67BB
  8
0
  6
BYBLOCK
 62
     0
 10
0.0
 20
0.0
 30
0.0
 11
-1.0
 21
0.1666666667
 31
0.0
 12
-1.0
 22
-0.1666666667
 32
0.0
 13
-1.0
 23
-0.1666666667
 33
0.0
  0
ENDBLK
  5
67BC
  8
0
  6
BYBLOCK
 62
     0
  0
ENDSEC
  0
SECTION
  2
ENTITIES
  0
ATTDEF
  5
3930
  8
DEFPOINTS
 10
4131.7844988503011336
 20
154.7503308564367046
 30
0.0
 40
0.001
  1
K-98068W-4
  3

  2
MODELNUMBER
 70
     0
1001
ACDBATTR
1070
     0
1070
     1
  0
ATTDEF
  5
3931
  8
DEFPOINTS
 10
4131.7844988503011336
 20
154.748664189770011
 30
0.0
 40
0.001
  1
ARTIFACTS
  3

  2
TRADENAME
 70
     0
1001
ACDBATTR
1070
     0
1070
     1
  0
ATTDEF
  5
3932
  8
DEFPOINTS
 10
4131.7844988503011336
 20
154.7469975231034027
 30
0.0
 40
0.001
  1
BATHROOM SINK FAUCET HANDLES
  3

  2
PRODUCT
 70
     0
1001
ACDBATTR
1070
     0
1070
     1
  0
CIRCLE
  5
7202
  8
0
 10
4131.7890057922058986
 20
157.6976931925609904
 30
0.0
 40
0.47
  0
LINE
  5
7203
  8
0
 10
4132.0728614966055829
 20
158.2852830310609988
 30
0.0
 11
4132.0728614966055829
 21
158.2872830310610084
 31
0.0
  0
LINE
  5
7204
  8
0
 10
4132.1472131568061741
 20
158.0295426678609942
 30
0.0
 11
4132.1218359677359331
 21
158.0295426678609942
 31
0.0
  0
LINE
  5
7205
  8
0
 10
4131.4561756166758641
 20
158.0295426678609942
 30
0.0
 11
4131.4308167053059151
 21
158.0295426678609942
 31
0.0
  0
LINE
  5
7206
  8
0
 10
4131.4746090930057107
 20
158.1487294356610107
 30
0.0
 11
4131.6568456340246485
 21
158.1487294356610107
 31
0.0
  0
LINE
  5
7207
  8
0
 10
4131.9211659503862393
 20
158.1487294356610107
 30
0.0
 11
4132.1034207691063784
 21
158.1487294356610107
 31
0.0
  0
LINE
  5
7208
  8
0
 10
4132.0963798552047592
 20
158.2802830310610034
 30
0.0
 11
4131.481650006806376
 21
158.2802830310610034
 31
0.0
  0
ARC
  5
7209
  8
0
 10
4132.1740149310062407
 20
157.3262096801610141
 30
0.0
 40
0.06
 50
136.0236248148040943
 51
180.0
  0
ARC
  5
720A
  8
0
 10
4131.7890149310060224
 20
157.6976931925609904
 30
0.0
 40
0.475
 50
316.0236248148041227
 51
28.6105597038086792
  0
ARC
  5
720B
  8
0
 10
4132.0658614966059758
 20
158.2872830310610084
 30
0.0
 40
0.007
 50
0.0
 51
35.8787261403096664
  0
ARC
  5
720C
  8
0
 10
4132.0678614966063833
 20
158.2852830310609988
 30
0.0
 40
0.005
 50
270.0
 51
0.0
  0
ARC
  5
720D
  8
0
 10
4131.872555882814595
 20
158.1349191175812905
 30
0.0
 40
0.2531279439917355
 50
38.1798316024634801
 51
71.8082459380178619
  0
ARC
  5
720E
  8
0
 10
4132.0176756650062089
 20
158.2152557665610004
 30
0.0
 40
0.1161467285
 50
334.0533559625907856
 51
23.9914337443981296
  0
ARC
  5
720F
  8
0
 10
4132.0963798553057131
 20
158.2502830310610022
 30
0.0
 40
0.03
 50
23.9914337443981296
 51
90.0
  0
ARC
  5
7210
  8
0
 10
4132.0951389656047468
 20
158.1775636467610013
 30
0.0
 40
0.03
 50
286.0252002939872114
 51
334.0533559625907856
  0
ARC
  5
7211
  8
0
 10
4132.1513270192535856
 20
158.1122242199654124
 30
0.0
 40
0.0827838324955084
 50
198.1062395069558875
 51
216.5561689106093866
  0
ARC
  5
7212
  8
0
 10
4132.1513270192535856
 20
158.1122242199654124
 30
0.0
 40
0.0827838324955084
 50
241.1336061864824956
 51
267.1515684934122987
  0
ARC
  5
7213
  8
0
 10
4132.1235473239230487
 20
158.1000481537550968
 30
0.0
 40
0.052677750681374
 50
112.461923003736203
 51
194.9071032362616904
  0
ARC
  5
7214
  8
0
 10
4132.4670833755453714
 20
158.0785872311230094
 30
0.0
 40
0.3028202781706492
 50
193.8167986127440088
 51
210.4441605219728899
  0
ARC
  5
7215
  8
0
 10
4132.1477695182456955
 20
158.0042090759546056
 30
0.0
 40
0.0253397004112418
 50
4.661141364345629
 51
91.2580939630474006
  0
LINE
  5
7216
  8
0
 10
4131.5051683653073269
 20
158.2852830310609988
 30
0.0
 11
4131.5051683653073269
 21
158.2872830310610084
 31
0.0
  0
ARC
  5
7217
  8
0
 10
4131.4040149310058041
 20
157.3262096801610141
 30
0.0
 40
0.06
 50
0.0
 51
43.9763751851959199
  0
ARC
  5
7218
  8
0
 10
4131.7890149310060224
 20
157.6976931925609904
 30
0.0
 40
0.475
 50
151.3894402961913102
 51
223.9763751851959057
  0
ARC
  5
7219
  8
0
 10
4131.5121683654060689
 20
158.2872830310610084
 30
0.0
 40
0.007
 50
144.1212738596902909
 51
180.0
  0
ARC
  5
721A
  8
0
 10
4131.5101683653047075
 20
158.2852830310609988
 30
0.0
 40
0.005
 50
180.0
 51
270.0
  0
ARC
  5
721B
  8
0
 10
4131.7813510782661979
 20
157.7815969662266866
 30
0.0
 40
0.6177172660459682
 50
74.0033831458697051
 51
89.2891283655053201
  0
ARC
  5
721C
  8
0
 10
4131.7936087022799256
 20
157.8025042988371922
 30
0.0
 40
0.596780070678633
 50
90.441044060438827
 51
106.2664444287121057
  0
ARC
  5
721D
  8
0
 10
4131.7054739791956308
 20
158.1349191175812905
 30
0.0
 40
0.2531279439917355
 50
108.1917540619820954
 51
141.8201683975364915
  0
ARC
  5
721E
  8
0
 10
4131.5603541970049264
 20
158.2152557665610004
 30
0.0
 40
0.1161467285
 50
156.0085662556018065
 51
205.9466440374091007
  0
ARC
  5
721F
  8
0
 10
4131.4816500067072411
 20
158.2502830310610022
 30
0.0
 40
0.03
 50
90.0
 51
156.0085662556018065
  0
ARC
  5
7220
  8
0
 10
4131.4828908964063885
 20
158.1775636467610013
 30
0.0
 40
0.03
 50
205.9466440374091007
 51
253.9747997060127034
  0
ARC
  5
7221
  8
0
 10
4131.4261722058054147
 20
158.1129189904000896
 30
0.0
 40
0.0835055838541866
 50
273.188380867308922
 51
299.3088881241409922
  0
ARC
  5
7222
  8
0
 10
4131.4261722058054147
 20
158.1129189904000896
 30
0.0
 40
0.0835055838541866
 50
322.9864870545246163
 51
341.5538111323037924
  0
ARC
  5
7223
  8
0
 10
4131.4544825380880866
 20
158.1000481537550968
 30
0.0
 40
0.052677750681374
 50
345.0928967637382812
 51
67.5380769962637686
  0
ARC
  5
7224
  8
0
 10
4131.1109464864657639
 20
158.0785872311230094
 30
0.0
 40
0.3028202781706492
 50
329.5558394780271101
 51
346.1832013872560196
  0
ARC
  5
7225
  8
0
 10
4131.4302603437663493
 20
158.0042090759546056
 30
0.0
 40
0.0253397004112353
 50
88.7419060369525852
 51
175.3388586356624899
  0
LINE
  5
7226
  8
0
 10
4132.383333948143445
 20
155.0949360963909953
 30
0.0
 11
4132.3746959140544277
 21
155.1294882331154952
 31
0.0
  0
LINE
  5
7227
  8
0
 10
4132.6080149310000706
 20
155.2347251967609907
 30
0.0
 11
4132.6080149310000706
 21
155.1717830310610111
 31
0.0
  0
LINE
  5
7228
  8
0
 10
4132.1680149310013803
 20
155.6798009220609913
 30
0.0
 11
4132.1680149310013803
 21
155.6695567780610077
 31
0.0
  0
LINE
  5
7229
  8
0
 10
4132.1140149310003835
 20
157.3262096801610141
 30
0.0
 11
4132.1140149310003835
 21
157.1012830310610013
 31
0.0
  0
LINE
  5
722A
  8
0
 10
4132.0390149310023844
 20
156.0839122774609962
 30
0.0
 11
4132.0390149310023844
 21
157.0125418343610022
 31
0.0
  0
LINE
  5
722B
  8
0
 10
4131.5390149310005654
 20
156.0839122774609962
 30
0.0
 11
4131.5390149310005654
 21
157.0125418343610022
 31
0.0
  0
LINE
  5
722C
  8
0
 10
4131.4640149309998378
 20
157.3262096801610141
 30
0.0
 11
4131.4640149309998378
 21
157.1012830310610013
 31
0.0
  0
LINE
  5
722D
  8
0
 10
4131.41001493100066
 20
155.6798009220609913
 30
0.0
 11
4131.41001493100066
 21
155.6695567780610077
 31
0.0
  0
LINE
  5
722E
  8
0
 10
4130.9700149309928747
 20
155.2347251967590012
 30
0.0
 11
4130.9700149309928747
 21
155.1717830310610111
 31
0.0
  0
LINE
  5
722F
  8
0
 10
4131.194695913743999
 20
155.0949360963909953
 30
0.0
 11
4131.2033339481968142
 21
155.1294882337120953
 31
0.0
  0
LINE
  5
7230
  8
0
 10
4132.9090149310013658
 20
154.7524149221098071
 30
0.0
 11
4130.6690149310061315
 21
154.7524149221098071
 31
0.0
  0
LINE
  5
7231
  8
0
 10
4130.6690149310061315
 20
154.7524149221098071
 30
0.0
 11
4130.6690149310061315
 21
154.7524149221098071
 31
0.0
  0
LINE
  5
7232
  8
0
 10
4131.0640149309438129
 20
155.0722121650910026
 30
0.0
 11
4132.514014930943631
 21
155.0722121650910026
 31
0.0
  0
LINE
  5
7233
  8
0
 10
4132.5780111109997961
 20
155.14178303106101
 30
0.0
 11
4131.0000187510013347
 21
155.14178303106101
 31
0.0
  0
LINE
  5
7234
  8
0
 10
4132.209245355999883
 20
155.6125681559609859
 30
0.0
 11
4131.3687845060012478
 21
155.6125681559609859
 31
0.0
  0
LINE
  5
7235
  8
0
 10
4131.4333972839021953
 20
155.7090619327609886
 30
0.0
 11
4132.1446325779998006
 21
155.7090619327609886
 31
0.0
  0
LINE
  5
7236
  8
0
 10
4132.0877367355024035
 20
156.0249817903610108
 30
0.0
 11
4131.4902931265023653
 21
156.0249817903610108
 31
0.0
  0
LINE
  5
7237
  8
0
 10
4132.0890149310007473
 20
157.0717026321609922
 30
0.0
 11
4131.489014931001293
 21
157.0717026321609922
 31
0.0
  0
ARC
  5
7238
  8
0
 10
4132.1680149310013803
 20
155.8124508372609967
 30
0.0
 40
0.106
 50
108.1388433357082022
 51
257.2564147778234087
  0
ARC
  5
7239
  8
0
 10
4131.41001493100066
 20
155.8124508372609967
 30
0.0
 40
0.106
 50
282.7435852221765913
 51
71.861156664291812
  0
ARC
  5
723A
  8
0
 10
4131.5040149309998014
 20
155.9532830310610052
 30
0.0
 40
0.073
 50
100.8343349783076945
 51
213.3199193709079964
  0
ARC
  5
723B
  8
0
 10
4132.0740149310013294
 20
155.9532830310610052
 30
0.0
 40
0.073
 50
326.6800806290920036
 51
79.1656650216922344
  0
ARC
  5
723C
  8
0
 10
4131.4790149310010747
 20
156.0839122774609962
 30
0.0
 40
0.06
 50
280.8343349785195073
 51
0.0
  0
ARC
  5
723D
  8
0
 10
4132.0990149310009656
 20
156.0839122774609962
 30
0.0
 40
0.06
 50
180.0
 51
259.1656650214804927
  0
ARC
  5
723E
  8
0
 10
4131.3500149310002598
 20
155.6695567780610077
 30
0.0
 40
0.06
 50
288.2296362633151148
 51
0.0
  0
ARC
  5
723F
  8
0
 10
4132.2280149309999615
 20
155.6695567780610077
 30
0.0
 40
0.06
 50
180.0
 51
251.7703637366849136
  0
ARC
  5
7240
  8
0
 10
4131.1655916387426259
 20
155.1022121650910037
 30
0.0
 40
0.03
 50
270.0
 51
345.963756531997717
  0
ARC
  5
7241
  8
0
 10
4132.4124382231439085
 20
155.1022121650910037
 30
0.0
 40
0.03
 50
194.0362434680023114
 51
270.0
  0
ARC
  5
7242
  8
0
 10
4131.4400149310004053
 20
155.6798009220609913
 30
0.0
 40
0.03
 50
102.7435852221207
 51
180.0
  0
ARC
  5
7243
  8
0
 10
4132.138014930999816
 20
155.6798009220609913
 30
0.0
 40
0.03
 50
0.0
 51
77.2564147778793284
  0
ARC
  5
7244
  8
0
 10
4131.000014931008991
 20
155.2347251967462967
 30
0.0
 40
0.0300000000156386
 50
97.6832466259085379
 51
179.9999999756693967
  0
ARC
  5
7245
  8
0
 10
4132.5780149310012348
 20
155.2347251967609907
 30
0.0
 40
0.03
 50
0.0
 51
82.3167533852918183
  0
ARC
  5
7246
  8
0
 10
4132.5780149310012348
 20
155.1717830310610111
 30
0.0
 40
0.03
 50
270.0
 51
0.0
  0
ARC
  5
7247
  8
0
 10
4131.0000149310062625
 20
155.1717830310741988
 30
0.0
 40
0.0300000000131977
 50
180.0000000252082941
 51
269.9999999895778728
  0
ARC
  5
7248
  8
0
 10
4132.0990149310009656
 20
157.0125418343610022
 30
0.0
 40
0.06
 50
99.5940682268787469
 51
180.0
  0
ARC
  5
7249
  8
0
 10
4131.4790149310010747
 20
157.0125418343610022
 30
0.0
 40
0.06
 50
0.0
 51
80.4059317731212673
  0
ARC
  5
724A
  8
0
 10
4131.4940149310014021
 20
157.1012830310610013
 30
0.0
 40
0.03
 50
180.0
 51
260.4059317731213241
  0
ARC
  5
724B
  8
0
 10
4132.0840149310006382
 20
157.1012830310610013
 30
0.0
 40
0.03
 50
279.5940682268787896
 51
0.0
  0
ARC
  5
724C
  8
0
 10
4132.6155326556236105
 20
155.5407246401858004
 30
0.0
 40
0.2782932678781443
 50
214.0463895292461132
 51
263.0847448888779923
  0
ARC
  5
724D
  8
0
 10
4133.5871241178710989
 20
156.1484363607737862
 30
0.0
 40
1.424148498465047
 50
206.5136173836260127
 51
212.4200692593001918
  0
ARC
  5
724E
  8
0
 10
4132.1304290364250846
 20
155.4273163524727011
 30
0.0
 40
0.2013212430651748
 50
25.0889608956355694
 51
66.9524268950015653
  0
ARC
  5
724F
  8
0
 10
4130.9624972063766108
 20
155.5407246401858004
 30
0.0
 40
0.2782932678781443
 50
276.9152551111220077
 51
325.9536104707524942
  0
ARC
  5
7250
  8
0
 10
4129.9909057441309415
 20
156.1484363607737862
 30
0.0
 40
1.424148498465047
 50
327.5799307406998082
 51
333.4863826163738736
  0
ARC
  5
7251
  8
0
 10
4131.4476008255778652
 20
155.4273163524727011
 30
0.0
 40
0.2013212430651748
 50
113.0475731049984063
 51
154.9110391043643915
  0
ARC
  5
7252
  8
0
 10
4132.5882962416435475
 20
154.7364466925276076
 30
0.0
 40
0.3211159635682747
 50
2.8503399141064452
 51
68.7404399486440809
  0
ARC
  5
7253
  8
0
 10
4132.5135729204976087
 20
154.5534287951003023
 30
0.0
 40
0.5187835582900583
 50
68.3785067349033255
 51
89.9511832329887255
  0
ARC
  5
7254
  8
0
 10
4130.9981752886023969
 20
154.7303594019001025
 30
0.0
 40
0.3298984495023865
 50
112.2426164721108961
 51
176.166603697089414
  0
ARC
  5
7255
  8
0
 10
4131.0644569413889258
 20
154.5534287951003023
 30
0.0
 40
0.5187835582900583
 50
90.0488167670112887
 51
111.6214932650966034
  0
ARC
  5
7256
  8
0
 10
4132.3455916389011691
 20
155.1222121649610131
 30
0.0
 40
0.0300000000000305
 50
14.03624229344992
 51
40.7199395545798595
  0
ARC
  5
7257
  8
0
 10
4131.2324382232009157
 20
155.1222121649610131
 30
0.0
 40
0.0299999999999743
 50
139.2800604454089921
 51
165.9637565320086878
  0
LINE
  5
7258
  8
0
 10
4132.1350149308545951
 20
155.9131831557610042
 30
0.0
 11
4131.4430149309500848
 21
155.9131831558250099
 31
0.0
  0
CIRCLE
  5
7259
  8
0
 10
4131.7890057922058986
 20
157.6976931925609904
 30
0.0
 40
0.1302240371211786
  0
CIRCLE
  5
725A
  8
0
 10
4131.7890057922058986
 20
157.6976931925609904
 30
0.0
 40
0.2401437528918082
  0
CIRCLE
  5
725B
  8
0
 10
4131.7890057922058986
 20
157.6976931925609904
 30
0.0
 40
0.4200023916407568
  0
LINE
  5
725C
  8
0
 10
4130.9960040385667526
 20
155.2644558668152968
 30
0.0
 11
4132.5820258234352877
 21
155.2644558668152968
 31
0.0
  0
ENDSEC
  0
EOF
