  0
SECTION
  2
HEADER
  9
$ACADVER
  1
AC1009
  9
$INSBASE
 10
4768.736482685874762
 20
214.4137969396761036
 30
0.0
  9
$EXTMIN
 10
4766.6104984339754083
 20
177.4498041137173061
 30
0.0
  9
$EXTMAX
 10
4768.748841937733232
 20
220.8271827665282103
 30
0.0
  9
$LIMMIN
 10
0.0
 20
0.0
  9
$LIMMAX
 10
11.6929133858000007
 20
8.2677165353999982
  9
$ORTHOMODE
 70
     0
  9
$REGENMODE
 70
     1
  9
$FILLMODE
 70
     1
  9
$QTEXTMODE
 70
     0
  9
$MIRRTEXT
 70
     0
  9
$DRAGMODE
 70
     2
  9
$LTSCALE
 40
0.6431102362
  9
$OSMODE
 70
  4095
  9
$ATTMODE
 70
     1
  9
$TEXTSIZE
 40
0.2
  9
$TRACEWID
 40
0.05
  9
$TEXTSTYLE
  7
STANDARD
  9
$CLAYER
  8
0
  9
$CELTYPE
  6
BYLAYER
  9
$CECOLOR
 62
   256
  9
$DIMSCALE
 40
1.0
  9
$DIMASZ
 40
0.1875
  9
$DIMEXO
 40
0.0625
  9
$DIMDLI
 40
0.4443307087
  9
$DIMRND
 40
0.0
  9
$DIMDLE
 40
0.0
  9
$DIMEXE
 40
0.125
  9
$DIMTP
 40
0.01
  9
$DIMTM
 40
0.01
  9
$DIMTXT
 40
2.0
  9
$DIMCEN
 40
0.1052362205
  9
$DIMTSZ
 40
0.0
  9
$DIMTOL
 70
     1
  9
$DIMLIM
 70
     0
  9
$DIMTIH
 70
     1
  9
$DIMTOH
 70
     1
  9
$DIMSE1
 70
     0
  9
$DIMSE2
 70
     0
  9
$DIMTAD
 70
     0
  9
$DIMZIN
 70
     0
  9
$DIMBLK
  1

  9
$DIMASO
 70
     1
  9
$DIMSHO
 70
     1
  9
$DIMPOST
  1
\X
  9
$DIMAPOST
  1

  9
$DIMALT
 70
     1
  9
$DIMALTD
 70
     2
  9
$DIMALTF
 40
25.3999999999999986
  9
$DIMLFAC
 40
1.0
  9
$DIMTOFL
 70
     0
  9
$DIMTVP
 40
0.0
  9
$DIMTIX
 70
     0
  9
$DIMSOXD
 70
     0
  9
$DIMSAH
 70
     0
  9
$DIMBLK1
  1

  9
$DIMBLK2
  1

  9
$DIMSTYLE
  2
STANDARD
  9
$DIMCLRD
 70
     0
  9
$DIMCLRE
 70
     0
  9
$DIMCLRT
 70
     0
  9
$DIMTFAC
 40
1.0
  9
$DIMGAP
 40
0.09
  9
$LUNITS
 70
     2
  9
$LUPREC
 70
     4
  9
$SKETCHINC
 40
0.1
  9
$FILLETRAD
 40
0.0
  9
$AUNITS
 70
     0
  9
$AUPREC
 70
     0
  9
$MENU
  1
.
  9
$ELEVATION
 40
0.0
  9
$PELEVATION
 40
0.0
  9
$THICKNESS
 40
0.0
  9
$LIMCHECK
 70
     0
  9
$BLIPMODE
 70
     0
  9
$CHAMFERA
 40
0.0
  9
$CHAMFERB
 40
0.0
  9
$SKPOLY
 70
     0
  9
$TDCREATE
 40
2458060.468368056230247
  9
$TDUPDATE
 40
2459660.4334722221828997
  9
$TDINDWG
 40
0.4167894676
  9
$TDUSRTIMER
 40
0.4167894676
  9
$USRTIMER
 70
     1
  9
$ANGBASE
 50
0.0
  9
$ANGDIR
 70
     0
  9
$PDMODE
 70
     0
  9
$PDSIZE
 40
0.3125
  9
$PLINEWID
 40
0.0
  9
$COORDS
 70
     1
  9
$SPLFRAME
 70
     0
  9
$SPLINETYPE
 70
     6
  9
$SPLINESEGS
 70
     8
  9
$ATTDIA
 70
     1
  9
$ATTREQ
 70
     1
  9
$HANDLING
 70
     1
  9
$HANDSEED
  5
C4A2
  9
$SURFTAB1
 70
     6
  9
$SURFTAB2
 70
     6
  9
$SURFTYPE
 70
     6
  9
$SURFU
 70
     6
  9
$SURFV
 70
     6
  9
$UCSNAME
  2

  9
$UCSORG
 10
0.0
 20
0.0
 30
0.0
  9
$UCSXDIR
 10
1.0
 20
0.0
 30
0.0
  9
$UCSYDIR
 10
0.0
 20
1.0
 30
0.0
  9
$PUCSNAME
  2

  9
$PUCSORG
 10
0.0
 20
0.0
 30
0.0
  9
$PUCSXDIR
 10
1.0
 20
0.0
 30
0.0
  9
$PUCSYDIR
 10
0.0
 20
1.0
 30
0.0
  9
$USERI1
 70
     0
  9
$USERI2
 70
     0
  9
$USERI3
 70
     0
  9
$USERI4
 70
     0
  9
$USERI5
 70
     0
  9
$USERR1
 40
0.0
  9
$USERR2
 40
0.0
  9
$USERR3
 40
0.0
  9
$USERR4
 40
0.0
  9
$USERR5
 40
0.0
  9
$WORLDVIEW
 70
     1
  9
$SHADEDGE
 70
     3
  9
$SHADEDIF
 70
    70
  9
$TILEMODE
 70
     1
  9
$MAXACTVP
 70
    64
  9
$PLIMCHECK
 70
     0
  9
$PEXTMIN
 10
1.0000000000000000E+20
 20
1.0000000000000000E+20
 30
1.0000000000000000E+20
  9
$PEXTMAX
 10
-1.0000000000000000E+20
 20
-1.0000000000000000E+20
 30
-1.0000000000000000E+20
  9
$PLIMMIN
 10
0.0
 20
0.0
  9
$PLIMMAX
 10
12.0
 20
9.0
  9
$UNITMODE
 70
     0
  9
$VISRETAIN
 70
     1
  9
$PLINEGEN
 70
     0
  9
$PSLTSCALE
 70
     1
  0
ENDSEC
  0
SECTION
  2
TABLES
  0
TABLE
  2
VPORT
 70
     1
  0
VPORT
  2
*ACTIVE
 70
     0
 10
0.0
 20
0.0
 11
1.0
 21
1.0
 12
964.1356028030421612
 22
73.1432312433728384
 13
0.0
 23
0.0
 14
1.0
 24
1.0
 15
0.0
 25
0.0
 16
0.0
 26
0.0
 36
17.1152628219792007
 17
3803.5440673828129547
 27
125.9952621967499056
 37
0.0
 40
43.6490532581521506
 41
2.005224660397074
 42
50.0
 43
0.0
 44
0.0
 50
0.0
 51
0.0
 71
     0
 72
   100
 73
     1
 74
     1
 75
     0
 76
     0
 77
     0
 78
     0
  0
ENDTAB
  0
TABLE
  2
LTYPE
 70
     2
  0
LTYPE
  2
CONTINUOUS
 70
     0
  3
Solid line
 72
    65
 73
     0
 40
0.0
  0
LTYPE
  2
PHANTOM2
 70
     0
  3
___ _ _ ___ _ _ ___ _ _ ___ _ _
 72
    65
 73
     6
 40
1.25
 49
0.625
 49
-0.125
 49
0.125
 49
-0.125
 49
0.125
 49
-0.125
  0
ENDTAB
  0
TABLE
  2
LAYER
 70
     2
  0
LAYER
  2
0
 70
     0
 62
   255
  6
CONTINUOUS
  0
LAYER
  2
DEFPOINTS
 70
     0
 62
     7
  6
CONTINUOUS
  0
ENDTAB
  0
TABLE
  2
STYLE
 70
     1
  0
STYLE
  2
STANDARD
 70
     0
 40
0.0
 41
0.8
 50
0.0
 71
     0
 42
0.2
  3
txt
  4

  0
ENDTAB
  0
TABLE
  2
VIEW
 70
     0
  0
ENDTAB
  0
TABLE
  2
UCS
 70
     0
  0
ENDTAB
  0
TABLE
  2
APPID
 70
     9
  0
APPID
  2
ACAD
 70
     0
  0
APPID
  2
ACAD_MLEADERVER
 70
     0
  0
APPID
  2
ACAD_EXEMPT_FROM_CAD_STANDARDS
 70
     0
  0
APPID
  2
ACAD_NAV_VCDISPLAY
 70
     0
  0
APPID
  2
ACAECLAYERSTANDARD
 70
     0
  0
APPID
  2
ACCMTRANSPARENCY
 70
     0
  0
APPID
  2
ACAD_DSTYLE_DIMJAG
 70
     0
  0
APPID
  2
ACAD_DSTYLE_DIMTALN
 70
     0
  0
APPID
  2
ACDBATTR
 70
     0
  0
ENDTAB
  0
TABLE
  2
DIMSTYLE
 70
     1
  0
DIMSTYLE
  2
STANDARD
 70
     0
  3

  4

  5

  6

  7

 40
1.0
 41
0.1875
 42
0.0625
 43
0.38
 44
0.125
 45
0.0
 46
0.0
 47
0.01
 48
0.01
140
0.15625
141
0.09
142
0.0
143
25.3999999999999986
144
1.0
145
0.0
146
1.0
147
0.09
 71
     1
 72
     0
 73
     1
 74
     1
 75
     0
 76
     0
 77
     0
 78
     4
170
     0
171
     2
172
     0
173
     0
174
     0
175
     0
176
     0
177
     0
178
     0
  0
ENDTAB
  0
ENDSEC
  0
SECTION
  2
BLOCKS
  0
BLOCK
  8
0
  2
$MODEL_SPACE
 70
     0
 10
0.0
 20
0.0
 30
0.0
  3
$MODEL_SPACE
  1

  0
ENDBLK
  5
21
  8
0
  0
BLOCK
 67
     1
  8
0
  2
$PAPER_SPACE
 70
     0
 10
0.0
 20
0.0
 30
0.0
  3
$PAPER_SPACE
  1

  0
ENDBLK
  5
1D
 67
     1
  8
0
  0
ENDSEC
  0
SECTION
  2
ENTITIES
  0
ATTDEF
  5
3930
  8
DEFPOINTS
 10
4768.7381752710643923
 20
214.412473702944709
 30
0.0
 40
0.001
  1
K-98100IN
  3

  2
MODELNUMBER
 70
     0
1001
ACDBATTR
1070
     0
1070
     1
  0
ATTDEF
  5
3931
  8
DEFPOINTS
 10
4768.7381752710643923
 20
214.4108070362781007
 30
0.0
 40
0.001
  1
CUFF
  3

  2
TRADENAME
 70
     0
1001
ACDBATTR
1070
     0
1070
     1
  0
ATTDEF
  5
3932
  8
DEFPOINTS
 10
4768.7381752710643923
 20
214.4091403696114071
 30
0.0
 40
0.001
  1
HYGIENE SPRAY
  3

  2
PRODUCT
 70
     0
1001
ACDBATTR
1070
     0
1070
     1
  0
LINE
  5
C0E1
  8
0
 10
4766.6498984339759772
 20
220.8271827665282103
 30
0.0
 11
4767.8703110323758665
 21
220.8271827665282103
 31
0.0
  0
LINE
  5
C0E2
  8
0
 10
4766.6301984339761475
 20
215.3123474711711083
 30
0.0
 11
4767.8900110323756962
 21
215.3123474711711083
 31
0.0
  0
LINE
  5
C0E3
  8
0
 10
4766.632922396174763
 20
213.9739385131344989
 30
0.0
 11
4766.632922396174763
 21
215.2418634580610899
 31
0.0
  0
LINE
  5
C0E4
  8
0
 10
4767.7698028477216212
 20
213.3714171493433867
 30
0.0
 11
4766.6650503673799903
 21
213.9220286092048866
 31
0.0
  0
LINE
  5
C0E5
  8
0
 10
4767.9075658695619495
 20
213.3383536218163954
 30
0.0
 11
4768.736482685874762
 21
213.3311197743283003
 31
0.0
  0
ARC
  5
C0E6
  8
0
 10
4767.9103147282530699
 20
213.6533416275815114
 30
0.0
 40
0.315
 50
243.5082170427905055
 51
269.499999998419014
  0
ARC
  5
C0E7
  8
0
 10
4766.6909223961747557
 20
213.9739385131344989
 30
0.0
 40
0.058
 50
179.9999999999984084
 51
243.5082170427905055
  0
LINE
  5
C0E8
  8
0
 10
4766.6915066249866868
 20
215.3009612074266954
 30
0.0
 11
4768.1659129033423596
 21
215.3138289779813022
 31
0.0
  0
ARC
  5
C0E9
  8
0
 10
4766.6920223961760712
 20
215.2418634580610899
 30
0.0
 40
0.0591
 50
90.500031936557761
 51
180.0
  0
LINE
  5
C0EA
  8
0
 10
4768.736482685874762
 20
213.3311197743283003
 30
0.0
 11
4768.736482685874762
 21
215.496474105023907
 31
0.0
  0
LINE
  5
C0EB
  8
0
 10
4768.3940366439737772
 20
215.4934856237622114
 30
0.0
 11
4768.736482685874762
 21
215.496474105023907
 31
0.0
  0
ARC
  5
C0EC
  8
0
 10
4768.3945523822103496
 20
215.4343878741090919
 30
0.0
 40
0.0591
 50
90.4999999880318029
 51
165.9436925016669022
  0
ARC
  5
C0ED
  8
0
 10
4768.1643577353916044
 20
215.4920221918044945
 30
0.0
 40
0.1782
 50
270.5000319365577752
 51
345.9436925016653959
  0
LINE
  5
C0EE
  8
0
 10
4766.6104984339754083
 20
215.3320474711711086
 30
0.0
 11
4766.6104984339754083
 21
218.9953874489895895
 31
0.0
  0
LINE
  5
C0EF
  8
0
 10
4766.6104984339754083
 20
220.4543646144896059
 30
0.0
 11
4766.6104984339754083
 21
220.7877827665282098
 31
0.0
  0
ARC
  5
C0F0
  8
0
 10
4766.6301984339761475
 20
215.3320474711711086
 30
0.0
 40
0.0197
 50
179.9999999999901945
 51
270.0
  0
ARC
  5
C0F1
  8
0
 10
4766.8368763866747031
 20
215.2583428782280919
 30
0.0
 40
0.0590551181001445
 50
48.4983734959825199
 51
66.1316725675754924
  0
LINE
  5
C0F2
  8
0
 10
4767.6592282232622892
 20
215.3123474711711083
 30
0.0
 11
4767.6534011181529422
 21
215.3093560696960083
 31
0.0
  0
ARC
  5
C0F3
  8
0
 10
4765.5201619731406026
 20
219.7248205706449937
 30
0.0
 40
1.3068718952991301
 50
326.9324932814047884
 51
344.1076366391279748
  0
ARC
  5
C0F4
  8
0
 10
4766.6404984339760631
 20
218.9953874489895895
 30
0.0
 40
0.03
 50
146.9324932814033957
 51
180.0
  0
ARC
  5
C0F5
  8
0
 10
4765.5201620044717856
 20
219.724820561725295
 30
0.0
 40
1.3068718627253131
 50
344.1076366391279748
 51
15.8333790238770398
  0
ARC
  5
C0F6
  8
0
 10
4765.5201606835917119
 20
219.7248201871229014
 30
0.0
 40
1.3068732356959021
 50
15.8333790238770398
 51
29.6768170181907109
  0
ARC
  5
C0F7
  8
0
 10
4765.4894242045484134
 20
219.7073048879477994
 30
0.0
 40
1.3422500197394069
 50
29.6768170181907109
 51
32.9840105256625975
  0
ARC
  5
C0F8
  8
0
 10
4766.6404984339760631
 20
220.4543646144896059
 30
0.0
 40
0.03
 50
179.9999999999870113
 51
212.9840105257306107
  0
LINE
  5
C0F9
  8
0
 10
4766.7377740125048149
 20
219.2714728883815951
 30
0.0
 11
4766.7458301622837098
 21
219.2713322677668089
 31
0.0
  0
LINE
  5
C0FA
  8
0
 10
4766.7377740125448327
 20
220.1781682351756899
 30
0.0
 11
4766.7458301665692488
 21
220.1783088558642021
 31
0.0
  0
ARC
  5
C0FB
  8
0
 10
4767.7598580758758544
 20
219.7248205617331109
 30
0.0
 40
1.1296457993189559
 50
157.0374865823584116
 51
202.9625134125402042
  0
ARC
  5
C0FC
  8
0
 10
4766.7381178249061122
 20
219.2911698879763094
 30
0.0
 40
0.0197
 50
200.9901184903490048
 51
269.0000000189431262
  0
ARC
  5
C0FD
  8
0
 10
4766.738117824944311
 20
220.1584712355808904
 30
0.0
 40
0.0197
 50
90.999999978763654
 51
159.0098815045764127
  0
ARC
  5
C0FE
  8
0
 10
4766.6498984339759772
 20
220.7877827665282098
 30
0.0
 40
0.0394
 50
90.0
 51
180.0
  0
LINE
  5
C0FF
  8
0
 10
4767.9097110323764355
 20
220.4468257725615103
 30
0.0
 11
4767.9097110323764355
 21
220.7877827665282098
 31
0.0
  0
LINE
  5
C100
  8
0
 10
4767.9097110323764355
 20
218.1444932429492098
 30
0.0
 11
4767.9097110323764355
 21
215.3320474711711086
 31
0.0
  0
LINE
  5
C101
  8
0
 10
4767.803411819775647
 20
220.1618283090419084
 30
0.0
 11
4767.803411819775647
 21
218.4295449714599897
 31
0.0
  0
ARC
  5
C102
  8
0
 10
4768.1971136425117948
 20
220.1618283090419084
 30
0.0
 40
0.3937018227364109
 50
147.8650739329316934
 51
179.999986511271004
  0
ARC
  5
C103
  8
0
 10
4768.1971015603830892
 20
220.1618358984140968
 30
0.0
 40
0.3936875547159354
 50
139.0904504583000971
 51
147.8650739329316934
  0
ARC
  5
C104
  8
0
 10
4768.1998939455143045
 20
218.4312718906797102
 30
0.0
 40
0.3969695515792146
 50
211.1399428488070953
 51
220.8472470159696002
  0
ARC
  5
C105
  8
0
 10
4768.1969986632157088
 20
218.4295225906872986
 30
0.0
 40
0.3935868440761325
 50
179.9967419882999025
 51
211.139942848808488
  0
ARC
  5
C106
  8
0
 10
4767.8682110323761663
 20
218.1444932429492098
 30
0.0
 40
0.0415
 50
359.9999999999512283
 51
40.8472470160701775
  0
ARC
  5
C107
  8
0
 10
4767.8682110323761663
 20
220.4468257725615103
 30
0.0
 40
0.0415
 50
319.0904504583576795
 51
359.9999999999902229
  0
ARC
  5
C108
  8
0
 10
4767.8703110323758665
 20
220.7877827665282098
 30
0.0
 40
0.0394
 50
0.0
 51
90.0
  0
LINE
  5
C109
  8
0
 10
4768.2543666958272297
 20
218.3634279991850917
 30
0.0
 11
4768.2347634036659656
 21
218.5029126707088949
 31
0.0
  0
LINE
  5
C10A
  8
0
 10
4768.2279931231641967
 20
218.5510857196111942
 30
0.0
 11
4768.2155960958962169
 21
218.6392951520988106
 31
0.0
  0
LINE
  5
C10B
  8
0
 10
4768.2088258153953575
 20
218.6874682010011099
 30
0.0
 11
4768.1964812871519825
 21
218.7753040835046932
 31
0.0
  0
LINE
  5
C10C
  8
0
 10
4768.1897110066511232
 20
218.8234771324069925
 30
0.0
 11
4768.1773101091257558
 21
218.9117141032035079
 31
0.0
  0
LINE
  5
C10D
  8
0
 10
4768.170539828623987
 20
218.9598871521058072
 30
0.0
 11
4767.9772398924033041
 21
220.3352876658765922
 31
0.0
  0
ARC
  5
C10E
  8
0
 10
4767.7746255401643793
 20
219.3445840884475899
 30
0.0
 40
1.119999689582885
 50
274.3231779510476827
 51
294.0699632797026197
  0
ARC
  5
C10F
  8
0
 10
4768.2153501339171271
 20
218.3579445790082048
 30
0.0
 40
0.0394
 50
294.0699632797052914
 51
7.9999999985944026
  0
ARC
  5
C110
  8
0
 10
4767.7894918481506465
 20
219.3147737787807046
 30
0.0
 40
1.0652693399328921
 50
81.6638255971035392
 51
85.798858852766628
  0
ARC
  5
C111
  8
0
 10
4767.9382233304950205
 20
220.3298042456997052
 30
0.0
 40
0.0394
 50
7.9999999985944026
 51
81.6638255971030844
  0
LINE
  5
C112
  8
0
 10
4768.1580307782478485
 20
218.5156090266438014
 30
0.0
 11
4767.9172472918562562
 21
220.1611406389760077
 31
0.0
  0
LINE
  5
C113
  8
0
 10
4768.2241414010877634
 20
218.3826115382771889
 30
0.0
 11
4768.2542309724840379
 21
218.3643937209500905
 31
0.0
  0
ARC
  5
C114
  8
0
 10
4768.4165054298846371
 20
218.5611621201659034
 30
0.0
 40
0.2624580535403342
 50
189.9950635771949123
 51
222.8672001800408111
  0
ARC
  5
C115
  8
0
 10
4768.2116000492187595
 20
220.1688145153221967
 30
0.0
 40
0.2944527706526221
 50
151.6474144770483008
 51
181.4933821586658951
  0
ARC
  5
C116
  8
0
 10
4769.5016117854393087
 20
218.8929779688243968
 30
0.0
 40
2.0985630632623251
 50
136.5844702919561939
 51
137.5776301507171979
  0
ARC
  5
C117
  8
0
 10
4768.1842752390866735
 20
218.5375167282190887
 30
0.0
 40
0.0207993088884482
 50
10.7216776078047502
 51
63.5473767842121617
  0
ARC
  5
C118
  8
0
 10
4768.2370299228941803
 20
218.5280066919710009
 30
0.0
 40
0.051795056561895
 50
147.1026761992702063
 51
229.4240628642284889
  0
ARC
  5
C119
  8
0
 10
4768.1893669163828235
 20
218.5036606839028934
 30
0.0
 40
0.0204957067511537
 50
312.979362279267491
 51
6.3280071145166863
  0
ARC
  5
C11A
  8
0
 10
4768.1980951109762827
 20
218.5223591317738965
 30
0.0
 40
0.0201446046515419
 50
305.3067000223500145
 51
70.8257663013769303
  0
ARC
  5
C11B
  8
0
 10
4768.3528460974912377
 20
218.5440790296513001
 30
0.0
 40
0.1299686417125271
 50
172.7774013397392139
 51
203.1793304295875942
  0
ARC
  5
C11C
  8
0
 10
4768.2199390350442627
 20
218.4982220871746108
 30
0.0
 40
0.0144378272576378
 50
338.4634308401895737
 51
10.3124589956900508
  0
ARC
  5
C11D
  8
0
 10
4768.2522777415206292
 20
218.4966141952799887
 30
0.0
 40
0.0186124373262647
 50
128.362100182848792
 51
166.9822791472010124
  0
ARC
  5
C11E
  8
0
 10
4768.2285421192236754
 20
218.5266693888798102
 30
0.0
 40
0.0196850311360416
 50
308.2400515341395817
 51
67.8737659192934899
  0
ARC
  5
C11F
  8
0
 10
4768.2427891977140462
 20
218.5619280933740072
 30
0.0
 40
0.0183434154639591
 50
209.1395005981507893
 51
248.1307253021284112
  0
ARC
  5
C120
  8
0
 10
4768.2064808042568984
 20
218.549445842697196
 30
0.0
 40
0.0205948762289865
 50
9.9262436265367011
 51
32.1964263544359213
  0
ARC
  5
C121
  8
0
 10
4768.1651079313160153
 20
218.6738992096090044
 30
0.0
 40
0.0207993088884482
 50
10.7216776078047502
 51
63.5473767842121617
  0
ARC
  5
C122
  8
0
 10
4768.2178626151253411
 20
218.6643891733608882
 30
0.0
 40
0.051795056561895
 50
147.1026761992702063
 51
229.4240628642284889
  0
ARC
  5
C123
  8
0
 10
4768.1701996086130748
 20
218.6400431652926954
 30
0.0
 40
0.0204957067511537
 50
312.979362279267491
 51
6.3280071145166863
  0
ARC
  5
C124
  8
0
 10
4768.178927803204715
 20
218.6587416131638122
 30
0.0
 40
0.0201446046515419
 50
305.3067000223500145
 51
70.8257663013769303
  0
ARC
  5
C125
  8
0
 10
4768.3336787897223985
 20
218.6804615110411874
 30
0.0
 40
0.1299686417125271
 50
172.7774013397392139
 51
203.1793304295875942
  0
ARC
  5
C126
  8
0
 10
4768.2007717272754235
 20
218.6346045685644981
 30
0.0
 40
0.0144378272576378
 50
338.4634308401895737
 51
10.3124589956900508
  0
ARC
  5
C127
  8
0
 10
4768.233110433749971
 20
218.6329966766699044
 30
0.0
 40
0.0186124373262647
 50
128.362100182848792
 51
166.9822791472010124
  0
ARC
  5
C128
  8
0
 10
4768.2093748114539267
 20
218.6630518702696975
 30
0.0
 40
0.0196850311360416
 50
308.2400515341395817
 51
67.8737659192934899
  0
ARC
  5
C129
  8
0
 10
4768.2236218899433879
 20
218.6983105747638945
 30
0.0
 40
0.0183434154639591
 50
209.1395005981507893
 51
248.1307253021284112
  0
ARC
  5
C12A
  8
0
 10
4768.1873134964871497
 20
218.6858283240871117
 30
0.0
 40
0.0205948762289865
 50
9.9262436265367011
 51
32.1964263544359213
  0
ARC
  5
C12B
  8
0
 10
4768.1459931225736
 20
218.809908141014887
 30
0.0
 40
0.0207993088884482
 50
10.7216776078047502
 51
63.5473767842121617
  0
ARC
  5
C12C
  8
0
 10
4768.1987478063811068
 20
218.8003981047667992
 30
0.0
 40
0.051795056561895
 50
147.1026761992702063
 51
229.4240628642284889
  0
ARC
  5
C12D
  8
0
 10
4768.15108479986975
 20
218.7760520966986917
 30
0.0
 40
0.0204957067511537
 50
312.979362279267491
 51
6.3280071145166863
  0
ARC
  5
C12E
  8
0
 10
4768.1598129944622997
 20
218.7947505445696947
 30
0.0
 40
0.0201446046515419
 50
305.3067000223500145
 51
70.8257663013769303
  0
ARC
  5
C12F
  8
0
 10
4768.3145639809781642
 20
218.8164704424470983
 30
0.0
 40
0.1299686417125271
 50
172.7774013397392139
 51
203.1793304295875942
  0
ARC
  5
C130
  8
0
 10
4768.1816569185311891
 20
218.7706134999704091
 30
0.0
 40
0.0144378272576378
 50
338.4634308401895737
 51
10.3124589956900508
  0
ARC
  5
C131
  8
0
 10
4768.2139956250066462
 20
218.769005608075787
 30
0.0
 40
0.0186124373262647
 50
128.362100182848792
 51
166.9822791472010124
  0
ARC
  5
C132
  8
0
 10
4768.1902600027106018
 20
218.7990608016756084
 30
0.0
 40
0.0196850311360416
 50
308.2400515341395817
 51
67.8737659192934899
  0
ARC
  5
C133
  8
0
 10
4768.2045070812000631
 20
218.8343195061698054
 30
0.0
 40
0.0183434154639591
 50
209.1395005981507893
 51
248.1307253021284112
  0
ARC
  5
C134
  8
0
 10
4768.1681986877429154
 20
218.8218372554929942
 30
0.0
 40
0.0205948762289865
 50
9.9262436265367011
 51
32.1964263544359213
  0
ARC
  5
C135
  8
0
 10
4768.1268219445473733
 20
218.9463181607137017
 30
0.0
 40
0.0207993088884482
 50
10.7216776078047502
 51
63.5473767842121617
  0
ARC
  5
C136
  8
0
 10
4768.1795766283539706
 20
218.9368081244656139
 30
0.0
 40
0.051795056561895
 50
147.1026761992702063
 51
229.4240628642284889
  0
ARC
  5
C137
  8
0
 10
4768.1319136218417043
 20
218.9124621163975064
 30
0.0
 40
0.0204957067511537
 50
312.979362279267491
 51
6.3280071145166863
  0
ARC
  5
C138
  8
0
 10
4768.140641816436073
 20
218.9311605642685095
 30
0.0
 40
0.0201446046515419
 50
305.3067000223500145
 51
70.8257663013769303
  0
ARC
  5
C139
  8
0
 10
4768.2953928029519375
 20
218.952880462145913
 30
0.0
 40
0.1299686417125271
 50
172.7774013397392139
 51
203.1793304295875942
  0
ARC
  5
C13A
  8
0
 10
4768.162485740504053
 20
218.9070235196691954
 30
0.0
 40
0.0144378272576378
 50
338.4634308401895737
 51
10.3124589956900508
  0
ARC
  5
C13B
  8
0
 10
4768.1948244469822384
 20
218.9054156277746017
 30
0.0
 40
0.0186124373262647
 50
128.362100182848792
 51
166.9822791472010124
  0
ARC
  5
C13C
  8
0
 10
4768.1710888246852846
 20
218.9354708213743947
 30
0.0
 40
0.0196850311360416
 50
308.2400515341395817
 51
67.8737659192934899
  0
ARC
  5
C13D
  8
0
 10
4768.1853359031738364
 20
218.9707295258685917
 30
0.0
 40
0.0183434154639591
 50
209.1395005981507893
 51
248.1307253021284112
  0
ARC
  5
C13E
  8
0
 10
4768.1490275097166887
 20
218.958247275191809
 30
0.0
 40
0.0205948762289865
 50
9.9262436265367011
 51
32.1964263544359213
  0
ARC
  5
C13F
  8
0
 10
4767.8900110323756962
 20
215.3320474711711086
 30
0.0
 40
0.0197
 50
270.0
 51
0.0000000000048853
  0
LINE
  5
C140
  8
0
 10
4767.5356952842757892
 20
177.7253946648673093
 30
0.0
 11
4767.5356952842757892
 21
213.4880969573252969
 31
0.0
  0
LINE
  5
C141
  8
0
 10
4766.9845141819760101
 20
177.7253946648673093
 30
0.0
 11
4766.9845141819760101
 21
213.7628070274863035
 31
0.0
  0
LINE
  5
C143
  8
0
 10
4766.6722984200168867
 20
219.8035607192038015
 30
0.0
 11
4766.6708083024759617
 21
219.7799386720238886
 31
0.0
  0
LINE
  5
C144
  8
0
 10
4766.6708083024759617
 20
219.7799386720238886
 30
0.0
 11
4766.677574802176423
 21
219.7799386720238886
 31
0.0
  0
LINE
  5
C145
  8
0
 10
4766.677574802176423
 20
219.7799386720238886
 30
0.0
 11
4766.6790741572467596
 21
219.8035605565420951
 31
0.0
  0
LINE
  5
C146
  8
0
 10
4766.6790741572467596
 20
219.8035605565420951
 30
0.0
 11
4766.6722984200168867
 21
219.8035607192038015
 31
0.0
  0
LINE
  5
C147
  8
0
 10
4766.662258664703586
 20
219.8035607192238956
 30
0.0
 11
4766.6607825058590606
 21
219.7799386719597976
 31
0.0
  0
LINE
  5
C148
  8
0
 10
4766.6607825058590606
 20
219.7799386719597976
 30
0.0
 11
4766.6666121564921923
 21
219.7799386719593997
 31
0.0
  0
LINE
  5
C149
  8
0
 10
4766.6666121564921923
 20
219.7799386719593997
 30
0.0
 11
4766.6680963997569052
 21
219.8035607192051941
 31
0.0
  0
LINE
  5
C14A
  8
0
 10
4766.6680963997569052
 20
219.8035607192051941
 30
0.0
 11
4766.6622586647026765
 21
219.8035607192034036
 31
0.0
  0
LINE
  5
C14B
  8
0
 10
4766.6537480474771655
 20
219.8035607192238956
 30
0.0
 11
4766.6522835181749542
 21
219.7799386720238886
 31
0.0
  0
LINE
  5
C14C
  8
0
 10
4766.6522835181749542
 20
219.7799386720238886
 30
0.0
 11
4766.6572018667184238
 21
219.779938671958206
 31
0.0
  0
LINE
  5
C14D
  8
0
 10
4766.6572018667184238
 20
219.779938671958206
 30
0.0
 11
4766.6586731034758486
 21
219.8035607192238956
 31
0.0
  0
LINE
  5
C14E
  8
0
 10
4766.6586731034758486
 20
219.8035607192238956
 30
0.0
 11
4766.6537480474771655
 21
219.8035607192238956
 31
0.0
  0
LINE
  5
C14F
  8
0
 10
4766.6467306118447596
 20
219.8035607192238956
 30
0.0
 11
4766.6452755348373103
 21
219.7799386719624977
 31
0.0
  0
LINE
  5
C150
  8
0
 10
4766.6452755348373103
 20
219.7799386719624977
 30
0.0
 11
4766.6493031628224344
 21
219.7799386719605081
 31
0.0
  0
LINE
  5
C151
  8
0
 10
4766.6493031628224344
 20
219.7799386719605081
 30
0.0
 11
4766.6507636572741831
 21
219.8035607192045973
 31
0.0
  0
LINE
  5
C152
  8
0
 10
4766.6507636572741831
 20
219.8035607192045973
 30
0.0
 11
4766.6467306118747729
 21
219.8035607192238956
 31
0.0
  0
LINE
  5
C153
  8
0
 10
4766.6411775539763767
 20
219.8035607192238956
 30
0.0
 11
4766.6397298707761365
 21
219.7799386720238886
 31
0.0
  0
LINE
  5
C154
  8
0
 10
4766.6397298707761365
 20
219.7799386720238886
 30
0.0
 11
4766.6428831731282116
 21
219.7799386720238886
 31
0.0
  0
LINE
  5
C155
  8
0
 10
4766.6428831731282116
 20
219.7799386720238886
 30
0.0
 11
4766.644335051233611
 21
219.8035607192036025
 31
0.0
  0
LINE
  5
C156
  8
0
 10
4766.644335051233611
 20
219.8035607192036025
 30
0.0
 11
4766.6411775533906621
 21
219.8035607096755086
 31
0.0
  0
LINE
  5
C157
  8
0
 10
4766.6370666046750557
 20
219.8035607192238956
 30
0.0
 11
4766.6356243470609115
 21
219.7799386719597123
 31
0.0
  0
LINE
  5
C158
  8
0
 10
4766.6356243470609115
 20
219.7799386719597123
 30
0.0
 11
4766.6379158792760791
 21
219.7799386720238886
 31
0.0
  0
LINE
  5
C159
  8
0
 10
4766.6379158792760791
 20
219.7799386720238886
 30
0.0
 11
4766.6393611601761222
 21
219.8035607192238956
 31
0.0
  0
LINE
  5
C15A
  8
0
 10
4766.6393611601761222
 20
219.8035607192238956
 30
0.0
 11
4766.6370666042948869
 21
219.8035607129828009
 31
0.0
  0
LINE
  5
C15B
  8
0
 10
4766.634381568275785
 20
219.8035607192238956
 30
0.0
 11
4766.6329428323761022
 21
219.7799386720238886
 31
0.0
  0
LINE
  5
C15C
  8
0
 10
4766.6329428323761022
 20
219.7799386720238886
 30
0.0
 11
4766.6343815683749199
 21
219.7799386720238886
 31
0.0
  0
LINE
  5
C15D
  8
0
 10
4766.6343815683749199
 20
219.7799386720238886
 30
0.0
 11
4766.6358221917216724
 21
219.8035607192007888
 31
0.0
  0
LINE
  5
C15E
  8
0
 10
4766.6358221917216724
 20
219.8035607192007888
 30
0.0
 11
4766.6343815681202614
 21
219.8035607166659986
 31
0.0
  0
LINE
  5
C15F
  8
0
 10
4766.6331119977612616
 20
219.8035607192014993
 30
0.0
 11
4766.6316749210236594
 21
219.7799386719570123
 31
0.0
  0
LINE
  5
C160
  8
0
 10
4766.6316749210236594
 20
219.7799386719570123
 30
0.0
 11
4766.6322664311255721
 21
219.7799386720238886
 31
0.0
  0
LINE
  5
C161
  8
0
 10
4766.6322664311255721
 20
219.7799386720238886
 30
0.0
 11
4766.6337042814448068
 21
219.8035607192238956
 31
0.0
  0
LINE
  5
C162
  8
0
 10
4766.6337042814448068
 20
219.8035607192238956
 30
0.0
 11
4766.6331119977612616
 21
219.8035607192014993
 31
0.0
  0
LINE
  5
C163
  8
0
 10
4766.6755382360379372
 20
219.8429333909679997
 30
0.0
 11
4766.6740481184970122
 21
219.8193113437880015
 31
0.0
  0
LINE
  5
C164
  8
0
 10
4766.6740481184970122
 20
219.8193113437880015
 30
0.0
 11
4766.680814618196564
 21
219.8193113437880015
 31
0.0
  0
LINE
  5
C165
  8
0
 10
4766.680814618196564
 20
219.8193113437880015
 30
0.0
 11
4766.6823139732678101
 21
219.8429332283062081
 31
0.0
  0
LINE
  5
C166
  8
0
 10
4766.6823139732678101
 20
219.8429332283062081
 30
0.0
 11
4766.6755382360379372
 21
219.8429333909679997
 31
0.0
  0
LINE
  5
C167
  8
0
 10
4766.665498480723727
 20
219.8429333909880938
 30
0.0
 11
4766.6640223218792016
 21
219.8193113437239106
 31
0.0
  0
LINE
  5
C168
  8
0
 10
4766.6640223218792016
 20
219.8193113437239106
 30
0.0
 11
4766.6698519725132428
 21
219.8193113437235127
 31
0.0
  0
LINE
  5
C169
  8
0
 10
4766.6698519725132428
 20
219.8193113437235127
 30
0.0
 11
4766.6713362157779557
 21
219.8429333909693071
 31
0.0
  0
LINE
  5
C16A
  8
0
 10
4766.6713362157779557
 20
219.8429333909693071
 30
0.0
 11
4766.6654984807228175
 21
219.8429333909676018
 31
0.0
  0
LINE
  5
C16B
  8
0
 10
4766.6569878634973065
 20
219.8429333909880938
 30
0.0
 11
4766.6555233341960047
 21
219.8193113437880015
 31
0.0
  0
LINE
  5
C16C
  8
0
 10
4766.6555233341960047
 20
219.8193113437880015
 30
0.0
 11
4766.6604416827403838
 21
219.8193113437222905
 31
0.0
  0
LINE
  5
C16D
  8
0
 10
4766.6604416827403838
 20
219.8193113437222905
 30
0.0
 11
4766.6619129194968991
 21
219.8429333909880938
 31
0.0
  0
LINE
  5
C16E
  8
0
 10
4766.6619129194968991
 20
219.8429333909880938
 30
0.0
 11
4766.6569878634973065
 21
219.8429333909880938
 31
0.0
  0
LINE
  5
C16F
  8
0
 10
4766.6499704278667195
 20
219.8429333909880938
 30
0.0
 11
4766.6485153508574513
 21
219.8193113437266106
 31
0.0
  0
LINE
  5
C170
  8
0
 10
4766.6485153508574513
 20
219.8193113437266106
 30
0.0
 11
4766.6525429788425754
 21
219.8193113437245927
 31
0.0
  0
LINE
  5
C171
  8
0
 10
4766.6525429788425754
 20
219.8193113437245927
 30
0.0
 11
4766.6540034732961431
 21
219.8429333909687102
 31
0.0
  0
LINE
  5
C172
  8
0
 10
4766.6540034732961431
 20
219.8429333909687102
 30
0.0
 11
4766.6499704278967329
 21
219.8429333909880938
 31
0.0
  0
LINE
  5
C173
  8
0
 10
4766.6444173699974272
 20
219.8429333909880938
 30
0.0
 11
4766.642969686797187
 21
219.8193113437880015
 31
0.0
  0
LINE
  5
C174
  8
0
 10
4766.642969686797187
 20
219.8193113437880015
 30
0.0
 11
4766.6461229891501716
 21
219.8193113437880015
 31
0.0
  0
LINE
  5
C175
  8
0
 10
4766.6461229891501716
 20
219.8193113437880015
 30
0.0
 11
4766.647574867253752
 21
219.842933390967687
 31
0.0
  0
LINE
  5
C176
  8
0
 10
4766.647574867253752
 20
219.842933390967687
 30
0.0
 11
4766.6444173694117126
 21
219.8429333814395932
 31
0.0
  0
LINE
  5
C177
  8
0
 10
4766.6403064206961062
 20
219.8429333909880938
 30
0.0
 11
4766.6388641630810525
 21
219.8193113437237969
 31
0.0
  0
LINE
  5
C178
  8
0
 10
4766.6388641630810525
 20
219.8193113437237969
 30
0.0
 11
4766.6411556952971296
 21
219.8193113437880015
 31
0.0
  0
LINE
  5
C179
  8
0
 10
4766.6411556952971296
 20
219.8193113437880015
 30
0.0
 11
4766.6426009761962632
 21
219.8429333909880938
 31
0.0
  0
LINE
  5
C17A
  8
0
 10
4766.6426009761962632
 20
219.8429333909880938
 30
0.0
 11
4766.6403064203159374
 21
219.8429333847469138
 31
0.0
  0
LINE
  5
C17B
  8
0
 10
4766.6376213842968355
 20
219.8429333909880938
 30
0.0
 11
4766.6361826483962432
 21
219.8193113437880015
 31
0.0
  0
LINE
  5
C17C
  8
0
 10
4766.6361826483962432
 20
219.8193113437880015
 30
0.0
 11
4766.6376213843959704
 21
219.8193113437880015
 31
0.0
  0
LINE
  5
C17D
  8
0
 10
4766.6376213843959704
 20
219.8193113437880015
 30
0.0
 11
4766.6390620077427229
 21
219.8429333909649017
 31
0.0
  0
LINE
  5
C17E
  8
0
 10
4766.6390620077427229
 20
219.8429333909649017
 30
0.0
 11
4766.6376213841413119
 21
219.8429333884301116
 31
0.0
  0
LINE
  5
C17F
  8
0
 10
4766.6363518137832216
 20
219.8429333909656975
 30
0.0
 11
4766.6349147370447099
 21
219.8193113437210968
 31
0.0
  0
LINE
  5
C180
  8
0
 10
4766.6349147370447099
 20
219.8193113437210968
 30
0.0
 11
4766.6355062471466226
 21
219.8193113437880015
 31
0.0
  0
LINE
  5
C181
  8
0
 10
4766.6355062471466226
 20
219.8193113437880015
 30
0.0
 11
4766.6369440974658573
 21
219.8429333909880938
 31
0.0
  0
LINE
  5
C182
  8
0
 10
4766.6369440974658573
 20
219.8429333909880938
 30
0.0
 11
4766.6363518137832216
 21
219.8429333909656975
 31
0.0
  0
LINE
  5
C183
  8
0
 10
4766.6713380199917083
 20
219.7642576717803991
 30
0.0
 11
4766.6698479024489643
 21
219.7406356246004009
 31
0.0
  0
LINE
  5
C184
  8
0
 10
4766.6698479024489643
 20
219.7406356246004009
 30
0.0
 11
4766.6766144021494256
 21
219.7406356246004009
 31
0.0
  0
LINE
  5
C185
  8
0
 10
4766.6766144021494256
 20
219.7406356246004009
 30
0.0
 11
4766.6781137572206717
 21
219.7642575091186075
 31
0.0
  0
LINE
  5
C186
  8
0
 10
4766.6781137572206717
 20
219.7642575091186075
 30
0.0
 11
4766.6713380199917083
 21
219.7642576717803991
 31
0.0
  0
LINE
  5
C187
  8
0
 10
4766.6612982646784076
 20
219.7642576718004932
 30
0.0
 11
4766.6598221058320632
 21
219.7406356245363952
 31
0.0
  0
LINE
  5
C188
  8
0
 10
4766.6598221058320632
 20
219.7406356245363952
 30
0.0
 11
4766.6656517564661044
 21
219.7406356245359973
 31
0.0
  0
LINE
  5
C189
  8
0
 10
4766.6656517564661044
 20
219.7406356245359973
 30
0.0
 11
4766.6671359997326363
 21
219.7642576717817064
 31
0.0
  0
LINE
  5
C18A
  8
0
 10
4766.6671359997326363
 20
219.7642576717817064
 30
0.0
 11
4766.6612982646756791
 21
219.7642576717800011
 31
0.0
  0
LINE
  5
C18B
  8
0
 10
4766.6527876474501682
 20
219.7642576718004932
 30
0.0
 11
4766.6513231181497758
 21
219.7406356246004009
 31
0.0
  0
LINE
  5
C18C
  8
0
 10
4766.6513231181497758
 20
219.7406356246004009
 30
0.0
 11
4766.6562414666932455
 21
219.7406356245346899
 31
0.0
  0
LINE
  5
C18D
  8
0
 10
4766.6562414666932455
 20
219.7406356245346899
 30
0.0
 11
4766.6577127034506702
 21
219.7642576718004932
 31
0.0
  0
LINE
  5
C18E
  8
0
 10
4766.6577127034506702
 20
219.7642576718004932
 30
0.0
 11
4766.6527876474501682
 21
219.7642576718004932
 31
0.0
  0
LINE
  5
C18F
  8
0
 10
4766.6457702118214002
 20
219.7642576718004932
 30
0.0
 11
4766.6443151348112224
 21
219.7406356245390953
 31
0.0
  0
LINE
  5
C190
  8
0
 10
4766.6443151348112224
 20
219.7406356245390953
 30
0.0
 11
4766.6483427627963465
 21
219.7406356245369921
 31
0.0
  0
LINE
  5
C191
  8
0
 10
4766.6483427627963465
 20
219.7406356245369921
 30
0.0
 11
4766.6498032572490047
 21
219.7642576717811096
 31
0.0
  0
LINE
  5
C192
  8
0
 10
4766.6498032572490047
 20
219.7642576717811096
 30
0.0
 11
4766.6457702118514135
 21
219.7642576718004932
 31
0.0
  0
LINE
  5
C193
  8
0
 10
4766.6402171539502888
 20
219.7642576718004932
 30
0.0
 11
4766.6387694707500486
 21
219.7406356246004009
 31
0.0
  0
LINE
  5
C194
  8
0
 10
4766.6387694707500486
 20
219.7406356246004009
 30
0.0
 11
4766.6419227731030333
 21
219.7406356246004009
 31
0.0
  0
LINE
  5
C195
  8
0
 10
4766.6419227731030333
 20
219.7406356246004009
 30
0.0
 11
4766.6433746512084326
 21
219.7642576717800864
 31
0.0
  0
LINE
  5
C196
  8
0
 10
4766.6433746512084326
 20
219.7642576717800864
 30
0.0
 11
4766.6402171533645742
 21
219.7642576622519925
 31
0.0
  0
LINE
  5
C197
  8
0
 10
4766.6361062046489678
 20
219.7642576718004932
 30
0.0
 11
4766.6346639470339142
 21
219.7406356245363099
 31
0.0
  0
LINE
  5
C198
  8
0
 10
4766.6346639470339142
 20
219.7406356245363099
 30
0.0
 11
4766.6369554792499912
 21
219.7406356246004009
 31
0.0
  0
LINE
  5
C199
  8
0
 10
4766.6369554792499912
 20
219.7406356246004009
 30
0.0
 11
4766.6384007601491248
 21
219.7642576718004932
 31
0.0
  0
LINE
  5
C19A
  8
0
 10
4766.6384007601491248
 20
219.7642576718004932
 30
0.0
 11
4766.636106204268799
 21
219.7642576655593132
 31
0.0
  0
LINE
  5
C19B
  8
0
 10
4766.6334211682496971
 20
219.7642576718004932
 30
0.0
 11
4766.6319824323491048
 21
219.7406356246004009
 31
0.0
  0
LINE
  5
C19C
  8
0
 10
4766.6319824323491048
 20
219.7406356246004009
 30
0.0
 11
4766.633421168348832
 21
219.7406356246004009
 31
0.0
  0
LINE
  5
C19D
  8
0
 10
4766.633421168348832
 20
219.7406356246004009
 30
0.0
 11
4766.6348617916974035
 21
219.7642576717773011
 31
0.0
  0
LINE
  5
C19E
  8
0
 10
4766.6348617916974035
 20
219.7642576717773011
 30
0.0
 11
4766.633421168093264
 21
219.7642576692425962
 31
0.0
  0
LINE
  5
C19F
  8
0
 10
4766.6321515977351737
 20
219.7642576717780969
 30
0.0
 11
4766.6307145209975715
 21
219.7406356245336099
 31
0.0
  0
LINE
  5
C1A0
  8
0
 10
4766.6307145209975715
 20
219.7406356245336099
 30
0.0
 11
4766.6313060311003937
 21
219.7406356246004009
 31
0.0
  0
LINE
  5
C1A1
  8
0
 10
4766.6313060311003937
 20
219.7406356246004009
 30
0.0
 11
4766.632743881418719
 21
219.7642576718004932
 31
0.0
  0
LINE
  5
C1A2
  8
0
 10
4766.632743881418719
 20
219.7642576718004932
 30
0.0
 11
4766.6321515977351737
 21
219.7642576717780969
 31
0.0
  0
LINE
  5
C1A3
  8
0
 10
4766.6709835018764352
 20
219.8823008767238889
 30
0.0
 11
4766.6677469799342362
 21
219.8586788294238943
 31
0.0
  0
LINE
  5
C1A4
  8
0
 10
4766.6677469799342362
 20
219.8586788294238943
 30
0.0
 11
4766.6736149708749508
 21
219.8586788294238943
 31
0.0
  0
LINE
  5
C1A5
  8
0
 10
4766.6736149708749508
 20
219.8586788294238943
 30
0.0
 11
4766.6768694829761444
 21
219.8823008767238889
 31
0.0
  0
LINE
  5
C1A6
  8
0
 10
4766.6768694829761444
 20
219.8823008767238889
 30
0.0
 11
4766.6709835009960443
 21
219.8823008703000994
 31
0.0
  0
LINE
  5
C1A7
  8
0
 10
4766.6673685710748032
 20
219.8823008767238889
 30
0.0
 11
4766.6641429998362582
 21
219.8586788294238943
 31
0.0
  0
LINE
  5
C1A8
  8
0
 10
4766.6641429998362582
 20
219.8586788294238943
 30
0.0
 11
4766.6591928449761326
 21
219.8586788294238943
 31
0.0
  0
LINE
  5
C1A9
  8
0
 10
4766.6591928449761326
 20
219.8586788294238943
 30
0.0
 11
4766.6624034957503682
 21
219.8823008766838996
 31
0.0
  0
LINE
  5
C1AA
  8
0
 10
4766.6624034957503682
 20
219.8823008766838996
 30
0.0
 11
4766.6673685710748032
 21
219.8823008767238889
 31
0.0
  0
LINE
  5
C1AB
  8
0
 10
4766.6593950347287318
 20
219.8823008767242015
 30
0.0
 11
4766.6561933579232573
 21
219.8586788294238943
 31
0.0
  0
LINE
  5
C1AC
  8
0
 10
4766.6561933579232573
 20
219.8586788294238943
 30
0.0
 11
4766.6521400437759439
 21
219.8586788294238943
 31
0.0
  0
LINE
  5
C1AD
  8
0
 10
4766.6521400437759439
 20
219.8586788294238943
 30
0.0
 11
4766.6553296733764
 21
219.8823008767238889
 31
0.0
  0
LINE
  5
C1AE
  8
0
 10
4766.6553296733764
 20
219.8823008767238889
 30
0.0
 11
4766.6593950347287318
 21
219.8823008767242015
 31
0.0
  0
LINE
  5
C1AF
  8
0
 10
4766.6529150322758142
 20
219.8823008767238889
 30
0.0
 11
4766.6497325155523868
 21
219.8586788294389862
 31
0.0
  0
LINE
  5
C1B0
  8
0
 10
4766.6497325155523868
 20
219.8586788294389862
 30
0.0
 11
4766.6465593250759412
 21
219.8586788294238943
 31
0.0
  0
LINE
  5
C1B1
  8
0
 10
4766.6465593250759412
 20
219.8586788294238943
 30
0.0
 11
4766.6497325155778526
 21
219.882300876679011
 31
0.0
  0
LINE
  5
C1B2
  8
0
 10
4766.6497325155778526
 20
219.882300876679011
 30
0.0
 11
4766.6529150323640351
 21
219.8823008767238889
 31
0.0
  0
LINE
  5
C1B3
  8
0
 10
4766.6479017950487105
 20
219.8823008767238889
 30
0.0
 11
4766.6447339449759966
 21
219.8586788294238943
 31
0.0
  0
LINE
  5
C1B4
  8
0
 10
4766.6447339449759966
 20
219.8586788294238943
 30
0.0
 11
4766.6424280804367299
 21
219.8586788294238943
 31
0.0
  0
LINE
  5
C1B5
  8
0
 10
4766.6424280804367299
 20
219.8586788294238943
 30
0.0
 11
4766.6455892102658254
 21
219.8823008766823932
 31
0.0
  0
LINE
  5
C1B6
  8
0
 10
4766.6455892102658254
 20
219.8823008766823932
 30
0.0
 11
4766.6479017950487105
 21
219.8823008767238889
 31
0.0
  0
LINE
  5
C1B7
  8
0
 10
4766.6443350512572579
 20
219.8823008766781868
 30
0.0
 11
4766.6411775539763767
 21
219.8586788294238943
 31
0.0
  0
LINE
  5
C1B8
  8
0
 10
4766.6411775539763767
 20
219.8586788294238943
 30
0.0
 11
4766.6397298707761365
 21
219.8586788294238943
 31
0.0
  0
LINE
  5
C1B9
  8
0
 10
4766.6397298707761365
 20
219.8586788294238943
 30
0.0
 11
4766.6428831730763704
 21
219.8823008767238889
 31
0.0
  0
LINE
  5
C1BA
  8
0
 10
4766.6428831730763704
 20
219.8823008767238889
 30
0.0
 11
4766.6443350512572579
 21
219.8823008766781868
 31
0.0
  0
LINE
  5
C1BB
  8
0
 10
4766.6422006052926008
 20
219.8823008767238889
 30
0.0
 11
4766.6390492713517233
 21
219.8586788294433916
 31
0.0
  0
LINE
  5
C1BC
  8
0
 10
4766.6390492713517233
 20
219.8586788294433916
 30
0.0
 11
4766.638454094168992
 21
219.8586788294348935
 31
0.0
  0
LINE
  5
C1BD
  8
0
 10
4766.638454094168992
 20
219.8586788294348935
 30
0.0
 11
4766.6416456591759925
 21
219.8823008767238889
 31
0.0
  0
LINE
  5
C1BE
  8
0
 10
4766.6416456591759925
 20
219.8823008767238889
 30
0.0
 11
4766.6422006052926008
 21
219.8823008767238889
 31
0.0
  0
LINE
  5
C1BF
  8
0
 10
4766.6775453472673689
 20
219.9215147542936108
 30
0.0
 11
4766.6734710509517754
 21
219.8980489081806979
 31
0.0
  0
LINE
  5
C1C0
  8
0
 10
4766.6734710509517754
 20
219.8980489081806979
 30
0.0
 11
4766.6793390418952185
 21
219.8980489081806979
 31
0.0
  0
LINE
  5
C1C1
  8
0
 10
4766.6793390418952185
 20
219.8980489081806979
 30
0.0
 11
4766.683466736139053
 21
219.9215072468267067
 31
0.0
  0
LINE
  5
C1C2
  8
0
 10
4766.683466736139053
 20
219.9215072468267067
 30
0.0
 11
4766.6775453472673689
 21
219.9215147542936108
 31
0.0
  0
LINE
  5
C1C3
  8
0
 10
4766.6739370434970624
 20
219.9216709554164879
 30
0.0
 11
4766.669867070854707
 21
219.8980489081806979
 31
0.0
  0
LINE
  5
C1C4
  8
0
 10
4766.669867070854707
 20
219.8980489081806979
 30
0.0
 11
4766.6649169159945814
 21
219.8980489081806979
 31
0.0
  0
LINE
  5
C1C5
  8
0
 10
4766.6649169159945814
 20
219.8980489081806979
 30
0.0
 11
4766.6681275667688169
 21
219.9216709554407032
 31
0.0
  0
LINE
  5
C1C6
  8
0
 10
4766.6689413049680297
 20
219.921670955423906
 30
0.0
 11
4766.6739370434970624
 21
219.9216709554164879
 31
0.0
  0
LINE
  5
C1C7
  8
0
 10
4766.6659144037230362
 20
219.9216709554272882
 30
0.0
 11
4766.6619174289426155
 21
219.8980489081806979
 31
0.0
  0
LINE
  5
C1C8
  8
0
 10
4766.6619174289426155
 20
219.8980489081806979
 30
0.0
 11
4766.6578641147962117
 21
219.8980489081806979
 31
0.0
  0
LINE
  5
C1C9
  8
0
 10
4766.6578641147962117
 20
219.8980489081806979
 30
0.0
 11
4766.661824289040851
 21
219.9216709554721945
 31
0.0
  0
LINE
  5
C1CA
  8
0
 10
4766.661824289040851
 20
219.9216709554721945
 30
0.0
 11
4766.6659144037230362
 21
219.9216709554272882
 31
0.0
  0
LINE
  5
C1CB
  8
0
 10
4766.6593950345868507
 20
219.921670955423906
 30
0.0
 11
4766.6554565865708355
 21
219.8980489081959036
 31
0.0
  0
LINE
  5
C1CC
  8
0
 10
4766.6554565865708355
 20
219.8980489081959036
 30
0.0
 11
4766.6522833960952994
 21
219.8980489081806979
 31
0.0
  0
LINE
  5
C1CD
  8
0
 10
4766.6522833960952994
 20
219.8980489081806979
 30
0.0
 11
4766.6561933578759636
 21
219.921670955423906
 31
0.0
  0
LINE
  5
C1CE
  8
0
 10
4766.6561933578759636
 20
219.921670955423906
 30
0.0
 11
4766.6593950346750717
 21
219.921670955423906
 31
0.0
  0
LINE
  5
C1CF
  8
0
 10
4766.6543516672072656
 20
219.9216709554937097
 30
0.0
 11
4766.6504580159953548
 21
219.8980489081806979
 31
0.0
  0
LINE
  5
C1D0
  8
0
 10
4766.6504580159953548
 20
219.8980489081806979
 30
0.0
 11
4766.6481521514560882
 21
219.8980489081806979
 31
0.0
  0
LINE
  5
C1D1
  8
0
 10
4766.6481521514560882
 20
219.8980489081806979
 30
0.0
 11
4766.6520252779837392
 21
219.9216709554225986
 31
0.0
  0
LINE
  5
C1D2
  8
0
 10
4766.6520252779837392
 20
219.9216709554225986
 30
0.0
 11
4766.6543516672072656
 21
219.9216709554937097
 31
0.0
  0
LINE
  5
C1D3
  8
0
 10
4766.650763657276002
 20
219.921670955423906
 30
0.0
 11
4766.6469016249939159
 21
219.8980489081806979
 31
0.0
  0
LINE
  5
C1D4
  8
0
 10
4766.6469016249939159
 20
219.8980489081806979
 30
0.0
 11
4766.6454539417936758
 21
219.8980489081806979
 31
0.0
  0
LINE
  5
C1D5
  8
0
 10
4766.6454539417936758
 20
219.8980489081806979
 30
0.0
 11
4766.6493031627751407
 21
219.921670955423906
 31
0.0
  0
LINE
  5
C1D6
  8
0
 10
4766.6493031627751407
 20
219.921670955423906
 30
0.0
 11
4766.650763657276002
 21
219.921670955423906
 31
0.0
  0
LINE
  5
C1D7
  8
0
 10
4766.6486165521746443
 20
219.921670955423906
 30
0.0
 11
4766.644773342371991
 21
219.8980489082001952
 31
0.0
  0
LINE
  5
C1D8
  8
0
 10
4766.644773342371991
 20
219.8980489082001952
 30
0.0
 11
4766.6441781651892597
 21
219.8980489081916971
 31
0.0
  0
LINE
  5
C1D9
  8
0
 10
4766.6441781651892597
 20
219.8980489081916971
 30
0.0
 11
4766.6480583147758807
 21
219.921670955423906
 31
0.0
  0
LINE
  5
C1DA
  8
0
 10
4766.6480583147758807
 20
219.921670955423906
 30
0.0
 11
4766.6486165521746443
 21
219.921670955423906
 31
0.0
  0
LINE
  5
C1DB
  8
0
 10
4766.6820209486650128
 20
219.9610410341545901
 30
0.0
 11
4766.6769869500512868
 21
219.9374189869108136
 31
0.0
  0
LINE
  5
C1DC
  8
0
 10
4766.6769869500512868
 20
219.9374189869108136
 30
0.0
 11
4766.6719768449756884
 21
219.9374189869238876
 31
0.0
  0
LINE
  5
C1DD
  8
0
 10
4766.6719768449756884
 20
219.9374189869238876
 30
0.0
 11
4766.6769869499757988
 21
219.9610410342239106
 31
0.0
  0
LINE
  5
C1DE
  8
0
 10
4766.6769869499757988
 20
219.9610410342239106
 30
0.0
 11
4766.6820209486650128
 21
219.9610410341545901
 31
0.0
  0
LINE
  5
C1DF
  8
0
 10
4766.6739370433760996
 20
219.9610410342239106
 30
0.0
 11
4766.6689413049489303
 21
219.9374189869224097
 31
0.0
  0
LINE
  5
C1E0
  8
0
 10
4766.6689413049489303
 20
219.9374189869224097
 30
0.0
 11
4766.6648395948759571
 21
219.9374189869238876
 31
0.0
  0
LINE
  5
C1E1
  8
0
 10
4766.6648395948759571
 20
219.9374189869238876
 30
0.0
 11
4766.6698160516652933
 21
219.961041034171501
 31
0.0
  0
LINE
  5
C1E2
  8
0
 10
4766.6698160516652933
 20
219.961041034171501
 30
0.0
 11
4766.6739370420027626
 21
219.9610410277321932
 31
0.0
  0
LINE
  5
C1E3
  8
0
 10
4766.6673685711248254
 20
219.961041034160786
 30
0.0
 11
4766.6624034957567346
 21
219.9374189869180043
 31
0.0
  0
LINE
  5
C1E4
  8
0
 10
4766.6624034957567346
 20
219.9374189869180043
 30
0.0
 11
4766.6591928449761326
 21
219.9374189869238876
 31
0.0
  0
LINE
  5
C1E5
  8
0
 10
4766.6591928449761326
 20
219.9374189869238876
 30
0.0
 11
4766.6641429998298918
 21
219.9610410341551017
 31
0.0
  0
LINE
  5
C1E6
  8
0
 10
4766.6641429998298918
 20
219.9610410341551017
 30
0.0
 11
4766.6673685711248254
 21
219.961041034160786
 31
0.0
  0
LINE
  5
C1E7
  8
0
 10
4766.6622876292976798
 20
219.9610410342239106
 30
0.0
 11
4766.6573460165764118
 21
219.9374189869238876
 31
0.0
  0
LINE
  5
C1E8
  8
0
 10
4766.6573460165764118
 20
219.9374189869238876
 30
0.0
 11
4766.6550131625026552
 21
219.9374189869180896
 31
0.0
  0
LINE
  5
C1E9
  8
0
 10
4766.6550131625026552
 20
219.9374189869180896
 30
0.0
 11
4766.6599440274549124
 21
219.9610410341605871
 31
0.0
  0
LINE
  5
C1EA
  8
0
 10
4766.6599440274549124
 20
219.9610410341605871
 30
0.0
 11
4766.6622876292976798
 21
219.9610410342239106
 31
0.0
  0
LINE
  5
C1EB
  8
0
 10
4766.6586731035486082
 20
219.9610410341566933
 30
0.0
 11
4766.6537480475972188
 21
219.9374189869137979
 31
0.0
  0
LINE
  5
C1EC
  8
0
 10
4766.6537480475972188
 20
219.9374189869137979
 30
0.0
 11
4766.6522835182286144
 21
219.9374189869238876
 31
0.0
  0
LINE
  5
C1ED
  8
0
 10
4766.6522835182286144
 20
219.9374189869238876
 30
0.0
 11
4766.6572018666411168
 21
219.9610410341718136
 31
0.0
  0
LINE
  5
C1EE
  8
0
 10
4766.6572018666411168
 20
219.9610410341718136
 30
0.0
 11
4766.6586731035486082
 21
219.9610410341566933
 31
0.0
  0
LINE
  5
C1EF
  8
0
 10
4766.6565102159620437
 20
219.9610410342239106
 30
0.0
 11
4766.6515950145603711
 21
219.9374189869238876
 31
0.0
  0
LINE
  5
C1F0
  8
0
 10
4766.6515950145603711
 20
219.9374189869238876
 30
0.0
 11
4766.6509929334451954
 21
219.9374189869126042
 31
0.0
  0
LINE
  5
C1F1
  8
0
 10
4766.6509929334451954
 20
219.9374189869126042
 30
0.0
 11
4766.6559053861428765
 21
219.9610410341543059
 31
0.0
  0
LINE
  5
C1F2
  8
0
 10
4766.6559053861428765
 20
219.9610410341543059
 30
0.0
 11
4766.6565102159620437
 21
219.9610410342239106
 31
0.0
  0
LINE
  5
C1F3
  8
0
 10
4766.6834974422790765
 20
220.0004111129080968
 30
0.0
 11
4766.6775744813348865
 21
219.9767890656632972
 31
0.0
  0
LINE
  5
C1F4
  8
0
 10
4766.6775744813348865
 20
219.9767890656632972
 30
0.0
 11
4766.6734393361648472
 21
219.9767890656632972
 31
0.0
  0
LINE
  5
C1F5
  8
0
 10
4766.6734393361648472
 20
219.9767890656632972
 30
0.0
 11
4766.6793390418706622
 21
220.0004111129238993
 31
0.0
  0
LINE
  5
C1F6
  8
0
 10
4766.6793390418706622
 20
220.0004111129238993
 30
0.0
 11
4766.6834974422790765
 21
220.0004111129080968
 31
0.0
  0
LINE
  5
C1F7
  8
0
 10
4766.6768694829888773
 20
220.0004111129019009
 30
0.0
 11
4766.6709835019428283
 21
219.9767890656576128
 31
0.0
  0
LINE
  5
C1F8
  8
0
 10
4766.6709835019428283
 20
219.9767890656576128
 30
0.0
 11
4766.6677469799606115
 21
219.9767890656517011
 31
0.0
  0
LINE
  5
C1F9
  8
0
 10
4766.6677469799606115
 20
219.9767890656517011
 30
0.0
 11
4766.6736149709067831
 21
220.0004111128945965
 31
0.0
  0
LINE
  5
C1FA
  8
0
 10
4766.6736149709067831
 20
220.0004111128945965
 30
0.0
 11
4766.6768694829888773
 21
220.0004111129019009
 31
0.0
  0
LINE
  5
C1FB
  8
0
 10
4766.6717430324815723
 20
220.0004111089168077
 30
0.0
 11
4766.6658853405651826
 21
219.9767890656711984
 31
0.0
  0
LINE
  5
C1FC
  8
0
 10
4766.6658853405651826
 20
219.9767890656711984
 30
0.0
 11
4766.6635338514161049
 21
219.9767890656569875
 31
0.0
  0
LINE
  5
C1FD
  8
0
 10
4766.6635338514161049
 20
219.9767890656569875
 30
0.0
 11
4766.6693785882762313
 21
220.000411112923814
 31
0.0
  0
LINE
  5
C1FE
  8
0
 10
4766.6693785882762313
 20
220.000411112923814
 30
0.0
 11
4766.6717430324815723
 21
220.0004111089168077
 31
0.0
  0
LINE
  5
C1FF
  8
0
 10
4766.6680963969292861
 20
220.0004111018101867
 30
0.0
 11
4766.6622586647263233
 21
219.9767890656519
 31
0.0
  0
LINE
  5
C200
  8
0
 10
4766.6622586647263233
 20
219.9767890656519
 30
0.0
 11
4766.6607825058135859
 21
219.9767890656681004
 31
0.0
  0
LINE
  5
C201
  8
0
 10
4766.6607825058135859
 20
219.9767890656681004
 30
0.0
 11
4766.666612156465817
 21
220.0004111129127864
 31
0.0
  0
LINE
  5
C202
  8
0
 10
4766.666612156465817
 20
220.0004111129127864
 30
0.0
 11
4766.6680963969292861
 21
220.0004111018101867
 31
0.0
  0
LINE
  5
C203
  8
0
 10
4766.6659144037130318
 20
220.0004111129096884
 30
0.0
 11
4766.6600885458910852
 21
219.9767890656655993
 31
0.0
  0
LINE
  5
C204
  8
0
 10
4766.6600885458910852
 20
219.9767890656655993
 30
0.0
 11
4766.6594816991637344
 21
219.9767890656499958
 31
0.0
  0
LINE
  5
C205
  8
0
 10
4766.6594816991637344
 20
219.9767890656499958
 30
0.0
 11
4766.6653042443249433
 21
220.0004111128943123
 31
0.0
  0
LINE
  5
C206
  8
0
 10
4766.6653042443249433
 20
220.0004111128943123
 30
0.0
 11
4766.6659144037130318
 21
220.0004111129096884
 31
0.0
  0
LINE
  5
C207
  8
0
 10
4766.6827589358308614
 20
220.0397811916575108
 30
0.0
 11
4766.6759595562480172
 21
220.0161591444120859
 31
0.0
  0
LINE
  5
C208
  8
0
 10
4766.6759595562480172
 20
220.0161591444120859
 30
0.0
 11
4766.6735856964151026
 21
220.016159144396795
 31
0.0
  0
LINE
  5
C209
  8
0
 10
4766.6735856964151026
 20
220.016159144396795
 30
0.0
 11
4766.6803697355089753
 21
220.0397811916411115
 31
0.0
  0
LINE
  5
C20A
  8
0
 10
4766.6803697355089753
 20
220.0397811916411115
 30
0.0
 11
4766.6827589358308614
 21
220.0397811916575108
 31
0.0
  0
LINE
  5
C20B
  8
0
 10
4766.6790741694321696
 20
220.039781191634205
 30
0.0
 11
4766.6722984199750499
 21
220.0161591444239093
 31
0.0
  0
LINE
  5
C20C
  8
0
 10
4766.6722984199750499
 20
220.0161591444239093
 30
0.0
 11
4766.6708083025287124
 21
220.0161591444087037
 31
0.0
  0
LINE
  5
C20D
  8
0
 10
4766.6708083025287124
 20
220.0161591444087037
 30
0.0
 11
4766.6775744813176061
 21
220.0397811916533897
 31
0.0
  0
LINE
  5
C20E
  8
0
 10
4766.6775744813176061
 20
220.0397811916533897
 30
0.0
 11
4766.6790741694321696
 21
220.039781191634205
 31
0.0
  0
LINE
  5
C20F
  8
0
 10
4766.6768694829734159
 20
220.0397811917239039
 30
0.0
 11
4766.670107793976058
 21
220.0161591444239093
 31
0.0
  0
LINE
  5
C210
  8
0
 10
4766.670107793976058
 20
220.0161591444239093
 30
0.0
 11
4766.6694952276930053
 21
220.0161591443886948
 31
0.0
  0
LINE
  5
C211
  8
0
 10
4766.6694952276930053
 20
220.0161591443886948
 30
0.0
 11
4766.6762529954266938
 21
220.0397811916317892
 31
0.0
  0
LINE
  5
C212
  8
0
 10
4766.6762529954266938
 20
220.0397811916317892
 30
0.0
 11
4766.6768694829734159
 21
220.0397811917239039
 31
0.0
  0
ARC
  5
C213
  8
0
 10
4768.2213633136107092
 20
219.6211715295287092
 30
0.0
 40
1.598181126050561
 50
160.7254547038506018
 51
163.7370150678266896
  0
LINE
  5
C214
  8
0
 10
4766.6871311484746911
 20
220.0687366925239132
 30
0.0
 11
4766.6853922422751566
 21
220.0693087507239056
 31
0.0
  0
LINE
  5
C215
  8
0
 10
4766.6853922422751566
 20
220.0693087507239056
 30
0.0
 11
4766.6810770806760047
 21
220.055529223123898
 31
0.0
  0
LINE
  5
C216
  8
0
 10
4766.6810770806760047
 20
220.055529223123898
 30
0.0
 11
4766.6816963983847018
 21
220.055529223123898
 31
0.0
  0
LINE
  5
C217
  8
0
 10
4766.6816963983847018
 20
220.055529223123898
 30
0.0
 11
4766.6853922422751566
 21
220.067051637523889
 31
0.0
  0
LINE
  5
C218
  8
0
 10
4766.6853922422751566
 20
220.067051637523889
 30
0.0
 11
4766.6853922422751566
 21
220.0648707143301976
 31
0.0
  0
LINE
  5
C219
  8
0
 10
4766.6853922422751566
 20
220.0648707143301976
 30
0.0
 11
4766.6824046372748853
 21
220.055529223123898
 31
0.0
  0
LINE
  5
C21A
  8
0
 10
4766.6824046372748853
 20
220.055529223123898
 30
0.0
 11
4766.6839112330981152
 21
220.055529223123898
 31
0.0
  0
LINE
  5
C21B
  8
0
 10
4766.6839112330981152
 20
220.055529223123898
 30
0.0
 11
4766.6853922422751566
 21
220.0601891646232957
 31
0.0
  0
LINE
  5
C21C
  8
0
 10
4766.6853922422751566
 20
220.0601891646232957
 30
0.0
 11
4766.6853922422751566
 21
220.0397811917239039
 31
0.0
  0
LINE
  5
C21D
  8
0
 10
4766.6853922422751566
 20
220.0397811917239039
 30
0.0
 11
4766.6846505514758974
 21
220.0397811917239039
 31
0.0
  0
LINE
  5
C21E
  8
0
 10
4766.6846505514758974
 20
220.0397811917239039
 30
0.0
 11
4766.6778389772680384
 21
220.0161591443896896
 31
0.0
  0
LINE
  5
C21F
  8
0
 10
4766.6778389772680384
 20
220.0161591443896896
 30
0.0
 11
4766.6811065638030414
 21
220.0161591443896896
 31
0.0
  0
LINE
  5
C220
  8
0
 10
4766.6811065638030414
 20
220.0161591443896896
 30
0.0
 11
4766.6853922422751566
 21
220.0312060422288027
 31
0.0
  0
LINE
  5
C221
  8
0
 10
4766.6853922422751566
 20
220.0312060422288027
 30
0.0
 11
4766.6853922422687901
 21
220.022585657618805
 31
0.0
  0
LINE
  5
C222
  8
0
 10
4766.6853922422687901
 20
220.022585657618805
 30
0.0
 11
4766.6835860979763311
 21
220.0161591444239093
 31
0.0
  0
LINE
  5
C223
  8
0
 10
4766.6835860979763311
 20
220.0161591444239093
 30
0.0
 11
4766.6853922422751566
 21
220.0161591444239093
 31
0.0
  0
LINE
  5
C224
  8
0
 10
4766.6853922422751566
 20
220.0161591444239093
 30
0.0
 11
4766.6853922421641983
 21
219.99588148043469
 31
0.0
  0
LINE
  5
C225
  8
0
 10
4766.6853922421641983
 20
219.99588148043469
 30
0.0
 11
4766.6806349342314206
 21
219.9767890656588065
 31
0.0
  0
LINE
  5
C226
  8
0
 10
4766.6806349342314206
 20
219.9767890656588065
 30
0.0
 11
4766.6853922422751566
 21
219.9767890749238859
 31
0.0
  0
LINE
  5
C227
  8
0
 10
4766.6853922422751566
 20
219.9767890749238859
 30
0.0
 11
4766.6853922422751566
 21
219.9597332787238884
 31
0.0
  0
LINE
  5
C228
  8
0
 10
4766.6853922422751566
 20
219.9597332787238884
 30
0.0
 11
4766.6806349342377871
 21
219.9374189869170095
 31
0.0
  0
LINE
  5
C229
  8
0
 10
4766.6806349342377871
 20
219.9374189869170095
 30
0.0
 11
4766.6853922422751566
 21
219.9374189869170095
 31
0.0
  0
LINE
  5
C22A
  8
0
 10
4766.6853922422751566
 20
219.9374189869170095
 30
0.0
 11
4766.6853922422751566
 21
219.9086518296238921
 31
0.0
  0
LINE
  5
C22B
  8
0
 10
4766.6853922422751566
 20
219.9086518296238921
 30
0.0
 11
4766.6835860979763311
 21
219.8980489082238989
 31
0.0
  0
LINE
  5
C22C
  8
0
 10
4766.6835860979763311
 20
219.8980489082238989
 30
0.0
 11
4766.6853922686759688
 21
219.8980489082238989
 31
0.0
  0
LINE
  5
C22D
  8
0
 10
4766.6853922686759688
 20
219.8980489082238989
 30
0.0
 11
4766.6853922686759688
 21
219.8823008767238889
 31
0.0
  0
LINE
  5
C22E
  8
0
 10
4766.6853922686759688
 20
219.8823008767238889
 30
0.0
 11
4766.6811065638039508
 21
219.8823008766831038
 31
0.0
  0
LINE
  5
C22F
  8
0
 10
4766.6811065638039508
 20
219.8823008766831038
 30
0.0
 11
4766.6778389771761795
 21
219.8586788294238943
 31
0.0
  0
LINE
  5
C230
  8
0
 10
4766.6778389771761795
 20
219.8586788294238943
 30
0.0
 11
4766.6846504873246886
 21
219.8586783264790085
 31
0.0
  0
LINE
  5
C231
  8
0
 10
4766.6846504873246886
 20
219.8586783264790085
 30
0.0
 11
4766.6853922422751566
 21
219.8643623614661919
 31
0.0
  0
LINE
  5
C232
  8
0
 10
4766.6853922422751566
 20
219.8643623614661919
 30
0.0
 11
4766.6853922422751566
 21
219.8035607192238956
 31
0.0
  0
LINE
  5
C233
  8
0
 10
4766.6853922422751566
 20
219.8035607192238956
 30
0.0
 11
4766.6839112329762429
 21
219.8035607192238956
 31
0.0
  0
LINE
  5
C234
  8
0
 10
4766.6839112329762429
 20
219.8035607192238956
 30
0.0
 11
4766.6824046373130841
 21
219.779938671958007
 31
0.0
  0
LINE
  5
C235
  8
0
 10
4766.6824046373130841
 20
219.779938671958007
 30
0.0
 11
4766.6853922422751566
 21
219.779938671958007
 31
0.0
  0
LINE
  5
C236
  8
0
 10
4766.6853922422751566
 20
219.779938671958007
 30
0.0
 11
4766.6853922422751566
 21
219.7641906405239069
 31
0.0
  0
LINE
  5
C237
  8
0
 10
4766.6853922422751566
 20
219.7641906405239069
 30
0.0
 11
4766.6816963984592803
 21
219.7641906405239069
 31
0.0
  0
LINE
  5
C238
  8
0
 10
4766.6816963984592803
 20
219.7641906405239069
 30
0.0
 11
4766.6810770806760047
 21
219.7405685932239123
 31
0.0
  0
LINE
  5
C239
  8
0
 10
4766.6810770806760047
 20
219.7405685932239123
 30
0.0
 11
4766.6853922422751566
 21
219.7405685932239123
 31
0.0
  0
LINE
  5
C23A
  8
0
 10
4766.6853922422751566
 20
219.7405685932239123
 30
0.0
 11
4766.6853922422751566
 21
219.7248205617239023
 31
0.0
  0
ARC
  5
C23B
  8
0
 10
4766.7977021717942989
 20
220.0251810414831084
 30
0.0
 40
0.1043297934145001
 50
144.5043353844588978
 51
183.5434643696976877
  0
ARC
  5
C23C
  8
0
 10
4766.6143704064197664
 20
220.0776678278263034
 30
0.0
 40
0.0987228255083173
 50
323.3465157597544248
 51
4.7012839944003737
  0
ARC
  5
C23D
  8
0
 10
4766.7499381150882982
 20
219.7988674333078052
 30
0.0
 40
0.058183169508389
 50
141.6398150386569057
 51
212.2439405537236041
  0
ARC
  5
C23E
  8
0
 10
4766.6606354091227331
 20
219.8036384342792076
 30
0.0
 40
0.0537584991274777
 50
318.2265932948823206
 51
35.6571622974997666
  0
LINE
  5
C23F
  8
0
 10
4766.6722984200168867
 20
219.6618284357440132
 30
0.0
 11
4766.6708083024759617
 21
219.6854504829238977
 31
0.0
  0
LINE
  5
C240
  8
0
 10
4766.6708083024759617
 20
219.6854504829238977
 30
0.0
 11
4766.677574802176423
 21
219.6854504829238977
 31
0.0
  0
LINE
  5
C241
  8
0
 10
4766.677574802176423
 20
219.6854504829238977
 30
0.0
 11
4766.6790741572467596
 21
219.6618285984056911
 31
0.0
  0
LINE
  5
C242
  8
0
 10
4766.6790741572467596
 20
219.6618285984056911
 30
0.0
 11
4766.6722984200168867
 21
219.6618284357440132
 31
0.0
  0
LINE
  5
C243
  8
0
 10
4766.662258664703586
 20
219.6618284357238906
 30
0.0
 11
4766.6607825058590606
 21
219.6854504829879886
 31
0.0
  0
LINE
  5
C244
  8
0
 10
4766.6607825058590606
 20
219.6854504829879886
 30
0.0
 11
4766.6666121564921923
 21
219.6854504829883865
 31
0.0
  0
LINE
  5
C245
  8
0
 10
4766.6666121564921923
 20
219.6854504829883865
 30
0.0
 11
4766.6680963997569052
 21
219.6618284357425921
 31
0.0
  0
LINE
  5
C246
  8
0
 10
4766.6680963997569052
 20
219.6618284357425921
 30
0.0
 11
4766.6622586647026765
 21
219.6618284357444111
 31
0.0
  0
LINE
  5
C247
  8
0
 10
4766.6537480474771655
 20
219.6618284357238906
 30
0.0
 11
4766.6522835181749542
 21
219.6854504829238977
 31
0.0
  0
LINE
  5
C248
  8
0
 10
4766.6522835181749542
 20
219.6854504829238977
 30
0.0
 11
4766.6572018667184238
 21
219.6854504829896086
 31
0.0
  0
LINE
  5
C249
  8
0
 10
4766.6572018667184238
 20
219.6854504829896086
 30
0.0
 11
4766.6586731034758486
 21
219.6618284357238906
 31
0.0
  0
LINE
  5
C24A
  8
0
 10
4766.6586731034758486
 20
219.6618284357238906
 30
0.0
 11
4766.6537480474771655
 21
219.6618284357238906
 31
0.0
  0
LINE
  5
C24B
  8
0
 10
4766.6467306118447596
 20
219.6618284357238906
 30
0.0
 11
4766.6452755348373103
 21
219.6854504829852033
 31
0.0
  0
LINE
  5
C24C
  8
0
 10
4766.6452755348373103
 20
219.6854504829852033
 30
0.0
 11
4766.6493031628224344
 21
219.6854504829873065
 31
0.0
  0
LINE
  5
C24D
  8
0
 10
4766.6493031628224344
 20
219.6854504829873065
 30
0.0
 11
4766.6507636572741831
 21
219.6618284357431889
 31
0.0
  0
LINE
  5
C24E
  8
0
 10
4766.6507636572741831
 20
219.6618284357431889
 30
0.0
 11
4766.6467306118747729
 21
219.6618284357238906
 31
0.0
  0
LINE
  5
C24F
  8
0
 10
4766.6411775539763767
 20
219.6618284357238906
 30
0.0
 11
4766.6397298707761365
 21
219.6854504829238977
 31
0.0
  0
LINE
  5
C250
  8
0
 10
4766.6397298707761365
 20
219.6854504829238977
 30
0.0
 11
4766.6428831731282116
 21
219.6854504829238977
 31
0.0
  0
LINE
  5
C251
  8
0
 10
4766.6428831731282116
 20
219.6854504829238977
 30
0.0
 11
4766.644335051233611
 21
219.6618284357442121
 31
0.0
  0
LINE
  5
C252
  8
0
 10
4766.644335051233611
 20
219.6618284357442121
 30
0.0
 11
4766.6411775533906621
 21
219.6618284452723913
 31
0.0
  0
LINE
  5
C253
  8
0
 10
4766.6370666046750557
 20
219.6618284357238906
 30
0.0
 11
4766.6356243470609115
 21
219.6854504829881023
 31
0.0
  0
LINE
  5
C254
  8
0
 10
4766.6356243470609115
 20
219.6854504829881023
 30
0.0
 11
4766.6379158792760791
 21
219.6854504829238977
 31
0.0
  0
LINE
  5
C255
  8
0
 10
4766.6379158792760791
 20
219.6854504829238977
 30
0.0
 11
4766.6393611601761222
 21
219.6618284357238906
 31
0.0
  0
LINE
  5
C256
  8
0
 10
4766.6393611601761222
 20
219.6618284357238906
 30
0.0
 11
4766.6370666042948869
 21
219.6618284419650138
 31
0.0
  0
LINE
  5
C257
  8
0
 10
4766.634381568275785
 20
219.6618284357238906
 30
0.0
 11
4766.6329428323761022
 21
219.6854504829238977
 31
0.0
  0
LINE
  5
C258
  8
0
 10
4766.6329428323761022
 20
219.6854504829238977
 30
0.0
 11
4766.6343815683749199
 21
219.6854504829238977
 31
0.0
  0
LINE
  5
C259
  8
0
 10
4766.6343815683749199
 20
219.6854504829238977
 30
0.0
 11
4766.6358221917216724
 21
219.6618284357469975
 31
0.0
  0
LINE
  5
C25A
  8
0
 10
4766.6358221917216724
 20
219.6618284357469975
 30
0.0
 11
4766.6343815681202614
 21
219.6618284382817876
 31
0.0
  0
LINE
  5
C25B
  8
0
 10
4766.6331119977612616
 20
219.6618284357462016
 30
0.0
 11
4766.6316749210236594
 21
219.6854504829906887
 31
0.0
  0
LINE
  5
C25C
  8
0
 10
4766.6316749210236594
 20
219.6854504829906887
 30
0.0
 11
4766.6322664311255721
 21
219.6854504829238977
 31
0.0
  0
LINE
  5
C25D
  8
0
 10
4766.6322664311255721
 20
219.6854504829238977
 30
0.0
 11
4766.6337042814448068
 21
219.6618284357238906
 31
0.0
  0
LINE
  5
C25E
  8
0
 10
4766.6337042814448068
 20
219.6618284357238906
 30
0.0
 11
4766.6331119977612616
 21
219.6618284357462016
 31
0.0
  0
LINE
  5
C25F
  8
0
 10
4766.6755382360379372
 20
219.6224557639797865
 30
0.0
 11
4766.6740481184970122
 21
219.6460778111596994
 31
0.0
  0
LINE
  5
C260
  8
0
 10
4766.6740481184970122
 20
219.6460778111596994
 30
0.0
 11
4766.680814618196564
 21
219.6460778111596994
 31
0.0
  0
LINE
  5
C261
  8
0
 10
4766.680814618196564
 20
219.6460778111596994
 30
0.0
 11
4766.6823139732678101
 21
219.6224559266416065
 31
0.0
  0
LINE
  5
C262
  8
0
 10
4766.6823139732678101
 20
219.6224559266416065
 30
0.0
 11
4766.6755382360379372
 21
219.6224557639797865
 31
0.0
  0
LINE
  5
C263
  8
0
 10
4766.665498480723727
 20
219.6224557639598061
 30
0.0
 11
4766.6640223218792016
 21
219.6460778112239041
 31
0.0
  0
LINE
  5
C264
  8
0
 10
4766.6640223218792016
 20
219.6460778112239041
 30
0.0
 11
4766.6698519725132428
 21
219.646077811224302
 31
0.0
  0
LINE
  5
C265
  8
0
 10
4766.6698519725132428
 20
219.646077811224302
 30
0.0
 11
4766.6713362157779557
 21
219.6224557639785075
 31
0.0
  0
LINE
  5
C266
  8
0
 10
4766.6713362157779557
 20
219.6224557639785075
 30
0.0
 11
4766.6654984807228175
 21
219.6224557639802129
 31
0.0
  0
LINE
  5
C267
  8
0
 10
4766.6569878634973065
 20
219.6224557639598061
 30
0.0
 11
4766.6555233341960047
 21
219.6460778111596994
 31
0.0
  0
LINE
  5
C268
  8
0
 10
4766.6555233341960047
 20
219.6460778111596994
 30
0.0
 11
4766.6604416827403838
 21
219.6460778112254957
 31
0.0
  0
LINE
  5
C269
  8
0
 10
4766.6604416827403838
 20
219.6460778112254957
 30
0.0
 11
4766.6619129194968991
 21
219.6224557639598061
 31
0.0
  0
LINE
  5
C26A
  8
0
 10
4766.6619129194968991
 20
219.6224557639598061
 30
0.0
 11
4766.6569878634973065
 21
219.6224557639598061
 31
0.0
  0
LINE
  5
C26B
  8
0
 10
4766.6499704278667195
 20
219.6224557639598061
 30
0.0
 11
4766.6485153508574513
 21
219.6460778112210903
 31
0.0
  0
LINE
  5
C26C
  8
0
 10
4766.6485153508574513
 20
219.6460778112210903
 30
0.0
 11
4766.6525429788425754
 21
219.6460778112231935
 31
0.0
  0
LINE
  5
C26D
  8
0
 10
4766.6525429788425754
 20
219.6460778112231935
 30
0.0
 11
4766.6540034732961431
 21
219.6224557639791044
 31
0.0
  0
LINE
  5
C26E
  8
0
 10
4766.6540034732961431
 20
219.6224557639791044
 30
0.0
 11
4766.6499704278967329
 21
219.6224557639598061
 31
0.0
  0
LINE
  5
C26F
  8
0
 10
4766.6444173699974272
 20
219.6224557639598061
 30
0.0
 11
4766.642969686797187
 21
219.6460778111596994
 31
0.0
  0
LINE
  5
C270
  8
0
 10
4766.642969686797187
 20
219.6460778111596994
 30
0.0
 11
4766.6461229891501716
 21
219.6460778111596994
 31
0.0
  0
LINE
  5
C271
  8
0
 10
4766.6461229891501716
 20
219.6460778111596994
 30
0.0
 11
4766.647574867253752
 21
219.6224557639800992
 31
0.0
  0
LINE
  5
C272
  8
0
 10
4766.647574867253752
 20
219.6224557639800992
 30
0.0
 11
4766.6444173694117126
 21
219.622455773508193
 31
0.0
  0
LINE
  5
C273
  8
0
 10
4766.6403064206961062
 20
219.6224557639598061
 30
0.0
 11
4766.6388641630810525
 21
219.6460778112239041
 31
0.0
  0
LINE
  5
C274
  8
0
 10
4766.6388641630810525
 20
219.6460778112239041
 30
0.0
 11
4766.6411556952971296
 21
219.6460778111596994
 31
0.0
  0
LINE
  5
C275
  8
0
 10
4766.6411556952971296
 20
219.6460778111596994
 30
0.0
 11
4766.6426009761962632
 21
219.6224557639598061
 31
0.0
  0
LINE
  5
C276
  8
0
 10
4766.6426009761962632
 20
219.6224557639598061
 30
0.0
 11
4766.6403064203159374
 21
219.6224557702009008
 31
0.0
  0
LINE
  5
C277
  8
0
 10
4766.6376213842968355
 20
219.6224557639598061
 30
0.0
 11
4766.6361826483962432
 21
219.6460778111596994
 31
0.0
  0
LINE
  5
C278
  8
0
 10
4766.6361826483962432
 20
219.6460778111596994
 30
0.0
 11
4766.6376213843959704
 21
219.6460778111596994
 31
0.0
  0
LINE
  5
C279
  8
0
 10
4766.6376213843959704
 20
219.6460778111596994
 30
0.0
 11
4766.6390620077427229
 21
219.6224557639829129
 31
0.0
  0
LINE
  5
C27A
  8
0
 10
4766.6390620077427229
 20
219.6224557639829129
 30
0.0
 11
4766.6376213841413119
 21
219.6224557665177031
 31
0.0
  0
LINE
  5
C27B
  8
0
 10
4766.6363518137832216
 20
219.6224557639820887
 30
0.0
 11
4766.6349147370447099
 21
219.6460778112266041
 31
0.0
  0
LINE
  5
C27C
  8
0
 10
4766.6349147370447099
 20
219.6460778112266041
 30
0.0
 11
4766.6355062471466226
 21
219.6460778111596994
 31
0.0
  0
LINE
  5
C27D
  8
0
 10
4766.6355062471466226
 20
219.6460778111596994
 30
0.0
 11
4766.6369440974658573
 21
219.6224557639598061
 31
0.0
  0
LINE
  5
C27E
  8
0
 10
4766.6369440974658573
 20
219.6224557639598061
 30
0.0
 11
4766.6363518137832216
 21
219.6224557639820887
 31
0.0
  0
LINE
  5
C27F
  8
0
 10
4766.6713380199917083
 20
219.7011314831673872
 30
0.0
 11
4766.6698479024489643
 21
219.7247535303473001
 31
0.0
  0
LINE
  5
C280
  8
0
 10
4766.6698479024489643
 20
219.7247535303473001
 30
0.0
 11
4766.6766144021494256
 21
219.7247535303473001
 31
0.0
  0
LINE
  5
C281
  8
0
 10
4766.6766144021494256
 20
219.7247535303473001
 30
0.0
 11
4766.6781137572206717
 21
219.7011316458290935
 31
0.0
  0
LINE
  5
C282
  8
0
 10
4766.6781137572206717
 20
219.7011316458290935
 30
0.0
 11
4766.6713380199917083
 21
219.7011314831673872
 31
0.0
  0
LINE
  5
C283
  8
0
 10
4766.6612982646784076
 20
219.701131483147293
 30
0.0
 11
4766.6598221058320632
 21
219.724753530411391
 31
0.0
  0
LINE
  5
C284
  8
0
 10
4766.6598221058320632
 20
219.724753530411391
 30
0.0
 11
4766.6656517564661044
 21
219.7247535304117889
 31
0.0
  0
LINE
  5
C285
  8
0
 10
4766.6656517564661044
 20
219.7247535304117889
 30
0.0
 11
4766.6671359997326363
 21
219.7011314831661082
 31
0.0
  0
LINE
  5
C286
  8
0
 10
4766.6671359997326363
 20
219.7011314831661082
 30
0.0
 11
4766.6612982646756791
 21
219.7011314831678135
 31
0.0
  0
LINE
  5
C287
  8
0
 10
4766.6527876474501682
 20
219.701131483147293
 30
0.0
 11
4766.6513231181497758
 21
219.7247535303473001
 31
0.0
  0
LINE
  5
C288
  8
0
 10
4766.6513231181497758
 20
219.7247535303473001
 30
0.0
 11
4766.6562414666932455
 21
219.7247535304130963
 31
0.0
  0
LINE
  5
C289
  8
0
 10
4766.6562414666932455
 20
219.7247535304130963
 30
0.0
 11
4766.6577127034506702
 21
219.701131483147293
 31
0.0
  0
LINE
  5
C28A
  8
0
 10
4766.6577127034506702
 20
219.701131483147293
 30
0.0
 11
4766.6527876474501682
 21
219.701131483147293
 31
0.0
  0
LINE
  5
C28B
  8
0
 10
4766.6457702118214002
 20
219.701131483147293
 30
0.0
 11
4766.6443151348112224
 21
219.7247535304086909
 31
0.0
  0
LINE
  5
C28C
  8
0
 10
4766.6443151348112224
 20
219.7247535304086909
 30
0.0
 11
4766.6483427627963465
 21
219.7247535304107089
 31
0.0
  0
LINE
  5
C28D
  8
0
 10
4766.6483427627963465
 20
219.7247535304107089
 30
0.0
 11
4766.6498032572490047
 21
219.7011314831665914
 31
0.0
  0
LINE
  5
C28E
  8
0
 10
4766.6498032572490047
 20
219.7011314831665914
 30
0.0
 11
4766.6457702118514135
 21
219.701131483147293
 31
0.0
  0
LINE
  5
C28F
  8
0
 10
4766.6402171539502888
 20
219.701131483147293
 30
0.0
 11
4766.6387694707500486
 21
219.7247535303473001
 31
0.0
  0
LINE
  5
C290
  8
0
 10
4766.6387694707500486
 20
219.7247535303473001
 30
0.0
 11
4766.6419227731030333
 21
219.7247535303473001
 31
0.0
  0
LINE
  5
C291
  8
0
 10
4766.6419227731030333
 20
219.7247535303473001
 30
0.0
 11
4766.6433746512084326
 21
219.7011314831675861
 31
0.0
  0
LINE
  5
C292
  8
0
 10
4766.6433746512084326
 20
219.7011314831675861
 30
0.0
 11
4766.6402171533645742
 21
219.7011314926957937
 31
0.0
  0
LINE
  5
C293
  8
0
 10
4766.6361062046489678
 20
219.701131483147293
 30
0.0
 11
4766.6346639470339142
 21
219.7247535304115047
 31
0.0
  0
LINE
  5
C294
  8
0
 10
4766.6346639470339142
 20
219.7247535304115047
 30
0.0
 11
4766.6369554792499912
 21
219.7247535303473001
 31
0.0
  0
LINE
  5
C295
  8
0
 10
4766.6369554792499912
 20
219.7247535303473001
 30
0.0
 11
4766.6384007601491248
 21
219.701131483147293
 31
0.0
  0
LINE
  5
C296
  8
0
 10
4766.6384007601491248
 20
219.701131483147293
 30
0.0
 11
4766.636106204268799
 21
219.7011314893885014
 31
0.0
  0
LINE
  5
C297
  8
0
 10
4766.6334211682496971
 20
219.701131483147293
 30
0.0
 11
4766.6319824323491048
 21
219.7247535303473001
 31
0.0
  0
LINE
  5
C298
  8
0
 10
4766.6319824323491048
 20
219.7247535303473001
 30
0.0
 11
4766.633421168348832
 21
219.7247535303473001
 31
0.0
  0
LINE
  5
C299
  8
0
 10
4766.633421168348832
 20
219.7247535303473001
 30
0.0
 11
4766.6348617916974035
 21
219.7011314831703999
 31
0.0
  0
LINE
  5
C29A
  8
0
 10
4766.6348617916974035
 20
219.7011314831703999
 30
0.0
 11
4766.633421168093264
 21
219.70113148570519
 31
0.0
  0
LINE
  5
C29B
  8
0
 10
4766.6321515977351737
 20
219.7011314831696893
 30
0.0
 11
4766.6307145209975715
 21
219.7247535304142048
 31
0.0
  0
LINE
  5
C29C
  8
0
 10
4766.6307145209975715
 20
219.7247535304142048
 30
0.0
 11
4766.6313060311003937
 21
219.7247535303473001
 31
0.0
  0
LINE
  5
C29D
  8
0
 10
4766.6313060311003937
 20
219.7247535303473001
 30
0.0
 11
4766.632743881418719
 21
219.701131483147293
 31
0.0
  0
LINE
  5
C29E
  8
0
 10
4766.632743881418719
 20
219.701131483147293
 30
0.0
 11
4766.6321515977351737
 21
219.7011314831696893
 31
0.0
  0
LINE
  5
C29F
  8
0
 10
4766.6709835018764352
 20
219.5830882782238973
 30
0.0
 11
4766.6677469799342362
 21
219.6067103255238919
 31
0.0
  0
LINE
  5
C2A0
  8
0
 10
4766.6677469799342362
 20
219.6067103255238919
 30
0.0
 11
4766.6736149708749508
 21
219.6067103255238919
 31
0.0
  0
LINE
  5
C2A1
  8
0
 10
4766.6736149708749508
 20
219.6067103255238919
 30
0.0
 11
4766.6768694829761444
 21
219.5830882782238973
 31
0.0
  0
LINE
  5
C2A2
  8
0
 10
4766.6768694829761444
 20
219.5830882782238973
 30
0.0
 11
4766.6709835009960443
 21
219.5830882846476868
 31
0.0
  0
LINE
  5
C2A3
  8
0
 10
4766.6673685710748032
 20
219.5830882782238973
 30
0.0
 11
4766.6641429998362582
 21
219.6067103255238919
 31
0.0
  0
LINE
  5
C2A4
  8
0
 10
4766.6641429998362582
 20
219.6067103255238919
 30
0.0
 11
4766.6591928449761326
 21
219.6067103255238919
 31
0.0
  0
LINE
  5
C2A5
  8
0
 10
4766.6591928449761326
 20
219.6067103255238919
 30
0.0
 11
4766.6624034957503682
 21
219.5830882782638014
 31
0.0
  0
LINE
  5
C2A6
  8
0
 10
4766.6624034957503682
 20
219.5830882782638014
 30
0.0
 11
4766.6673685710748032
 21
219.5830882782238973
 31
0.0
  0
LINE
  5
C2A7
  8
0
 10
4766.6593950347287318
 20
219.5830882782236131
 30
0.0
 11
4766.6561933579232573
 21
219.6067103255238919
 31
0.0
  0
LINE
  5
C2A8
  8
0
 10
4766.6561933579232573
 20
219.6067103255238919
 30
0.0
 11
4766.6521400437759439
 21
219.6067103255238919
 31
0.0
  0
LINE
  5
C2A9
  8
0
 10
4766.6521400437759439
 20
219.6067103255238919
 30
0.0
 11
4766.6553296733764
 21
219.5830882782238973
 31
0.0
  0
LINE
  5
C2AA
  8
0
 10
4766.6553296733764
 20
219.5830882782238973
 30
0.0
 11
4766.6593950347287318
 21
219.5830882782236131
 31
0.0
  0
LINE
  5
C2AB
  8
0
 10
4766.6529150322758142
 20
219.5830882782238973
 30
0.0
 11
4766.6497325155523868
 21
219.6067103255086863
 31
0.0
  0
LINE
  5
C2AC
  8
0
 10
4766.6497325155523868
 20
219.6067103255086863
 30
0.0
 11
4766.6465593250759412
 21
219.6067103255238919
 31
0.0
  0
LINE
  5
C2AD
  8
0
 10
4766.6465593250759412
 20
219.6067103255238919
 30
0.0
 11
4766.6497325155778526
 21
219.5830882782686899
 31
0.0
  0
LINE
  5
C2AE
  8
0
 10
4766.6497325155778526
 20
219.5830882782686899
 30
0.0
 11
4766.6529150323640351
 21
219.5830882782238973
 31
0.0
  0
LINE
  5
C2AF
  8
0
 10
4766.6479017950487105
 20
219.5830882782238973
 30
0.0
 11
4766.6447339449759966
 21
219.6067103255238919
 31
0.0
  0
LINE
  5
C2B0
  8
0
 10
4766.6447339449759966
 20
219.6067103255238919
 30
0.0
 11
4766.6424280804367299
 21
219.6067103255238919
 31
0.0
  0
LINE
  5
C2B1
  8
0
 10
4766.6424280804367299
 20
219.6067103255238919
 30
0.0
 11
4766.6455892102658254
 21
219.583088278265393
 31
0.0
  0
LINE
  5
C2B2
  8
0
 10
4766.6455892102658254
 20
219.583088278265393
 30
0.0
 11
4766.6479017950487105
 21
219.5830882782238973
 31
0.0
  0
LINE
  5
C2B3
  8
0
 10
4766.6443350512572579
 20
219.5830882782695141
 30
0.0
 11
4766.6411775539763767
 21
219.6067103255238919
 31
0.0
  0
LINE
  5
C2B4
  8
0
 10
4766.6411775539763767
 20
219.6067103255238919
 30
0.0
 11
4766.6397298707761365
 21
219.6067103255238919
 31
0.0
  0
LINE
  5
C2B5
  8
0
 10
4766.6397298707761365
 20
219.6067103255238919
 30
0.0
 11
4766.6428831730763704
 21
219.5830882782238973
 31
0.0
  0
LINE
  5
C2B6
  8
0
 10
4766.6428831730763704
 20
219.5830882782238973
 30
0.0
 11
4766.6443350512572579
 21
219.5830882782695141
 31
0.0
  0
LINE
  5
C2B7
  8
0
 10
4766.6422006052926008
 20
219.5830882782238973
 30
0.0
 11
4766.6390492713517233
 21
219.6067103255043946
 31
0.0
  0
LINE
  5
C2B8
  8
0
 10
4766.6390492713517233
 20
219.6067103255043946
 30
0.0
 11
4766.638454094168992
 21
219.6067103255128075
 31
0.0
  0
LINE
  5
C2B9
  8
0
 10
4766.638454094168992
 20
219.6067103255128075
 30
0.0
 11
4766.6416456591759925
 21
219.5830882782238973
 31
0.0
  0
LINE
  5
C2BA
  8
0
 10
4766.6416456591759925
 20
219.5830882782238973
 30
0.0
 11
4766.6422006052926008
 21
219.5830882782238973
 31
0.0
  0
LINE
  5
C2BB
  8
0
 10
4766.6775453472673689
 20
219.5438744006540901
 30
0.0
 11
4766.6734710509517754
 21
219.5673402467670883
 31
0.0
  0
LINE
  5
C2BC
  8
0
 10
4766.6734710509517754
 20
219.5673402467670883
 30
0.0
 11
4766.6793390418952185
 21
219.5673402467670883
 31
0.0
  0
LINE
  5
C2BD
  8
0
 10
4766.6793390418952185
 20
219.5673402467670883
 30
0.0
 11
4766.683466736139053
 21
219.5438819081209942
 31
0.0
  0
LINE
  5
C2BE
  8
0
 10
4766.683466736139053
 20
219.5438819081209942
 30
0.0
 11
4766.6775453472673689
 21
219.5438744006540901
 31
0.0
  0
LINE
  5
C2BF
  8
0
 10
4766.6739370434970624
 20
219.5437181995312983
 30
0.0
 11
4766.669867070854707
 21
219.5673402467670883
 31
0.0
  0
LINE
  5
C2C0
  8
0
 10
4766.669867070854707
 20
219.5673402467670883
 30
0.0
 11
4766.6649169159945814
 21
219.5673402467670883
 31
0.0
  0
LINE
  5
C2C1
  8
0
 10
4766.6649169159945814
 20
219.5673402467670883
 30
0.0
 11
4766.6681275667688169
 21
219.5437181995071114
 31
0.0
  0
LINE
  5
C2C2
  8
0
 10
4766.6689413049680297
 20
219.5437181995239087
 30
0.0
 11
4766.6739370434970624
 21
219.5437181995312983
 31
0.0
  0
LINE
  5
C2C3
  8
0
 10
4766.6659144037230362
 20
219.543718199520498
 30
0.0
 11
4766.6619174289426155
 21
219.5673402467670883
 31
0.0
  0
LINE
  5
C2C4
  8
0
 10
4766.6619174289426155
 20
219.5673402467670883
 30
0.0
 11
4766.6578641147962117
 21
219.5673402467670883
 31
0.0
  0
LINE
  5
C2C5
  8
0
 10
4766.6578641147962117
 20
219.5673402467670883
 30
0.0
 11
4766.661824289040851
 21
219.5437181994755917
 31
0.0
  0
LINE
  5
C2C6
  8
0
 10
4766.661824289040851
 20
219.5437181994755917
 30
0.0
 11
4766.6659144037230362
 21
219.543718199520498
 31
0.0
  0
LINE
  5
C2C7
  8
0
 10
4766.6593950345868507
 20
219.5437181995239087
 30
0.0
 11
4766.6554565865708355
 21
219.5673402467519111
 31
0.0
  0
LINE
  5
C2C8
  8
0
 10
4766.6554565865708355
 20
219.5673402467519111
 30
0.0
 11
4766.6522833960952994
 21
219.5673402467670883
 31
0.0
  0
LINE
  5
C2C9
  8
0
 10
4766.6522833960952994
 20
219.5673402467670883
 30
0.0
 11
4766.6561933578759636
 21
219.5437181995239087
 31
0.0
  0
LINE
  5
C2CA
  8
0
 10
4766.6561933578759636
 20
219.5437181995239087
 30
0.0
 11
4766.6593950346750717
 21
219.5437181995239087
 31
0.0
  0
LINE
  5
C2CB
  8
0
 10
4766.6543516672072656
 20
219.5437181994541049
 30
0.0
 11
4766.6504580159953548
 21
219.5673402467670883
 31
0.0
  0
LINE
  5
C2CC
  8
0
 10
4766.6504580159953548
 20
219.5673402467670883
 30
0.0
 11
4766.6481521514560882
 21
219.5673402467670883
 31
0.0
  0
LINE
  5
C2CD
  8
0
 10
4766.6481521514560882
 20
219.5673402467670883
 30
0.0
 11
4766.6520252779837392
 21
219.5437181995251024
 31
0.0
  0
LINE
  5
C2CE
  8
0
 10
4766.6520252779837392
 20
219.5437181995251024
 30
0.0
 11
4766.6543516672072656
 21
219.5437181994541049
 31
0.0
  0
LINE
  5
C2CF
  8
0
 10
4766.650763657276002
 20
219.5437181995239087
 30
0.0
 11
4766.6469016249939159
 21
219.5673402467670883
 31
0.0
  0
LINE
  5
C2D0
  8
0
 10
4766.6469016249939159
 20
219.5673402467670883
 30
0.0
 11
4766.6454539417936758
 21
219.5673402467670883
 31
0.0
  0
LINE
  5
C2D1
  8
0
 10
4766.6454539417936758
 20
219.5673402467670883
 30
0.0
 11
4766.6493031627751407
 21
219.5437181995239087
 31
0.0
  0
LINE
  5
C2D2
  8
0
 10
4766.6493031627751407
 20
219.5437181995239087
 30
0.0
 11
4766.650763657276002
 21
219.5437181995239087
 31
0.0
  0
LINE
  5
C2D3
  8
0
 10
4766.6486165521746443
 20
219.5437181995239087
 30
0.0
 11
4766.644773342371991
 21
219.567340246747591
 31
0.0
  0
LINE
  5
C2D4
  8
0
 10
4766.644773342371991
 20
219.567340246747591
 30
0.0
 11
4766.6441781651892597
 21
219.5673402467560038
 31
0.0
  0
LINE
  5
C2D5
  8
0
 10
4766.6441781651892597
 20
219.5673402467560038
 30
0.0
 11
4766.6480583147758807
 21
219.5437181995239087
 31
0.0
  0
LINE
  5
C2D6
  8
0
 10
4766.6480583147758807
 20
219.5437181995239087
 30
0.0
 11
4766.6486165521746443
 21
219.5437181995239087
 31
0.0
  0
LINE
  5
C2D7
  8
0
 10
4766.6820209486650128
 20
219.5043481207931961
 30
0.0
 11
4766.6769869500512868
 21
219.527970168037001
 31
0.0
  0
LINE
  5
C2D8
  8
0
 10
4766.6769869500512868
 20
219.527970168037001
 30
0.0
 11
4766.6719768449756884
 21
219.5279701680238986
 31
0.0
  0
LINE
  5
C2D9
  8
0
 10
4766.6719768449756884
 20
219.5279701680238986
 30
0.0
 11
4766.6769869499757988
 21
219.504348120723904
 31
0.0
  0
LINE
  5
C2DA
  8
0
 10
4766.6769869499757988
 20
219.504348120723904
 30
0.0
 11
4766.6820209486650128
 21
219.5043481207931961
 31
0.0
  0
LINE
  5
C2DB
  8
0
 10
4766.6739370433760996
 20
219.504348120723904
 30
0.0
 11
4766.6689413049489303
 21
219.5279701680252913
 31
0.0
  0
LINE
  5
C2DC
  8
0
 10
4766.6689413049489303
 20
219.5279701680252913
 30
0.0
 11
4766.6648395948759571
 21
219.5279701680238986
 31
0.0
  0
LINE
  5
C2DD
  8
0
 10
4766.6648395948759571
 20
219.5279701680238986
 30
0.0
 11
4766.6698160516652933
 21
219.5043481207763136
 31
0.0
  0
LINE
  5
C2DE
  8
0
 10
4766.6698160516652933
 20
219.5043481207763136
 30
0.0
 11
4766.6739370420027626
 21
219.5043481272155077
 31
0.0
  0
LINE
  5
C2DF
  8
0
 10
4766.6673685711248254
 20
219.5043481207870002
 30
0.0
 11
4766.6624034957567346
 21
219.5279701680298103
 31
0.0
  0
LINE
  5
C2E0
  8
0
 10
4766.6624034957567346
 20
219.5279701680298103
 30
0.0
 11
4766.6591928449761326
 21
219.5279701680238986
 31
0.0
  0
LINE
  5
C2E1
  8
0
 10
4766.6591928449761326
 20
219.5279701680238986
 30
0.0
 11
4766.6641429998298918
 21
219.504348120792713
 31
0.0
  0
LINE
  5
C2E2
  8
0
 10
4766.6641429998298918
 20
219.504348120792713
 30
0.0
 11
4766.6673685711248254
 21
219.5043481207870002
 31
0.0
  0
LINE
  5
C2E3
  8
0
 10
4766.6622876292976798
 20
219.504348120723904
 30
0.0
 11
4766.6573460165764118
 21
219.5279701680238986
 31
0.0
  0
LINE
  5
C2E4
  8
0
 10
4766.6573460165764118
 20
219.5279701680238986
 30
0.0
 11
4766.6550131625026552
 21
219.5279701680296967
 31
0.0
  0
LINE
  5
C2E5
  8
0
 10
4766.6550131625026552
 20
219.5279701680296967
 30
0.0
 11
4766.6599440274549124
 21
219.5043481207871992
 31
0.0
  0
LINE
  5
C2E6
  8
0
 10
4766.6599440274549124
 20
219.5043481207871992
 30
0.0
 11
4766.6622876292976798
 21
219.504348120723904
 31
0.0
  0
LINE
  5
C2E7
  8
0
 10
4766.6586731035486082
 20
219.5043481207910929
 30
0.0
 11
4766.6537480475972188
 21
219.5279701680339883
 31
0.0
  0
LINE
  5
C2E8
  8
0
 10
4766.6537480475972188
 20
219.5279701680339883
 30
0.0
 11
4766.6522835182286144
 21
219.5279701680238986
 31
0.0
  0
LINE
  5
C2E9
  8
0
 10
4766.6522835182286144
 20
219.5279701680238986
 30
0.0
 11
4766.6572018666411168
 21
219.504348120776001
 31
0.0
  0
LINE
  5
C2EA
  8
0
 10
4766.6572018666411168
 20
219.504348120776001
 30
0.0
 11
4766.6586731035486082
 21
219.5043481207910929
 31
0.0
  0
LINE
  5
C2EB
  8
0
 10
4766.6565102159620437
 20
219.504348120723904
 30
0.0
 11
4766.6515950145603711
 21
219.5279701680238986
 31
0.0
  0
LINE
  5
C2EC
  8
0
 10
4766.6515950145603711
 20
219.5279701680238986
 30
0.0
 11
4766.6509929334451954
 21
219.5279701680352105
 31
0.0
  0
LINE
  5
C2ED
  8
0
 10
4766.6509929334451954
 20
219.5279701680352105
 30
0.0
 11
4766.6559053861428765
 21
219.5043481207933951
 31
0.0
  0
LINE
  5
C2EE
  8
0
 10
4766.6559053861428765
 20
219.5043481207933951
 30
0.0
 11
4766.6565102159620437
 21
219.504348120723904
 31
0.0
  0
LINE
  5
C2EF
  8
0
 10
4766.6834974422790765
 20
219.4649780420396894
 30
0.0
 11
4766.6775744813348865
 21
219.4886000892844891
 31
0.0
  0
LINE
  5
C2F0
  8
0
 10
4766.6775744813348865
 20
219.4886000892844891
 30
0.0
 11
4766.6734393361648472
 21
219.4886000892844891
 31
0.0
  0
LINE
  5
C2F1
  8
0
 10
4766.6734393361648472
 20
219.4886000892844891
 30
0.0
 11
4766.6793390418706622
 21
219.4649780420238869
 31
0.0
  0
LINE
  5
C2F2
  8
0
 10
4766.6793390418706622
 20
219.4649780420238869
 30
0.0
 11
4766.6834974422790765
 21
219.4649780420396894
 31
0.0
  0
LINE
  5
C2F3
  8
0
 10
4766.6768694829888773
 20
219.4649780420459138
 30
0.0
 11
4766.6709835019428283
 21
219.4886000892902018
 31
0.0
  0
LINE
  5
C2F4
  8
0
 10
4766.6709835019428283
 20
219.4886000892902018
 30
0.0
 11
4766.6677469799606115
 21
219.4886000892959999
 31
0.0
  0
LINE
  5
C2F5
  8
0
 10
4766.6677469799606115
 20
219.4886000892959999
 30
0.0
 11
4766.6736149709067831
 21
219.4649780420531044
 31
0.0
  0
LINE
  5
C2F6
  8
0
 10
4766.6736149709067831
 20
219.4649780420531044
 30
0.0
 11
4766.6768694829888773
 21
219.4649780420459138
 31
0.0
  0
LINE
  5
C2F7
  8
0
 10
4766.6717430324815723
 20
219.4649780460308932
 30
0.0
 11
4766.6658853405651826
 21
219.4886000892765878
 31
0.0
  0
LINE
  5
C2F8
  8
0
 10
4766.6658853405651826
 20
219.4886000892765878
 30
0.0
 11
4766.6635338514161049
 21
219.4886000892907987
 31
0.0
  0
LINE
  5
C2F9
  8
0
 10
4766.6635338514161049
 20
219.4886000892907987
 30
0.0
 11
4766.6693785882762313
 21
219.4649780420238869
 31
0.0
  0
LINE
  5
C2FA
  8
0
 10
4766.6693785882762313
 20
219.4649780420238869
 30
0.0
 11
4766.6717430324815723
 21
219.4649780460308932
 31
0.0
  0
LINE
  5
C2FB
  8
0
 10
4766.6680963969292861
 20
219.4649780531375995
 30
0.0
 11
4766.6622586647263233
 21
219.4886000892958862
 31
0.0
  0
LINE
  5
C2FC
  8
0
 10
4766.6622586647263233
 20
219.4886000892958862
 30
0.0
 11
4766.6607825058135859
 21
219.4886000892796858
 31
0.0
  0
LINE
  5
C2FD
  8
0
 10
4766.6607825058135859
 20
219.4886000892796858
 30
0.0
 11
4766.666612156465817
 21
219.4649780420349998
 31
0.0
  0
LINE
  5
C2FE
  8
0
 10
4766.666612156465817
 20
219.4649780420349998
 30
0.0
 11
4766.6680963969292861
 21
219.4649780531375995
 31
0.0
  0
LINE
  5
C2FF
  8
0
 10
4766.6659144037130318
 20
219.4649780420380978
 30
0.0
 11
4766.6600885458910852
 21
219.4886000892821869
 31
0.0
  0
LINE
  5
C300
  8
0
 10
4766.6600885458910852
 20
219.4886000892821869
 30
0.0
 11
4766.6594816991637344
 21
219.4886000892977904
 31
0.0
  0
LINE
  5
C301
  8
0
 10
4766.6594816991637344
 20
219.4886000892977904
 30
0.0
 11
4766.6653042443249433
 21
219.4649780420535023
 31
0.0
  0
LINE
  5
C302
  8
0
 10
4766.6653042443249433
 20
219.4649780420535023
 30
0.0
 11
4766.6659144037130318
 21
219.4649780420380978
 31
0.0
  0
LINE
  5
C303
  8
0
 10
4766.6827589358308614
 20
219.4256079632903038
 30
0.0
 11
4766.6759595562480172
 21
219.4492300105355866
 31
0.0
  0
LINE
  5
C304
  8
0
 10
4766.6759595562480172
 20
219.4492300105355866
 30
0.0
 11
4766.6735856964151026
 21
219.4492300105509059
 31
0.0
  0
LINE
  5
C305
  8
0
 10
4766.6735856964151026
 20
219.4492300105509059
 30
0.0
 11
4766.6803697355089753
 21
219.4256079633067031
 31
0.0
  0
LINE
  5
C306
  8
0
 10
4766.6803697355089753
 20
219.4256079633067031
 30
0.0
 11
4766.6827589358308614
 21
219.4256079632903038
 31
0.0
  0
LINE
  5
C307
  8
0
 10
4766.6790741694321696
 20
219.4256079633134959
 30
0.0
 11
4766.6722984199750499
 21
219.4492300105239053
 31
0.0
  0
LINE
  5
C308
  8
0
 10
4766.6722984199750499
 20
219.4492300105239053
 30
0.0
 11
4766.6708083025287124
 21
219.4492300105391109
 31
0.0
  0
LINE
  5
C309
  8
0
 10
4766.6708083025287124
 20
219.4492300105391109
 30
0.0
 11
4766.6775744813176061
 21
219.4256079632943965
 31
0.0
  0
LINE
  5
C30A
  8
0
 10
4766.6775744813176061
 20
219.4256079632943965
 30
0.0
 11
4766.6790741694321696
 21
219.4256079633134959
 31
0.0
  0
LINE
  5
C30B
  8
0
 10
4766.6768694829734159
 20
219.4256079632239107
 30
0.0
 11
4766.670107793976058
 21
219.4492300105239053
 31
0.0
  0
LINE
  5
C30C
  8
0
 10
4766.670107793976058
 20
219.4492300105239053
 30
0.0
 11
4766.6694952276930053
 21
219.4492300105590914
 31
0.0
  0
LINE
  5
C30D
  8
0
 10
4766.6694952276930053
 20
219.4492300105590914
 30
0.0
 11
4766.6762529954266938
 21
219.4256079633159118
 31
0.0
  0
LINE
  5
C30E
  8
0
 10
4766.6762529954266938
 20
219.4256079633159118
 30
0.0
 11
4766.6768694829734159
 21
219.4256079632239107
 31
0.0
  0
ARC
  5
C30F
  8
0
 10
4765.6249352652966991
 20
219.049623203329503
 30
0.0
 40
1.1174477173046891
 50
12.7045005759048308
 51
18.0926958204317998
  0
LINE
  5
C310
  8
0
 10
4766.6871311484746911
 20
219.3966524624239014
 30
0.0
 11
4766.6853922422751566
 21
219.396080404223909
 31
0.0
  0
LINE
  5
C311
  8
0
 10
4766.6853922422751566
 20
219.396080404223909
 30
0.0
 11
4766.6810770806760047
 21
219.4098599318238882
 31
0.0
  0
LINE
  5
C312
  8
0
 10
4766.6810770806760047
 20
219.4098599318238882
 30
0.0
 11
4766.6816963983847018
 21
219.4098599318238882
 31
0.0
  0
LINE
  5
C313
  8
0
 10
4766.6816963983847018
 20
219.4098599318238882
 30
0.0
 11
4766.6853922422751566
 21
219.3983375174238972
 31
0.0
  0
LINE
  5
C314
  8
0
 10
4766.6853922422751566
 20
219.3983375174238972
 30
0.0
 11
4766.6853922422751566
 21
219.4005184406175886
 31
0.0
  0
LINE
  5
C315
  8
0
 10
4766.6853922422751566
 20
219.4005184406175886
 30
0.0
 11
4766.6824046372748853
 21
219.4098599318238882
 31
0.0
  0
LINE
  5
C316
  8
0
 10
4766.6824046372748853
 20
219.4098599318238882
 30
0.0
 11
4766.6839112330981152
 21
219.4098599318238882
 31
0.0
  0
LINE
  5
C317
  8
0
 10
4766.6839112330981152
 20
219.4098599318238882
 30
0.0
 11
4766.6853922422751566
 21
219.4051999903244905
 31
0.0
  0
LINE
  5
C318
  8
0
 10
4766.6853922422751566
 20
219.4051999903244905
 30
0.0
 11
4766.6853922422751566
 21
219.4256079632239107
 31
0.0
  0
LINE
  5
C319
  8
0
 10
4766.6853922422751566
 20
219.4256079632239107
 30
0.0
 11
4766.6846505514758974
 21
219.4256079632239107
 31
0.0
  0
LINE
  5
C31A
  8
0
 10
4766.6846505514758974
 20
219.4256079632239107
 30
0.0
 11
4766.6778389772680384
 21
219.4492300105582103
 31
0.0
  0
LINE
  5
C31B
  8
0
 10
4766.6778389772680384
 20
219.4492300105582103
 30
0.0
 11
4766.6811065638030414
 21
219.4492300105582103
 31
0.0
  0
LINE
  5
C31C
  8
0
 10
4766.6811065638030414
 20
219.4492300105582103
 30
0.0
 11
4766.6853922422751566
 21
219.4341831127190119
 31
0.0
  0
LINE
  5
C31D
  8
0
 10
4766.6853922422751566
 20
219.4341831127190119
 30
0.0
 11
4766.6853922422687901
 21
219.4428034973290096
 31
0.0
  0
LINE
  5
C31E
  8
0
 10
4766.6853922422687901
 20
219.4428034973290096
 30
0.0
 11
4766.6835860979763311
 21
219.4492300105239053
 31
0.0
  0
LINE
  5
C31F
  8
0
 10
4766.6835860979763311
 20
219.4492300105239053
 30
0.0
 11
4766.6853922422751566
 21
219.4492300105239053
 31
0.0
  0
LINE
  5
C320
  8
0
 10
4766.6853922422751566
 20
219.4492300105239053
 30
0.0
 11
4766.6853922421641983
 21
219.4695076745130962
 31
0.0
  0
LINE
  5
C321
  8
0
 10
4766.6853922421641983
 20
219.4695076745130962
 30
0.0
 11
4766.6806349342314206
 21
219.4886000892888944
 31
0.0
  0
LINE
  5
C322
  8
0
 10
4766.6806349342314206
 20
219.4886000892888944
 30
0.0
 11
4766.6853922422751566
 21
219.4886000800239003
 31
0.0
  0
LINE
  5
C323
  8
0
 10
4766.6853922422751566
 20
219.4886000800239003
 30
0.0
 11
4766.6853922422751566
 21
219.5056558762238978
 31
0.0
  0
LINE
  5
C324
  8
0
 10
4766.6853922422751566
 20
219.5056558762238978
 30
0.0
 11
4766.6806349342377871
 21
219.5279701680306914
 31
0.0
  0
LINE
  5
C325
  8
0
 10
4766.6806349342377871
 20
219.5279701680306914
 30
0.0
 11
4766.6853922422751566
 21
219.5279701680306914
 31
0.0
  0
LINE
  5
C326
  8
0
 10
4766.6853922422751566
 20
219.5279701680306914
 30
0.0
 11
4766.6853922422751566
 21
219.5567373253238941
 31
0.0
  0
LINE
  5
C327
  8
0
 10
4766.6853922422751566
 20
219.5567373253238941
 30
0.0
 11
4766.6835860979763311
 21
219.5673402467238873
 31
0.0
  0
LINE
  5
C328
  8
0
 10
4766.6835860979763311
 20
219.5673402467238873
 30
0.0
 11
4766.6853922686759688
 21
219.5673402467238873
 31
0.0
  0
LINE
  5
C329
  8
0
 10
4766.6853922686759688
 20
219.5673402467238873
 30
0.0
 11
4766.6853922686759688
 21
219.5830882782238973
 31
0.0
  0
LINE
  5
C32A
  8
0
 10
4766.6853922686759688
 20
219.5830882782238973
 30
0.0
 11
4766.6811065638039508
 21
219.5830882782647109
 31
0.0
  0
LINE
  5
C32B
  8
0
 10
4766.6811065638039508
 20
219.5830882782647109
 30
0.0
 11
4766.6778389771761795
 21
219.6067103255238919
 31
0.0
  0
LINE
  5
C32C
  8
0
 10
4766.6778389771761795
 20
219.6067103255238919
 30
0.0
 11
4766.6846504873246886
 21
219.6067108284686924
 31
0.0
  0
LINE
  5
C32D
  8
0
 10
4766.6846504873246886
 20
219.6067108284686924
 30
0.0
 11
4766.6853922422751566
 21
219.6010267934815943
 31
0.0
  0
LINE
  5
C32E
  8
0
 10
4766.6853922422751566
 20
219.6010267934815943
 30
0.0
 11
4766.6853922422751566
 21
219.6618284357238906
 31
0.0
  0
LINE
  5
C32F
  8
0
 10
4766.6853922422751566
 20
219.6618284357238906
 30
0.0
 11
4766.6839112329762429
 21
219.6618284357238906
 31
0.0
  0
LINE
  5
C330
  8
0
 10
4766.6839112329762429
 20
219.6618284357238906
 30
0.0
 11
4766.6824046373130841
 21
219.6854504829898076
 31
0.0
  0
LINE
  5
C331
  8
0
 10
4766.6824046373130841
 20
219.6854504829898076
 30
0.0
 11
4766.6853922422751566
 21
219.6854504829898076
 31
0.0
  0
LINE
  5
C332
  8
0
 10
4766.6853922422751566
 20
219.6854504829898076
 30
0.0
 11
4766.6853922422751566
 21
219.7011985144239077
 31
0.0
  0
LINE
  5
C333
  8
0
 10
4766.6853922422751566
 20
219.7011985144239077
 30
0.0
 11
4766.6816963984592803
 21
219.7011985144239077
 31
0.0
  0
LINE
  5
C334
  8
0
 10
4766.6816963984592803
 20
219.7011985144239077
 30
0.0
 11
4766.6810770806760047
 21
219.7248205617239023
 31
0.0
  0
LINE
  5
C335
  8
0
 10
4766.6810770806760047
 20
219.7248205617239023
 30
0.0
 11
4766.6853922422751566
 21
219.7248205617239023
 31
0.0
  0
ARC
  5
C336
  8
0
 10
4766.7977021717942989
 20
219.4402081134647062
 30
0.0
 40
0.1043297934145001
 50
176.4565356303023123
 51
215.4956646155411022
  0
ARC
  5
C337
  8
0
 10
4766.6143704064197664
 20
219.3877213271215112
 30
0.0
 40
0.0987228255083173
 50
355.2987160055996014
 51
36.6534842402456391
  0
ARC
  5
C338
  8
0
 10
4766.7499381150882982
 20
219.6665217216400094
 30
0.0
 40
0.058183169508389
 50
147.7560594462763106
 51
218.3601849613430943
  0
ARC
  5
C339
  8
0
 10
4766.6606354091227331
 20
219.6617507206686071
 30
0.0
 40
0.0537584991274777
 50
324.3428377025002192
 51
41.7734067051189086
  0
ARC
  5
C33A
  8
0
 10
4767.2601047331263544
 20
177.7253946648673093
 30
0.0
 40
0.2755905511499996
 50
180.0
 51
0.0
  0
ARC
  5
C33B
  8
0
 10
4767.0264736612252818
 20
181.3154285495529905
 30
0.0
 40
0.4104753757946802
 50
95.8671186494874092
 51
118.5008472777953017
  0
ARC
  5
C33C
  8
0
 10
4767.4374645485813744
 20
181.3774498560740085
 30
0.0
 40
0.6763901409130786
 50
153.7926004911871019
 51
203.6548437582405882
  0
ARC
  5
C33D
  8
0
 10
4766.9662316724907214
 20
181.2694149579766929
 30
0.0
 40
0.2206446533607767
 50
227.7597477602735125
 51
266.1194758695331757
  0
ARC
  5
C33E
  8
0
 10
4766.3721780178129848
 20
181.4291066758349871
 30
0.0
 40
0.5207601747214623
 50
326.2637225647911237
 51
28.3206830978499404
  0
ARC
  5
C33F
  8
0
 10
4767.5040529375737606
 20
181.315428556779608
 30
0.0
 40
0.4104753757946802
 50
61.4991544944572794
 51
85.5788497457183865
  0
ARC
  5
C340
  8
0
 10
4767.0930620483013627
 20
181.377449850587908
 30
0.0
 40
0.6763901409130786
 50
336.3451580140124975
 51
26.2074012810665913
  0
ARC
  5
C341
  8
0
 10
4767.5642949277316802
 20
181.2694149670668082
 30
0.0
 40
0.2206446533607767
 50
267.101345980809981
 51
312.2402540119671812
  0
ARC
  5
C342
  8
0
 10
4767.5554019330356823
 20
181.5585205518551106
 30
0.0
 40
0.1566105635533007
 50
46.3021463762379568
 51
97.2288157052710318
  0
ARC
  5
C343
  8
0
 10
4767.4092822425691338
 20
181.405603561695898
 30
0.0
 40
0.3681160476941559
 50
23.9304433548416817
 51
46.3021463762379568
  0
ARC
  5
C344
  8
0
 10
4767.6136583912402784
 20
181.3408070242111023
 30
0.0
 40
0.1583892707977124
 50
240.5120429493568963
 51
259.4356624478801905
  0
ARC
  5
C345
  8
0
 10
4767.6095587676609284
 20
181.3188252181138864
 30
0.0
 40
0.136028440920795
 50
259.4356624478801905
 51
294.0257984674854015
  0
ARC
  5
C346
  8
0
 10
4767.593538483482007
 20
181.3547638067051082
 30
0.0
 40
0.1753760158789523
 50
294.0257984674854015
 51
356.2399213330210159
  0
ARC
  5
C347
  8
0
 10
4767.6940340910487066
 20
181.11356173644009
 30
0.0
 40
0.0200422405557294
 50
338.0332377490453268
 51
34.5212586267565413
  0
ARC
  5
C348
  8
0
 10
4767.5157404157516794
 20
180.8494717142575894
 30
0.0
 40
0.3373742716854627
 50
54.7306866960696965
 51
86.6091147457784842
  0
LINE
  5
C349
  8
0
 10
4766.9512992905438296
 20
181.1303539830707905
 30
0.0
 11
4766.9512992905438296
 21
180.7077219878509879
 31
0.0
  0
LINE
  5
C34A
  8
0
 10
4767.554622659827146
 20
181.1390311764016019
 30
0.0
 11
4767.5475493865897079
 21
180.7106281119667983
 31
0.0
  0
ARC
  5
C34B
  8
0
 10
4767.5073320100309502
 20
181.0450607267158887
 30
0.0
 40
0.1051991015757659
 50
51.3954730200351122
 51
74.3586311516230012
  0
ARC
  5
C34C
  8
0
 10
4767.5619828960989253
 20
181.1135096165226912
 30
0.0
 40
0.0176093198437767
 50
300.5299249321647039
 51
51.395473020034089
  0
ARC
  5
C34D
  8
0
 10
4768.460722749411616
 20
179.5895727446591934
 30
0.0
 40
1.751604322811845
 50
120.5299249321647039
 51
121.1781281521427047
  0
ARC
  5
C34E
  8
0
 10
4767.012877554345323
 20
181.0450605577705119
 30
0.0
 40
0.1051991015757659
 50
105.641408002080496
 51
128.6045661336304988
  0
ARC
  5
C34F
  8
0
 10
4766.9582266215020354
 20
181.1135094102309893
 30
0.0
 40
0.0176093198437767
 50
128.6045661336723072
 51
239.4701142215104142
  0
ARC
  5
C350
  8
0
 10
4766.0594878095871536
 20
179.5895719242045061
 30
0.0
 40
1.751604322811845
 50
59.393450533680813
 51
59.4701142215104497
  0
ARC
  5
C351
  8
0
 10
4767.0051974606249132
 20
180.733307589051293
 30
0.0
 40
0.0596626828681935
 50
205.3938133511377941
 51
249.7162110754470916
  0
ARC
  5
C352
  8
0
 10
4767.5136724191406756
 20
180.710900142148688
 30
0.0
 40
0.0338780596253463
 50
310.5463342996422966
 51
359.5399279359305069
  0
ARC
  5
C353
  8
0
 10
4767.5094247571669257
 20
180.7049593383306956
 30
0.0
 40
0.0388698304626231
 50
11.0156043775512504
 51
47.4791032166738276
  0
ARC
  5
C354
  8
0
 10
4767.0178742313382827
 20
180.7010781927097867
 30
0.0
 40
0.0669056257406603
 50
120.0370661563838013
 51
174.3010799628576137
  0
ARC
  5
C355
  8
0
 10
4767.0093586398379557
 20
180.7087029990111091
 30
0.0
 40
0.0465008695456384
 50
122.3552745274559044
 51
158.6236020181401898
  0
ARC
  5
C356
  8
0
 10
4766.9954855433170451
 20
180.7183408184586142
 30
0.0
 40
0.0303234392242687
 50
166.0476494655248132
 51
222.6438254964805026
  0
ARC
  5
C357
  8
0
 10
4767.0301247504667117
 20
180.7478688295265101
 30
0.0
 40
0.0758268366537125
 50
221.3245932053768001
 51
233.0219101401885951
  0
ENDSEC
  0
EOF
