  0
SECTION
  2
HEADER
  9
$ACADVER
  1
AC1009
  9
$INSBASE
 10
5010.4849919891858008
 20
308.3890287959416128
 30
0.0
  9
$EXTMIN
 10
4967.8048033806253443
 20
295.9646944504082171
 30
0.0
  9
$EXTMAX
 10
5023.923338445835725
 20
311.1080315523904005
 30
0.0
  9
$LIMMIN
 10
0.0
 20
0.0
  9
$LIMMAX
 10
11.6929133858000007
 20
8.2677165353999982
  9
$ORTHOMODE
 70
     0
  9
$REGENMODE
 70
     1
  9
$FILLMODE
 70
     1
  9
$QTEXTMODE
 70
     0
  9
$MIRRTEXT
 70
     0
  9
$DRAGMODE
 70
     2
  9
$LTSCALE
 40
0.6431102362
  9
$OSMODE
 70
  4095
  9
$ATTMODE
 70
     1
  9
$TEXTSIZE
 40
0.2
  9
$TRACEWID
 40
0.05
  9
$TEXTSTYLE
  7
STANDARD
  9
$CLAYER
  8
0
  9
$CELTYPE
  6
BYLAYER
  9
$CECOLOR
 62
   256
  9
$DIMSCALE
 40
1.0
  9
$DIMASZ
 40
0.1875
  9
$DIMEXO
 40
0.0625
  9
$DIMDLI
 40
0.4443307087
  9
$DIMRND
 40
0.0
  9
$DIMDLE
 40
0.0
  9
$DIMEXE
 40
0.125
  9
$DIMTP
 40
0.01
  9
$DIMTM
 40
0.01
  9
$DIMTXT
 40
2.0
  9
$DIMCEN
 40
0.1052362205
  9
$DIMTSZ
 40
0.0
  9
$DIMTOL
 70
     1
  9
$DIMLIM
 70
     0
  9
$DIMTIH
 70
     1
  9
$DIMTOH
 70
     1
  9
$DIMSE1
 70
     0
  9
$DIMSE2
 70
     0
  9
$DIMTAD
 70
     0
  9
$DIMZIN
 70
     0
  9
$DIMBLK
  1

  9
$DIMASO
 70
     1
  9
$DIMSHO
 70
     1
  9
$DIMPOST
  1
\X
  9
$DIMAPOST
  1

  9
$DIMALT
 70
     1
  9
$DIMALTD
 70
     2
  9
$DIMALTF
 40
25.3999999999999986
  9
$DIMLFAC
 40
1.0
  9
$DIMTOFL
 70
     0
  9
$DIMTVP
 40
0.0
  9
$DIMTIX
 70
     0
  9
$DIMSOXD
 70
     0
  9
$DIMSAH
 70
     0
  9
$DIMBLK1
  1

  9
$DIMBLK2
  1

  9
$DIMSTYLE
  2
STANDARD
  9
$DIMCLRD
 70
     0
  9
$DIMCLRE
 70
     0
  9
$DIMCLRT
 70
     0
  9
$DIMTFAC
 40
1.0
  9
$DIMGAP
 40
0.09
  9
$LUNITS
 70
     2
  9
$LUPREC
 70
     4
  9
$SKETCHINC
 40
0.1
  9
$FILLETRAD
 40
0.0
  9
$AUNITS
 70
     0
  9
$AUPREC
 70
     0
  9
$MENU
  1
.
  9
$ELEVATION
 40
0.0
  9
$PELEVATION
 40
0.0
  9
$THICKNESS
 40
0.0
  9
$LIMCHECK
 70
     0
  9
$BLIPMODE
 70
     0
  9
$CHAMFERA
 40
0.0
  9
$CHAMFERB
 40
0.0
  9
$SKPOLY
 70
     0
  9
$TDCREATE
 40
2458060.468368056230247
  9
$TDUPDATE
 40
2459930.5288773151114583
  9
$TDINDWG
 40
0.5672408565
  9
$TDUSRTIMER
 40
0.5672408565
  9
$USRTIMER
 70
     1
  9
$ANGBASE
 50
0.0
  9
$ANGDIR
 70
     0
  9
$PDMODE
 70
     0
  9
$PDSIZE
 40
0.3125
  9
$PLINEWID
 40
0.0
  9
$COORDS
 70
     1
  9
$SPLFRAME
 70
     0
  9
$SPLINETYPE
 70
     6
  9
$SPLINESEGS
 70
     8
  9
$ATTDIA
 70
     1
  9
$ATTREQ
 70
     1
  9
$HANDLING
 70
     1
  9
$HANDSEED
  5
2B609
  9
$SURFTAB1
 70
     6
  9
$SURFTAB2
 70
     6
  9
$SURFTYPE
 70
     6
  9
$SURFU
 70
     6
  9
$SURFV
 70
     6
  9
$UCSNAME
  2

  9
$UCSORG
 10
0.0
 20
0.0
 30
0.0
  9
$UCSXDIR
 10
1.0
 20
0.0
 30
0.0
  9
$UCSYDIR
 10
0.0
 20
1.0
 30
0.0
  9
$PUCSNAME
  2

  9
$PUCSORG
 10
0.0
 20
0.0
 30
0.0
  9
$PUCSXDIR
 10
1.0
 20
0.0
 30
0.0
  9
$PUCSYDIR
 10
0.0
 20
1.0
 30
0.0
  9
$USERI1
 70
     0
  9
$USERI2
 70
     0
  9
$USERI3
 70
     0
  9
$USERI4
 70
     0
  9
$USERI5
 70
     0
  9
$USERR1
 40
0.0
  9
$USERR2
 40
0.0
  9
$USERR3
 40
0.0
  9
$USERR4
 40
0.0
  9
$USERR5
 40
0.0
  9
$WORLDVIEW
 70
     1
  9
$SHADEDGE
 70
     3
  9
$SHADEDIF
 70
    70
  9
$TILEMODE
 70
     1
  9
$MAXACTVP
 70
    64
  9
$PLIMCHECK
 70
     0
  9
$PEXTMIN
 10
1.0000000000000000E+20
 20
1.0000000000000000E+20
 30
1.0000000000000000E+20
  9
$PEXTMAX
 10
-1.0000000000000000E+20
 20
-1.0000000000000000E+20
 30
-1.0000000000000000E+20
  9
$PLIMMIN
 10
0.0
 20
0.0
  9
$PLIMMAX
 10
12.0
 20
9.0
  9
$UNITMODE
 70
     0
  9
$VISRETAIN
 70
     1
  9
$PLINEGEN
 70
     0
  9
$PSLTSCALE
 70
     1
  0
ENDSEC
  0
SECTION
  2
TABLES
  0
TABLE
  2
VPORT
 70
     1
  0
VPORT
  2
*ACTIVE
 70
     0
 10
0.0
 20
0.0
 11
1.0
 21
1.0
 12
1100.3169443919121022
 22
170.8194457811434006
 13
0.0
 23
0.0
 14
1.0
 24
1.0
 15
0.0
 25
0.0
 16
0.0
 26
0.0
 36
60.4960186965801583
 17
3911.3653564453120453
 27
132.5796051025390057
 37
0.0
 40
22.0194168224992417
 41
2.7227011494252871
 42
50.0
 43
0.0
 44
0.0
 50
0.0
 51
0.0
 71
     0
 72
   100
 73
     1
 74
     1
 75
     0
 76
     0
 77
     0
 78
     0
  0
ENDTAB
  0
TABLE
  2
LTYPE
 70
     2
  0
LTYPE
  2
CONTINUOUS
 70
     0
  3
Solid line
 72
    65
 73
     0
 40
0.0
  0
LTYPE
  2
PHANTOM2
 70
     0
  3
___ _ _ ___ _ _ ___ _ _ ___ _ _
 72
    65
 73
     6
 40
1.25
 49
0.625
 49
-0.125
 49
0.125
 49
-0.125
 49
0.125
 49
-0.125
  0
ENDTAB
  0
TABLE
  2
LAYER
 70
     2
  0
LAYER
  2
0
 70
     0
 62
   255
  6
CONTINUOUS
  0
LAYER
  2
DEFPOINTS
 70
     0
 62
     7
  6
CONTINUOUS
  0
ENDTAB
  0
TABLE
  2
STYLE
 70
     1
  0
STYLE
  2
STANDARD
 70
     0
 40
0.0
 41
0.8
 50
0.0
 71
     0
 42
0.2
  3
txt
  4

  0
ENDTAB
  0
TABLE
  2
VIEW
 70
     0
  0
ENDTAB
  0
TABLE
  2
UCS
 70
     0
  0
ENDTAB
  0
TABLE
  2
APPID
 70
    11
  0
APPID
  2
ACAD
 70
     0
  0
APPID
  2
ACAD_MLEADERVER
 70
     0
  0
APPID
  2
ACAD_EXEMPT_FROM_CAD_STANDARDS
 70
     0
  0
APPID
  2
ACAD_NAV_VCDISPLAY
 70
     0
  0
APPID
  2
ACAECLAYERSTANDARD
 70
     0
  0
APPID
  2
ACCMTRANSPARENCY
 70
     0
  0
APPID
  2
ACAD_DSTYLE_DIMJAG
 70
     0
  0
APPID
  2
ACAD_DSTYLE_DIMTALN
 70
     0
  0
APPID
  2
ACDBATTR
 70
     0
  0
APPID
  2
ACADANNOTATIVE
 70
     0
  0
APPID
  2
DCO15
 70
     0
  0
ENDTAB
  0
TABLE
  2
DIMSTYLE
 70
     1
  0
DIMSTYLE
  2
STANDARD
 70
     0
  3

  4

  5

  6

  7

 40
1.0
 41
0.1875
 42
0.0625
 43
0.38
 44
0.125
 45
0.0
 46
0.0
 47
0.01
 48
0.01
140
0.15625
141
0.09
142
0.0
143
25.3999999999999986
144
1.0
145
0.0
146
1.0
147
0.09
 71
     1
 72
     0
 73
     1
 74
     1
 75
     0
 76
     0
 77
     0
 78
     4
170
     0
171
     2
172
     0
173
     0
174
     0
175
     0
176
     0
177
     0
178
     0
  0
ENDTAB
  0
ENDSEC
  0
SECTION
  2
BLOCKS
  0
BLOCK
  8
0
  2
$MODEL_SPACE
 70
     0
 10
0.0
 20
0.0
 30
0.0
  3
$MODEL_SPACE
  1

  0
ENDBLK
  5
21
  8
0
  0
BLOCK
 67
     1
  8
0
  2
$PAPER_SPACE
 70
     0
 10
0.0
 20
0.0
 30
0.0
  3
$PAPER_SPACE
  1

  0
ENDBLK
  5
1D
 67
     1
  8
0
  0
BLOCK
  8
0
  2
_FILLED
 70
     0
 10
0.0
 20
0.0
 30
0.0
  3
_FILLED
  1

  0
SOLID
  5
2853B
  8
0
  6
BYBLOCK
 62
     0
 10
0.0
 20
0.0
 30
0.0
 11
-1.0
 21
0.1666666667
 31
0.0
 12
-1.0
 22
-0.1666666667
 32
0.0
 13
-1.0
 23
-0.1666666667
 33
0.0
  0
ENDBLK
  5
2853C
  8
0
  6
BYBLOCK
 62
     0
  0
ENDSEC
  0
SECTION
  2
ENTITIES
  0
ATTDEF
  5
2842F
  8
DEFPOINTS
 10
5010.4849312202532019
 20
308.3874856306763945
 30
0.0
 40
0.001
  1
K-98107T
  3

  2
MODELNUMBER
 70
     0
1001
ACDBATTR
1070
     0
1070
     1
  0
ATTDEF
  5
28430
  8
DEFPOINTS
 10
5010.4848054105950723
 20
308.3858187902973214
 30
0.0
 40
0.001
  1
REVIVAL
  3

  2
TRADENAME
 70
     0
1001
ACDBATTR
1070
     0
1070
     1
  0
ATTDEF
  5
28431
  8
DEFPOINTS
 10
5010.4849312202532019
 20
308.3841522973431211
 30
0.0
 40
0.001
  1
HOTELIER
  3

  2
PRODUCT
 70
     0
1001
ACDBATTR
1070
     0
1070
     1
  0
LINE
  5
2B0E3
  8
0
 10
5022.1195880670193219
 20
310.3083201345415887
 30
0.0
 11
4998.8503959113522797
 21
310.3083201345415887
 31
0.0
  0
LINE
  5
2B0E4
  8
0
 10
5022.1195880670193219
 20
309.9343043865414984
 30
0.0
 11
4998.8503959113522797
 21
309.9343043865414984
 31
0.0
  0
LINE
  5
2B0E5
  8
0
 10
4999.3569604931353751
 20
306.3033486905414975
 30
0.0
 11
5021.6130234852362264
 21
306.3033486905414975
 31
0.0
  0
LINE
  5
2B0E6
  8
0
 10
5021.6130234852362264
 20
305.6813014465415108
 30
0.0
 11
4999.3569604931353751
 21
305.6813014465415108
 31
0.0
  0
CIRCLE
  5
2B0E7
  8
0
 10
4998.4968028471348589
 20
310.121312260541572
 30
0.0
 40
0.4000000000000004
  0
CIRCLE
  5
2B0E8
  8
0
 10
4998.4968028471348589
 20
310.121312260541572
 30
0.0
 40
0.3399999999999999
  0
CIRCLE
  5
2B0E9
  8
0
 10
4998.4968028471348589
 20
310.121312260541572
 30
0.0
 40
0.3048263065999999
  0
LINE
  5
2B0EA
  8
0
 10
4998.2999524534361626
 20
306.386891046098583
 30
0.0
 11
4998.2999524534361626
 21
308.0268240715416255
 31
0.0
  0
LINE
  5
2B0EB
  8
0
 10
4998.2999524534361626
 20
308.7512335203414864
 30
0.0
 11
4998.2999524534361626
 21
309.7731026648951911
 31
0.0
  0
LINE
  5
2B0EC
  8
0
 10
4998.6936532408353742
 20
306.3868910479445731
 30
0.0
 11
4998.6936532408353742
 21
308.0268240715416255
 31
0.0
  0
LINE
  5
2B0ED
  8
0
 10
4998.6936532408353742
 20
308.7512335203414864
 30
0.0
 11
4998.6936532408353742
 21
309.7731026648951911
 31
0.0
  0
ARC
  5
2B0EE
  8
0
 10
4998.4968028489856806
 20
308.3890287959416128
 30
0.0
 40
0.4400000018500024
 50
116.5761764738810058
 51
243.4238235261190084
  0
ARC
  5
2B0EF
  8
0
 10
4998.4968028489856806
 20
308.3890287959416128
 30
0.0
 40
0.4400000018500024
 50
296.5761759351490241
 51
63.4238240648510399
  0
LINE
  5
2B0F0
  8
0
 10
4998.1566455325346396
 20
306.2729055185719744
 30
0.0
 11
4998.1566455325346396
 21
305.7117446185110907
 31
0.0
  0
LINE
  5
2B0F1
  8
0
 10
4998.8369604931358481
 20
306.2729051212896252
 30
0.0
 11
4998.8369604931358481
 21
305.7117450157934968
 31
0.0
  0
ARC
  5
2B0F2
  8
0
 10
4998.4968028489856806
 20
305.9923250685415042
 30
0.0
 40
0.4409448818999695
 50
219.5176862607374062
 51
320.4823806570959164
  0
ARC
  5
2B0F3
  8
0
 10
4998.4968028489856806
 20
305.9923250685415042
 30
0.0
 40
0.4409448818999695
 50
39.5176193429041476
 51
140.4823137392625938
  0
LINE
  5
2B0F4
  8
0
 10
4998.7466182593398116
 20
308.7512335203414864
 30
0.0
 11
4998.2469874386315496
 21
308.7512335203414864
 31
0.0
  0
LINE
  5
2B0F5
  8
0
 10
4998.2469874386315496
 20
308.0268240715416255
 30
0.0
 11
4998.7466182593398116
 21
308.0268240715416255
 31
0.0
  0
ARC
  5
2B0F6
  8
0
 10
4998.4968028489856806
 20
308.3890287959416128
 30
0.0
 40
1.1499999981499991
 50
99.8560998663962351
 51
260.1439001336037791
  0
ARC
  5
2B0F7
  8
0
 10
4998.4968028489856806
 20
308.3890287959416128
 30
0.0
 40
1.1499999981499991
 50
279.856099679320323
 51
80.1439003206796343
  0
ARC
  5
2B0F8
  8
0
 10
4998.4968028489856806
 20
308.3890287959416128
 30
0.0
 40
1.0899999981499979
 50
100.4045174327059016
 51
259.5954825672940274
  0
ARC
  5
2B0F9
  8
0
 10
4998.4968028489856806
 20
308.3890287959416128
 30
0.0
 40
1.0899999981499979
 50
280.4045172349789823
 51
79.5954827650210461
  0
ARC
  5
2B0FA
  8
0
 10
4998.4968028489856806
 20
308.3890287959416128
 30
0.0
 40
0.899999998150001
 50
102.6340198789824996
 51
257.3659801210175146
  0
ARC
  5
2B0FB
  8
0
 10
4998.4968028489856806
 20
308.3890287959416128
 30
0.0
 40
0.899999998150001
 50
282.634019637599522
 51
77.3659803624004923
  0
ARC
  5
2B0FC
  8
0
 10
4998.4968028489856806
 20
308.3890287959416128
 30
0.0
 40
0.8349999981499989
 50
103.6357765197065959
 51
256.3642234802933899
  0
ARC
  5
2B0FD
  8
0
 10
4998.4968028489856806
 20
308.3890287959416128
 30
0.0
 40
0.8349999981499989
 50
283.6357762584614761
 51
76.364223741538467
  0
LINE
  5
2B0FE
  8
0
 10
4997.2445869991352083
 20
306.314889544773223
 30
0.0
 11
4997.2445869991352083
 21
305.669760592309899
 31
0.0
  0
LINE
  5
2B100
  8
0
 10
4997.1588942955349921
 20
306.2971513752441979
 30
0.0
 11
4997.1588942955349921
 21
305.6874987620234947
 31
0.0
  0
LINE
  5
2B101
  8
0
 10
4997.277043814836361
 20
306.3178458919560967
 30
0.0
 11
4997.277043814836361
 21
305.6668042451270253
 31
0.0
  0
LINE
  5
2B103
  8
0
 10
4997.7089214616362369
 20
306.3151411389234227
 30
0.0
 11
4997.7089214616362369
 21
305.669508998159813
 31
0.0
  0
LINE
  5
2B104
  8
0
 10
4997.7966455325349671
 20
306.2823250685415815
 30
0.0
 11
4997.7966455325349671
 21
305.7023250685415974
 31
0.0
  0
LINE
  5
2B106
  8
0
 10
4998.8845940378359956
 20
306.214825068541586
 30
0.0
 11
4998.8845940378359956
 21
305.7698250685415928
 31
0.0
  0
LINE
  5
2B108
  8
0
 10
4999.3569604931353751
 20
306.3723250685414996
 30
0.0
 11
4999.3569604931353751
 21
305.6123250685416224
 31
0.0
  0
LINE
  5
2B109
  8
0
 10
4999.2628879494350258
 20
306.3959388545957268
 30
0.0
 11
4999.2628879494350258
 21
305.5887112824873952
 31
0.0
  0
ARC
  5
2B10B
  8
0
 10
4997.5066455325350034
 20
305.9923250685415042
 30
0.0
 40
0.4599999999999955
 50
140.1895984477677928
 51
219.8104015522322072
  0
ARC
  5
2B10C
  8
0
 10
4997.1302435525558394
 20
306.3060471594869227
 30
0.0
 40
0.0300000008976867
 50
320.1895986061717849
 51
342.7509260865456895
  0
ARC
  5
2B10D
  8
0
 10
4997.206645532535731
 20
306.2823250685415815
 30
0.0
 40
0.0500000000000007
 50
40.6388972053177326
 51
162.7509265868376929
  0
ARC
  5
2B10E
  8
0
 10
4997.2597635858655849
 20
306.327915335106411
 30
0.0
 40
0.0199999999648697
 50
220.6388966898462058
 51
329.7700167431187879
  0
ARC
  5
2B10F
  8
0
 10
4997.4066455325346396
 20
306.2423250685416178
 30
0.0
 40
0.1500000000000004
 50
81.3922050075942565
 51
149.7700168959316045
  0
ARC
  5
2B110
  8
0
 10
4997.2981359293271453
 20
305.5254912928415933
 30
0.0
 40
0.8749999972224518
 50
63.7608525966345923
 51
81.3922742384331457
  0
ARC
  5
2B111
  8
0
 10
4997.6938318333295683
 20
306.3282675671458719
 30
0.0
 40
0.0200000000068962
 50
243.7622034718957877
 51
318.9800777519084818
  0
ARC
  5
2B112
  8
0
 10
4997.7466455325356947
 20
306.2823250685415815
 30
0.0
 40
0.0500000000000001
 50
0.0
 51
138.980077831222701
  0
ARC
  5
2B113
  8
0
 10
4997.8165538974044466
 20
306.2787444933288725
 30
0.0
 40
0.0199999999675126
 50
185.4868049060133899
 51
252.7817763252405996
  0
ARC
  5
2B114
  8
0
 10
4998.1055802153923651
 20
307.2077885558086905
 30
0.0
 40
0.9929640587383687
 50
252.7203057114323883
 51
270.0614706982257758
  0
LINE
  5
2B115
  8
0
 10
4998.1566455325346396
 20
306.214825068541586
 30
0.0
 11
4998.1066455325353672
 21
306.214825068541586
 31
0.0
  0
LINE
  5
2B116
  8
0
 10
4998.8845940378359956
 20
306.214825068541586
 30
0.0
 11
4998.8369604931358481
 21
306.214825068541586
 31
0.0
  0
LINE
  5
2B117
  8
0
 10
4998.8892849601352282
 20
306.2153829686972131
 30
0.0
 11
4998.8845940378359956
 21
306.214825068541586
 31
0.0
  0
ARC
  5
2B118
  8
0
 10
4999.3069604931351932
 20
306.3723250685414996
 30
0.0
 40
0.0499999999999998
 50
0.0
 51
151.8178798006582042
  0
ARC
  5
2B119
  8
0
 10
4998.6547388512808539
 20
307.1874879652622781
 30
0.0
 40
1.000000000760338
 50
283.5648689528007935
 51
307.0542913732879242
  0
LINE
  5
2B11A
  8
0
 10
4999.2628879494350258
 20
306.3959388543751743
 30
0.0
 11
4999.2573103622353301
 21
306.3894230708415876
 31
0.0
  0
ARC
  5
2B11B
  8
0
 10
4997.1302435525558394
 20
305.6786029775961993
 30
0.0
 40
0.0300000008976867
 50
17.2490739134542608
 51
39.8104013938282293
  0
ARC
  5
2B11C
  8
0
 10
4997.206645532535731
 20
305.7023250685415974
 30
0.0
 40
0.0500000000000007
 50
197.2490734131621934
 51
319.3611027946823242
  0
ARC
  5
2B11D
  8
0
 10
4997.2597635858655849
 20
305.656734801976711
 30
0.0
 40
0.0199999999648697
 50
30.2299832568811908
 51
139.3611033101537942
  0
ARC
  5
2B11E
  8
0
 10
4997.4066455325346396
 20
305.7423250685415042
 30
0.0
 40
0.1500000000000004
 50
210.2299831040683102
 51
278.6077949924056725
  0
ARC
  5
2B11F
  8
0
 10
4997.2981359293271453
 20
306.4591588442414718
 30
0.0
 40
0.8749999972224518
 50
278.6077257615668259
 51
296.2391474033653935
  0
ARC
  5
2B120
  8
0
 10
4997.6938318333295683
 20
305.6563825699373069
 30
0.0
 40
0.0200000000068962
 50
41.0199222480914329
 51
116.237796528104198
  0
ARC
  5
2B121
  8
0
 10
4997.7466455325356947
 20
305.7023250685415974
 30
0.0
 40
0.0500000000000001
 50
221.019922168777299
 51
0.0
  0
ARC
  5
2B122
  8
0
 10
4997.8165538974044466
 20
305.7059056437541926
 30
0.0
 40
0.0199999999675126
 50
107.2182236747593009
 51
174.5131950939866101
  0
ARC
  5
2B123
  8
0
 10
4998.1055802153923651
 20
304.7768615812744883
 30
0.0
 40
0.9929640587383687
 50
89.9385293017742669
 51
107.2796942885675975
  0
LINE
  5
2B124
  8
0
 10
4998.1566455325346396
 20
305.7698250685414791
 30
0.0
 11
4998.1066455325353672
 21
305.7698250685415928
 31
0.0
  0
LINE
  5
2B125
  8
0
 10
4998.8845940378359956
 20
305.7698250685415928
 30
0.0
 11
4998.8369604931358481
 21
305.7698250685415928
 31
0.0
  0
LINE
  5
2B126
  8
0
 10
4998.8892849601352282
 20
305.7692671683859089
 30
0.0
 11
4998.8845940378359956
 21
305.7698250685415928
 31
0.0
  0
ARC
  5
2B127
  8
0
 10
4999.3069604931351932
 20
305.6123250685416224
 30
0.0
 40
0.0499999999999998
 50
208.1821201993417958
 51
0.0
  0
ARC
  5
2B128
  8
0
 10
4998.6547388512808539
 20
304.7971621718207871
 30
0.0
 40
1.000000000760338
 50
52.9457086267121397
 51
76.4351310471991638
  0
LINE
  5
2B129
  8
0
 10
4999.2628879494350258
 20
305.5887112827078909
 30
0.0
 11
4999.2573103622353301
 21
305.5952270662415913
 31
0.0
  0
CIRCLE
  5
2B12A
  8
0
 10
5022.4731811312349237
 20
310.121312260541572
 30
0.0
 40
0.4000000000000004
  0
CIRCLE
  5
2B12B
  8
0
 10
5022.4731811312349237
 20
310.121312260541572
 30
0.0
 40
0.3399999999999999
  0
CIRCLE
  5
2B12C
  8
0
 10
5022.4731811312349237
 20
310.121312260541572
 30
0.0
 40
0.3048263065999999
  0
LINE
  5
2B12D
  8
0
 10
5022.6700315249354389
 20
306.3868910460986967
 30
0.0
 11
5022.6700315249354389
 21
308.0268240715416255
 31
0.0
  0
LINE
  5
2B12E
  8
0
 10
5022.6700315249354389
 20
308.7512335203416001
 30
0.0
 11
5022.6700315249354389
 21
309.7731026648953048
 31
0.0
  0
LINE
  5
2B12F
  8
0
 10
5022.2763307375353179
 20
306.3868910479445731
 30
0.0
 11
5022.2763307375353179
 21
308.0268240715416255
 31
0.0
  0
LINE
  5
2B130
  8
0
 10
5022.2763307375353179
 20
308.7512335203416001
 30
0.0
 11
5022.2763307375353179
 21
309.7731026648953048
 31
0.0
  0
ARC
  5
2B131
  8
0
 10
5022.4731811293850114
 20
308.3890287959416128
 30
0.0
 40
0.4400000018500024
 50
296.5761764738809916
 51
63.4238235261190084
  0
ARC
  5
2B132
  8
0
 10
5022.4731811293850114
 20
308.3890287959416128
 30
0.0
 40
0.4400000018500024
 50
116.5761759351488962
 51
243.4238240648510896
  0
LINE
  5
2B133
  8
0
 10
5022.8133384458351429
 20
306.2729055185720881
 30
0.0
 11
5022.8133384458351429
 21
305.7117446185110907
 31
0.0
  0
LINE
  5
2B134
  8
0
 10
5022.1330234852357535
 20
306.2729051212896252
 30
0.0
 11
5022.1330234852357535
 21
305.7117450157936105
 31
0.0
  0
ARC
  5
2B135
  8
0
 10
5022.4731811293850114
 20
305.9923250685415042
 30
0.0
 40
0.4409448818999695
 50
219.517619342904112
 51
320.4823137392626222
  0
ARC
  5
2B136
  8
0
 10
5022.4731811293850114
 20
305.9923250685415042
 30
0.0
 40
0.4409448818999695
 50
39.517686260737392
 51
140.4823806570958027
  0
LINE
  5
2B137
  8
0
 10
5022.2233657190317899
 20
308.7512335203416001
 30
0.0
 11
5022.7229965397391425
 21
308.7512335203416001
 31
0.0
  0
LINE
  5
2B138
  8
0
 10
5022.7229965397391425
 20
308.0268240715416255
 30
0.0
 11
5022.2233657190317899
 21
308.0268240715416255
 31
0.0
  0
ARC
  5
2B139
  8
0
 10
5022.4731811293850114
 20
308.3890287959416128
 30
0.0
 40
1.1499999981499991
 50
279.8560998663962209
 51
80.1439001336037649
  0
ARC
  5
2B13A
  8
0
 10
5022.4731811293850114
 20
308.3890287959416128
 30
0.0
 40
1.1499999981499991
 50
99.8560996793203515
 51
260.143900320679677
  0
ARC
  5
2B13B
  8
0
 10
5022.4731811293850114
 20
308.3890287959416128
 30
0.0
 40
1.0899999981499979
 50
280.4045174327059726
 51
79.5954825672940416
  0
ARC
  5
2B13C
  8
0
 10
5022.4731811293850114
 20
308.3890287959416128
 30
0.0
 40
1.0899999981499979
 50
100.404517234978897
 51
259.5954827650210177
  0
ARC
  5
2B13D
  8
0
 10
5022.4731811293850114
 20
308.3890287959416128
 30
0.0
 40
0.899999998150001
 50
282.634019878982599
 51
77.3659801210174436
  0
ARC
  5
2B13E
  8
0
 10
5022.4731811293850114
 20
308.3890287959416128
 30
0.0
 40
0.899999998150001
 50
102.6340196375994935
 51
257.365980362400478
  0
ARC
  5
2B13F
  8
0
 10
5022.4731811293850114
 20
308.3890287959416128
 30
0.0
 40
0.8349999981499989
 50
283.6357765197066101
 51
76.3642234802934041
  0
ARC
  5
2B140
  8
0
 10
5022.4731811293850114
 20
308.3890287959416128
 30
0.0
 40
0.8349999981499989
 50
103.6357762584615045
 51
256.3642237415385239
  0
LINE
  5
2B141
  8
0
 10
5023.7253969792345742
 20
306.314889544773223
 30
0.0
 11
5023.7253969792345742
 21
305.669760592309899
 31
0.0
  0
LINE
  5
2B143
  8
0
 10
5023.8110896828356999
 20
306.2971513752441979
 30
0.0
 11
5023.8110896828356999
 21
305.6874987620234947
 31
0.0
  0
LINE
  5
2B144
  8
0
 10
5023.6929401635352406
 20
306.3178458919560967
 30
0.0
 11
5023.6929401635352406
 21
305.6668042451270821
 31
0.0
  0
LINE
  5
2B146
  8
0
 10
5023.2610625167353646
 20
306.3151411389234227
 30
0.0
 11
5023.2610625167353646
 21
305.669508998159813
 31
0.0
  0
LINE
  5
2B147
  8
0
 10
5023.173338445835725
 20
306.2823250685415815
 30
0.0
 11
5023.173338445835725
 21
305.7023250685415974
 31
0.0
  0
LINE
  5
2B149
  8
0
 10
5022.0853899405346965
 20
306.214825068541586
 30
0.0
 11
5022.0853899405346965
 21
305.7698250685415928
 31
0.0
  0
LINE
  5
2B14B
  8
0
 10
5021.6130234852362264
 20
306.3723250685416133
 30
0.0
 11
5021.6130234852362264
 21
305.6123250685416224
 31
0.0
  0
LINE
  5
2B14C
  8
0
 10
5021.7070960289356663
 20
306.3959388545957268
 30
0.0
 11
5021.7070960289356663
 21
305.5887112824875089
 31
0.0
  0
ARC
  5
2B14E
  8
0
 10
5023.4633384458356886
 20
305.9923250685415042
 30
0.0
 40
0.4599999999999955
 50
320.1895984477678212
 51
39.810401552232193
  0
ARC
  5
2B14F
  8
0
 10
5023.8397404258148526
 20
306.3060471594869796
 30
0.0
 40
0.0300000008976867
 50
197.2490739134541968
 51
219.8104013938281867
  0
ARC
  5
2B150
  8
0
 10
5023.763338445834961
 20
306.2823250685415815
 30
0.0
 40
0.0500000000000007
 50
17.2490734131622609
 51
139.3611027946822958
  0
ARC
  5
2B151
  8
0
 10
5023.7102203925051072
 20
306.3279153351065247
 30
0.0
 40
0.0199999999648697
 50
210.2299832568812121
 51
319.3611033101537942
  0
ARC
  5
2B152
  8
0
 10
5023.5633384458360524
 20
306.2423250685416178
 30
0.0
 40
0.1500000000000004
 50
30.2299831040683493
 51
98.6077949924057293
  0
ARC
  5
2B153
  8
0
 10
5023.6718480490435468
 20
305.5254912928415933
 30
0.0
 40
0.8749999972224518
 50
98.6077257615668543
 51
116.2391474033653935
  0
ARC
  5
2B154
  8
0
 10
5023.2761521450411237
 20
306.3282675671458719
 30
0.0
 40
0.0200000000068962
 50
221.0199222480914045
 51
296.2377965281041838
  0
ARC
  5
2B155
  8
0
 10
5023.2233384458349974
 20
306.2823250685415815
 30
0.0
 40
0.0500000000000001
 50
41.0199221687773274
 51
180.0
  0
ARC
  5
2B156
  8
0
 10
5023.1534300809671549
 20
306.2787444933289862
 30
0.0
 40
0.0199999999675126
 50
287.218223674759372
 51
354.5131950939866101
  0
ARC
  5
2B157
  8
0
 10
5022.864403762978327
 20
307.2077885558086905
 30
0.0
 40
0.9929640587383687
 50
269.9385293017742811
 51
287.2796942885677254
  0
LINE
  5
2B158
  8
0
 10
5022.8133384458351429
 20
306.214825068541586
 30
0.0
 11
5022.8633384458353248
 21
306.214825068541586
 31
0.0
  0
LINE
  5
2B159
  8
0
 10
5022.0853899405346965
 20
306.214825068541586
 30
0.0
 11
5022.1330234852357535
 21
306.214825068541586
 31
0.0
  0
LINE
  5
2B15A
  8
0
 10
5022.0806990182363734
 20
306.2153829686973268
 30
0.0
 11
5022.0853899405346965
 21
306.214825068541586
 31
0.0
  0
ARC
  5
2B15B
  8
0
 10
5021.6630234852345893
 20
306.3723250685416133
 30
0.0
 40
0.0499999999999998
 50
28.18212019934181
 51
180.0
  0
ARC
  5
2B15C
  8
0
 10
5022.3152451270898382
 20
307.1874879652623918
 30
0.0
 40
1.000000000760338
 50
232.9457086267121042
 51
256.4351310471990928
  0
LINE
  5
2B15D
  8
0
 10
5021.7070960289356663
 20
306.3959388543751743
 30
0.0
 11
5021.7126736161362714
 21
306.3894230708415876
 31
0.0
  0
ARC
  5
2B15E
  8
0
 10
5023.8397404258148526
 20
305.6786029775961993
 30
0.0
 40
0.0300000008976867
 50
140.1895986061718133
 51
162.7509260865456895
  0
ARC
  5
2B15F
  8
0
 10
5023.7633384458358705
 20
305.7023250685415974
 30
0.0
 40
0.0500000000000007
 50
220.6388972053177042
 51
342.7509265868378066
  0
ARC
  5
2B160
  8
0
 10
5023.7102203925051072
 20
305.656734801976711
 30
0.0
 40
0.0199999999648697
 50
40.6388966898461987
 51
149.7700167431187879
  0
ARC
  5
2B161
  8
0
 10
5023.5633384458360524
 20
305.7423250685416178
 30
0.0
 40
0.1500000000000004
 50
261.3922050075943275
 51
329.7700168959316898
  0
ARC
  5
2B162
  8
0
 10
5023.6718480490435468
 20
306.4591588442414718
 30
0.0
 40
0.8749999972224518
 50
243.7608525966346065
 51
261.3922742384331741
  0
ARC
  5
2B163
  8
0
 10
5023.2761521450411237
 20
305.6563825699373069
 30
0.0
 40
0.0200000000068962
 50
63.7622034718958091
 51
138.9800777519085102
  0
ARC
  5
2B164
  8
0
 10
5023.2233384458349974
 20
305.7023250685415974
 30
0.0
 40
0.0500000000000001
 50
180.0
 51
318.9800778312226726
  0
ARC
  5
2B165
  8
0
 10
5023.1534300809671549
 20
305.7059056437541926
 30
0.0
 40
0.0199999999675126
 50
5.4868049060134023
 51
72.7817763252406422
  0
ARC
  5
2B166
  8
0
 10
5022.864403762978327
 20
304.776861581274602
 30
0.0
 40
0.9929640587383687
 50
72.7203057114323457
 51
90.0614706982257189
  0
LINE
  5
2B167
  8
0
 10
5022.8133384458351429
 20
305.7698250685415928
 30
0.0
 11
5022.8633384458353248
 21
305.7698250685415928
 31
0.0
  0
LINE
  5
2B168
  8
0
 10
5022.0853899405346965
 20
305.7698250685415928
 30
0.0
 11
5022.1330234852357535
 21
305.7698250685415928
 31
0.0
  0
LINE
  5
2B169
  8
0
 10
5022.0806990182363734
 20
305.7692671683859089
 30
0.0
 11
5022.0853899405346965
 21
305.7698250685415928
 31
0.0
  0
ARC
  5
2B16A
  8
0
 10
5021.6630234852345893
 20
305.6123250685416224
 30
0.0
 40
0.0499999999999998
 50
180.0
 51
331.8178798006582042
  0
ARC
  5
2B16B
  8
0
 10
5022.3152451270898382
 20
304.7971621718207871
 30
0.0
 40
1.000000000760338
 50
103.5648689528007935
 51
127.0542913732877963
  0
LINE
  5
2B16C
  8
0
 10
5021.7070960289356663
 20
305.5887112827078909
 30
0.0
 11
5021.7126736161362714
 21
305.5952270662415913
 31
0.0
  0
ENDSEC
  0
EOF
