  0
SECTION
  2
HEADER
  9
$ACADVER
  1
AC1009
  9
$INSBASE
 10
661.200520413411482
 20
108.7915819519817973
 30
0.0
  9
$EXTMIN
 10
659.2883648208030536
 20
104.1358894086142044
 30
-0.0000000349181948
  9
$EXTMAX
 10
663.1480727046794073
 20
110.1697640182439955
 30
0.0000000814935746
  9
$LIMMIN
 10
0.0
 20
0.0
  9
$LIMMAX
 10
11.6929133858000007
 20
8.2677165353999982
  9
$ORTHOMODE
 70
     0
  9
$REGENMODE
 70
     1
  9
$FILLMODE
 70
     1
  9
$QTEXTMODE
 70
     0
  9
$MIRRTEXT
 70
     0
  9
$DRAGMODE
 70
     2
  9
$LTSCALE
 40
0.6431102362
  9
$OSMODE
 70
  4095
  9
$ATTMODE
 70
     1
  9
$TEXTSIZE
 40
0.2
  9
$TRACEWID
 40
0.05
  9
$TEXTSTYLE
  7
STANDARD
  9
$CLAYER
  8
0
  9
$CELTYPE
  6
BYLAYER
  9
$CECOLOR
 62
   256
  9
$DIMSCALE
 40
1.0
  9
$DIMASZ
 40
0.1875
  9
$DIMEXO
 40
0.0625
  9
$DIMDLI
 40
0.4443307087
  9
$DIMRND
 40
0.0
  9
$DIMDLE
 40
0.0
  9
$DIMEXE
 40
0.125
  9
$DIMTP
 40
0.01
  9
$DIMTM
 40
0.01
  9
$DIMTXT
 40
1.0
  9
$DIMCEN
 40
0.1052362205
  9
$DIMTSZ
 40
0.0
  9
$DIMTOL
 70
     1
  9
$DIMLIM
 70
     0
  9
$DIMTIH
 70
     0
  9
$DIMTOH
 70
     1
  9
$DIMSE1
 70
     0
  9
$DIMSE2
 70
     0
  9
$DIMTAD
 70
     0
  9
$DIMZIN
 70
     0
  9
$DIMBLK
  1

  9
$DIMASO
 70
     1
  9
$DIMSHO
 70
     1
  9
$DIMPOST
  1
\X
  9
$DIMAPOST
  1

  9
$DIMALT
 70
     1
  9
$DIMALTD
 70
     2
  9
$DIMALTF
 40
25.3999999999999986
  9
$DIMLFAC
 40
1.0
  9
$DIMTOFL
 70
     0
  9
$DIMTVP
 40
0.0
  9
$DIMTIX
 70
     0
  9
$DIMSOXD
 70
     0
  9
$DIMSAH
 70
     0
  9
$DIMBLK1
  1

  9
$DIMBLK2
  1

  9
$DIMSTYLE
  2
STANDARD
  9
$DIMCLRD
 70
     0
  9
$DIMCLRE
 70
     0
  9
$DIMCLRT
 70
     0
  9
$DIMTFAC
 40
1.0
  9
$DIMGAP
 40
0.09
  9
$LUNITS
 70
     2
  9
$LUPREC
 70
     4
  9
$SKETCHINC
 40
0.1
  9
$FILLETRAD
 40
0.0
  9
$AUNITS
 70
     0
  9
$AUPREC
 70
     0
  9
$MENU
  1
.
  9
$ELEVATION
 40
0.0
  9
$PELEVATION
 40
0.0
  9
$THICKNESS
 40
0.0
  9
$LIMCHECK
 70
     0
  9
$BLIPMODE
 70
     0
  9
$CHAMFERA
 40
0.0
  9
$CHAMFERB
 40
0.0
  9
$SKPOLY
 70
     0
  9
$TDCREATE
 40
2458172.5207638889551163
  9
$TDUPDATE
 40
2459100.5120138889178634
  9
$TDINDWG
 40
0.3795377546
  9
$TDUSRTIMER
 40
0.3795377546
  9
$USRTIMER
 70
     1
  9
$ANGBASE
 50
0.0
  9
$ANGDIR
 70
     0
  9
$PDMODE
 70
     0
  9
$PDSIZE
 40
0.3125
  9
$PLINEWID
 40
0.0
  9
$COORDS
 70
     1
  9
$SPLFRAME
 70
     0
  9
$SPLINETYPE
 70
     6
  9
$SPLINESEGS
 70
     8
  9
$ATTDIA
 70
     1
  9
$ATTREQ
 70
     1
  9
$HANDLING
 70
     1
  9
$HANDSEED
  5
B823
  9
$SURFTAB1
 70
     6
  9
$SURFTAB2
 70
     6
  9
$SURFTYPE
 70
     6
  9
$SURFU
 70
     6
  9
$SURFV
 70
     6
  9
$UCSNAME
  2

  9
$UCSORG
 10
0.0
 20
0.0
 30
0.0
  9
$UCSXDIR
 10
1.0
 20
0.0
 30
0.0
  9
$UCSYDIR
 10
0.0
 20
1.0
 30
0.0
  9
$PUCSNAME
  2

  9
$PUCSORG
 10
0.0
 20
0.0
 30
0.0
  9
$PUCSXDIR
 10
1.0
 20
0.0
 30
0.0
  9
$PUCSYDIR
 10
0.0
 20
1.0
 30
0.0
  9
$USERI1
 70
     0
  9
$USERI2
 70
     0
  9
$USERI3
 70
     0
  9
$USERI4
 70
     0
  9
$USERI5
 70
     0
  9
$USERR1
 40
0.0
  9
$USERR2
 40
0.0
  9
$USERR3
 40
0.0
  9
$USERR4
 40
0.0
  9
$USERR5
 40
0.0
  9
$WORLDVIEW
 70
     1
  9
$SHADEDGE
 70
     3
  9
$SHADEDIF
 70
    70
  9
$TILEMODE
 70
     1
  9
$MAXACTVP
 70
    64
  9
$PLIMCHECK
 70
     0
  9
$PEXTMIN
 10
1.0000000000000000E+20
 20
1.0000000000000000E+20
 30
1.0000000000000000E+20
  9
$PEXTMAX
 10
-1.0000000000000000E+20
 20
-1.0000000000000000E+20
 30
-1.0000000000000000E+20
  9
$PLIMMIN
 10
0.0
 20
0.0
  9
$PLIMMAX
 10
12.0
 20
9.0
  9
$UNITMODE
 70
     0
  9
$VISRETAIN
 70
     1
  9
$PLINEGEN
 70
     0
  9
$PSLTSCALE
 70
     1
  0
ENDSEC
  0
SECTION
  2
TABLES
  0
TABLE
  2
VPORT
 70
     1
  0
VPORT
  2
*ACTIVE
 70
     0
 10
0.0
 20
0.0
 11
1.0
 21
1.0
 12
194.4760170549110967
 22
18.019679593499319
 13
0.0
 23
0.0
 14
1.0
 24
1.0
 15
0.0
 25
0.0
 16
0.0
 26
0.0
 36
24.1179433675886514
 17
466.74220170783002
 27
89.133147119929788
 37
0.0
 40
6.0716650560366432
 41
1.9968652037617549
 42
50.0
 43
0.0
 44
0.0
 50
0.0
 51
0.0
 71
     0
 72
   100
 73
     1
 74
     1
 75
     0
 76
     0
 77
     0
 78
     0
  0
ENDTAB
  0
TABLE
  2
LTYPE
 70
     2
  0
LTYPE
  2
CONTINUOUS
 70
     0
  3
Solid line
 72
    65
 73
     0
 40
0.0
  0
LTYPE
  2
PHANTOM2
 70
     0
  3
___ _ _ ___ _ _ ___ _ _ ___ _ _
 72
    65
 73
     6
 40
1.25
 49
0.625
 49
-0.125
 49
0.125
 49
-0.125
 49
0.125
 49
-0.125
  0
ENDTAB
  0
TABLE
  2
LAYER
 70
     2
  0
LAYER
  2
0
 70
     0
 62
   255
  6
CONTINUOUS
  0
LAYER
  2
DEFPOINTS
 70
     0
 62
     7
  6
CONTINUOUS
  0
ENDTAB
  0
TABLE
  2
STYLE
 70
     1
  0
STYLE
  2
STANDARD
 70
     0
 40
0.0
 41
0.8
 50
0.0
 71
     0
 42
0.2
  3
txt
  4

  0
ENDTAB
  0
TABLE
  2
VIEW
 70
     0
  0
ENDTAB
  0
TABLE
  2
UCS
 70
     0
  0
ENDTAB
  0
TABLE
  2
APPID
 70
    11
  0
APPID
  2
ACAD
 70
     0
  0
APPID
  2
ACAD_MLEADERVER
 70
     0
  0
APPID
  2
ACAD_EXEMPT_FROM_CAD_STANDARDS
 70
     0
  0
APPID
  2
ACAD_DSTYLE_DIMJAG
 70
     0
  0
APPID
  2
ACAD_DSTYLE_DIMTALN
 70
     0
  0
APPID
  2
ACAD_NAV_VCDISPLAY
 70
     0
  0
APPID
  2
ACAECLAYERSTANDARD
 70
     0
  0
APPID
  2
ACCMTRANSPARENCY
 70
     0
  0
APPID
  2
DCO15
 70
     0
  0
APPID
  2
ACDBATTR
 70
     0
  0
APPID
  2
ACADANNOTATIVE
 70
     0
  0
ENDTAB
  0
TABLE
  2
DIMSTYLE
 70
     1
  0
DIMSTYLE
  2
STANDARD
 70
     0
  3

  4

  5

  6

  7

 40
1.0
 41
0.1875
 42
0.0625
 43
0.38
 44
0.125
 45
0.0
 46
0.0
 47
0.01
 48
0.01
140
0.15625
141
0.09
142
0.0
143
25.3999999999999986
144
1.0
145
0.0
146
1.0
147
0.09
 71
     1
 72
     0
 73
     1
 74
     1
 75
     0
 76
     0
 77
     0
 78
     4
170
     0
171
     2
172
     0
173
     0
174
     0
175
     0
176
     0
177
     0
178
     0
  0
ENDTAB
  0
ENDSEC
  0
SECTION
  2
BLOCKS
  0
BLOCK
  8
0
  2
$MODEL_SPACE
 70
     0
 10
0.0
 20
0.0
 30
0.0
  3
$MODEL_SPACE
  1

  0
ENDBLK
  5
21
  8
0
  0
BLOCK
 67
     1
  8
0
  2
$PAPER_SPACE
 70
     0
 10
0.0
 20
0.0
 30
0.0
  3
$PAPER_SPACE
  1

  0
ENDBLK
  5
1D
 67
     1
  8
0
  0
ENDSEC
  0
SECTION
  2
ENTITIES
  0
ATTDEF
  5
829
  8
DEFPOINTS
 10
661.1977857041907782
 20
108.7966145616945965
 30
0.0
 40
0.001
  1
K-98128A
  3

  2
MODELNUMBER
 70
     0
1001
ACDBATTR
1070
     0
1070
     1
  0
ATTDEF
  5
82A
  8
DEFPOINTS
 10
661.1977857041907782
 20
108.794947895027903
 30
0.0
 40
0.001
  1
ELEVATION
  3

  2
TRADENAME
 70
     0
1001
ACDBATTR
1070
     0
1070
     1
  0
ATTDEF
  5
82B
  8
DEFPOINTS
 10
661.1977857041907782
 20
108.7932812283612947
 30
0.0
 40
0.001
  1
SHOWERHEAD
  3

  2
PRODUCT
 70
     0
1001
ACDBATTR
1070
     0
1070
     1
  0
ARC
  5
B2AF
  8
0
 10
661.2224358213213691
 20
104.0783446149234948
 30
0.0
 40
2.5991258966088249
 50
90.4831144425866256
 51
98.8136439001038553
  0
ARC
  5
B2B0
  8
0
 10
661.149488389396879
 20
103.9374143938262023
 30
0.0
 40
2.7288233799197799
 50
96.846313217985653
 51
113.9562202032731051
  0
ARC
  5
B2B1
  8
0
 10
660.6498008767963483
 20
105.0620428227006045
 30
0.0
 40
1.498182606468246
 50
113.9562202032731051
 51
140.4990341206244011
  0
ARC
  5
B2B2
  8
0
 10
660.1540219921057542
 20
105.470745433926794
 30
0.0
 40
0.8556606014534569
 50
140.4990341206244011
 51
175.991074267518286
  0
ARC
  5
B2B3
  8
0
 10
660.0493952677833249
 20
105.4780780261889959
 30
0.0
 40
0.7507772455206752
 50
175.991074267518286
 51
189.704244554292103
  0
ARC
  5
B2B4
  8
0
 10
660.7741591807794066
 20
105.602019451626802
 30
0.0
 40
1.4860623647233779
 50
189.704244554292103
 51
210.8694516307348863
  0
ARC
  5
B2B5
  8
0
 10
660.4252685068986466
 20
105.4303118683428977
 30
0.0
 40
1.0989508680566309
 50
212.5186029613574874
 51
235.9970131498249089
  0
ARC
  5
B2B6
  8
0
 10
660.8921118400110117
 20
106.1084702429973987
 30
0.0
 40
1.922241214956723
 50
235.7655214453031078
 51
252.5250011330479936
  0
ARC
  5
B2B7
  8
0
 10
661.1547272271540123
 20
106.8896616240872959
 30
0.0
 40
2.746285876994317
 50
252.1930370833466952
 51
263.8389418237076143
  0
ARC
  5
B2B8
  8
0
 10
661.3984872177144325
 20
110.8341400558064009
 30
0.0
 40
6.6965888570761676
 50
265.387620836305814
 51
268.3059561545335896
  0
ARC
  5
B2B9
  8
0
 10
661.2002799892014764
 20
103.1499029162661998
 30
0.0
 40
3.0120005488750738
 50
89.995426530532626
 51
96.1301225480179653
  0
ARC
  5
B2BA
  8
0
 10
661.1469438184991532
 20
103.5547965027924988
 30
0.0
 40
2.6037449881214241
 50
95.9146060126923032
 51
111.5160691596509963
  0
ARC
  5
B2BB
  8
0
 10
660.7905985418120736
 20
104.4586881885390994
 30
0.0
 40
1.6321472648948581
 50
111.5160691596509963
 51
125.992986792028006
  0
ARC
  5
B2BC
  8
0
 10
660.4652310199414842
 20
104.9066334564556939
 30
0.0
 40
1.0785056955225669
 50
125.992986792028006
 51
146.1810395828053117
  0
ARC
  5
B2BD
  8
0
 10
660.0611405275693642
 20
105.1773421562056967
 30
0.0
 40
0.592118682799406
 50
146.1810395828053117
 51
171.6907194366457077
  0
ARC
  5
B2BE
  8
0
 10
660.0639625139383497
 20
105.1769300060824008
 30
0.0
 40
0.5949706075512854
 50
171.6907194366457077
 51
205.8329028917787014
  0
ARC
  5
B2BF
  8
0
 10
660.3722683043765755
 20
105.3261893332329038
 30
0.0
 40
0.937506455542703
 50
205.8329028917779056
 51
236.1331350654091068
  0
ARC
  5
B2C0
  8
0
 10
661.0209765377685471
 20
106.2927760553282042
 30
0.0
 40
2.1015993484860989
 50
236.1331350654091068
 51
256.4926625336631218
  0
ARC
  5
B2C1
  8
0
 10
661.1973191275315003
 20
107.026881633960798
 30
0.0
 40
2.8565878977660528
 50
256.4926625336631218
 51
270.0642095447092856
  0
ARC
  5
B2C2
  8
0
 10
661.2000735398546567
 20
103.0967281243732998
 30
0.0
 40
3.1165022679421921
 50
89.9917843894686627
 51
95.9155255282570636
  0
ARC
  5
B2C3
  8
0
 10
661.1667168474006075
 20
103.4186609739404048
 30
0.0
 40
2.792845924636723
 50
95.9155255282570636
 51
110.8565237564403958
  0
ARC
  5
B2C4
  8
0
 10
660.7478211066229505
 20
104.5181431351504955
 30
0.0
 40
1.6162684029830701
 50
110.8565237564403958
 51
134.4693259547564139
  0
ARC
  5
B2C5
  8
0
 10
660.1322869713444561
 20
105.1451863626782028
 30
0.0
 40
0.7375958354804825
 50
134.4693259547564139
 51
170.5632405750228884
  0
ARC
  5
B2C6
  8
0
 10
659.9758771511836812
 20
105.1711829499690936
 30
0.0
 40
0.5790403108416169
 50
170.5632405750228884
 51
206.9785140968025132
  0
ARC
  5
B2C7
  8
0
 10
661.0171836854831326
 20
104.302940599116198
 30
0.0
 40
0.0402703849329144
 50
186.2312260131230914
 51
240.767442861419795
  0
ARC
  5
B2C8
  8
0
 10
661.0405948891345815
 20
104.3447741795061035
 30
0.0
 40
0.088209230399327
 50
240.767442861419795
 51
266.3944021311012875
  0
ARC
  5
B2C9
  8
0
 10
661.0418507003679451
 20
104.3647036559567027
 30
0.0
 40
0.1081782337157002
 50
266.3944021311012875
 51
293.072486172234278
  0
ARC
  5
B2CA
  8
0
 10
661.068690902774847
 20
104.3016938549033057
 30
0.0
 40
0.0396900486467731
 50
293.072486172234278
 51
349.7043987746824882
  0
ARC
  5
B2CB
  8
0
 10
661.071363187089446
 20
104.3033511433618941
 30
0.0
 40
0.0468829324737834
 50
30.1612337857185899
 51
78.9314250670398394
  0
ARC
  5
B2CC
  8
0
 10
661.03909590756939
 20
104.1894255715724995
 30
0.0
 40
0.1651747587339985
 50
75.5316769040272646
 51
109.2253500604681022
  0
ARC
  5
B2CD
  8
0
 10
660.9954062625728284
 20
104.3242081186081975
 30
0.0
 40
0.0237297672812036
 50
116.8016632736944018
 51
161.4537622726672907
  0
LINE
  5
B2CE
  8
0
 10
660.9771512197146421
 20
104.2985696052779048
 30
0.0
 11
660.9729088466184521
 21
104.3317558421454976
 31
0.0
  0
LINE
  5
B2CF
  8
0
 10
661.1077456205116505
 20
104.294626471731803
 30
0.0
 11
661.11189887123885
 21
104.3269067725805996
 31
0.0
  0
ARC
  5
B2D0
  8
0
 10
661.0423632299077781
 20
104.261746834099597
 30
0.0
 40
0.0312196650863434
 50
54.6272684594738891
 51
121.6277566447956957
  0
ARC
  5
B2D1
  8
0
 10
661.0562347812175403
 20
104.2827817836935935
 30
0.0
 40
0.0060993520423772
 50
294.309194030586923
 51
46.4639537997178635
  0
ARC
  5
B2D2
  8
0
 10
661.0434936840880482
 20
104.3038758067061025
 30
0.0
 40
0.0307080253179962
 50
230.8623789094988865
 51
299.7803734145001044
  0
ARC
  5
B2D3
  8
0
 10
661.0286897038754432
 20
104.2833665182759972
 30
0.0
 40
0.0056489684657043
 50
118.5295896598917977
 51
215.8554836070929071
  0
ARC
  5
B2D4
  8
0
 10
660.6715626647328463
 20
104.3757787017260057
 30
0.0
 40
0.0394408335541846
 50
189.9523814325094122
 51
235.0390020588696984
  0
ARC
  5
B2D5
  8
0
 10
660.6924566973352739
 20
104.405661746740293
 30
0.0
 40
0.0759039241762731
 50
235.0390020588696984
 51
256.4217348603153255
  0
ARC
  5
B2D6
  8
0
 10
660.6996598622599777
 20
104.4171142851783998
 30
0.0
 40
0.088832245853873
 50
253.638749596628287
 51
303.6502355729671194
  0
ARC
  5
B2D7
  8
0
 10
660.7234050497361295
 20
104.3736048758587032
 30
0.0
 40
0.0396940585723798
 50
309.9318830132149856
 51
349.1615248634707882
  0
ARC
  5
B2D8
  8
0
 10
660.6386106605668829
 20
104.4083419694913033
 30
0.0
 40
0.0109024653103501
 50
133.3090016913089073
 51
191.6009558817623883
  0
ARC
  5
B2D9
  8
0
 10
660.672609641780241
 20
104.3518438330956997
 30
0.0
 40
0.0766275738397198
 50
93.6490773409535677
 51
122.7711414483805044
  0
ARC
  5
B2DA
  8
0
 10
660.6838046608444301
 20
104.2911433160255967
 30
0.0
 40
0.1381110733114377
 50
56.161087711938201
 51
96.6826606925125134
  0
ARC
  5
B2DB
  8
0
 10
660.7516325658374399
 20
104.3947278052707048
 30
0.0
 40
0.0143654744557683
 50
357.3127550550639171
 51
50.7937951949622288
  0
LINE
  5
B2DC
  8
0
 10
660.7623910139116106
 20
104.3661407695317962
 30
0.0
 11
660.7659822431115799
 21
104.3940542932318039
 31
0.0
  0
LINE
  5
B2DD
  8
0
 10
660.6327153474115903
 20
104.3689621565317935
 30
0.0
 11
660.6279309119646541
 21
104.4061495462576943
 31
0.0
  0
ARC
  5
B2DE
  8
0
 10
660.697209421202956
 20
104.3337586079172041
 30
0.0
 40
0.0312196650863434
 50
54.6272684594738891
 51
121.6277566447956957
  0
ARC
  5
B2DF
  8
0
 10
660.7110809725126046
 20
104.3547935575112007
 30
0.0
 40
0.0060993520423772
 50
294.309194030586923
 51
46.4639537997178635
  0
ARC
  5
B2E0
  8
0
 10
660.6983398753831125
 20
104.3758875805235959
 30
0.0
 40
0.0307080253179962
 50
230.8623789094988865
 51
299.7803734145001044
  0
ARC
  5
B2E1
  8
0
 10
660.6835358951705075
 20
104.3553782920935049
 30
0.0
 40
0.0056489684657043
 50
118.5295896598917977
 51
215.8554836070929071
  0
ARC
  5
B2E2
  8
0
 10
660.6825034784629906
 20
104.2739959856496057
 30
0.0
 40
0.0394408335541846
 50
189.9523814325094122
 51
235.0390020588696984
  0
ARC
  5
B2E3
  8
0
 10
660.7033975110655319
 20
104.3038790306637935
 30
0.0
 40
0.0759039241762731
 50
235.0390020588696984
 51
256.4217348603153255
  0
ARC
  5
B2E4
  8
0
 10
660.710600675990122
 20
104.3153315691019003
 30
0.0
 40
0.088832245853873
 50
253.638749596628287
 51
303.6502355729671194
  0
ARC
  5
B2E5
  8
0
 10
660.7343458634661602
 20
104.2718221597823032
 30
0.0
 40
0.0396940585723798
 50
309.9318830132149856
 51
349.1615248634707882
  0
ARC
  5
B2E6
  8
0
 10
660.6495514742971409
 20
104.3065592534148038
 30
0.0
 40
0.0109024653103501
 50
133.3090016913089073
 51
191.6009558817615925
  0
ARC
  5
B2E7
  8
0
 10
660.6835504555101579
 20
104.2500611170192997
 30
0.0
 40
0.0766275738397198
 50
93.6490773409535677
 51
122.7711414483805044
  0
ARC
  5
B2E8
  8
0
 10
660.6947454745743471
 20
104.1893605999491967
 30
0.0
 40
0.1381110733114377
 50
56.161087711938201
 51
96.6826606925125134
  0
ARC
  5
B2E9
  8
0
 10
660.7625733795675842
 20
104.2929450891942054
 30
0.0
 40
0.0143654744557683
 50
357.3127550550639171
 51
50.7937951949622288
  0
LINE
  5
B2EA
  8
0
 10
660.7733318276417549
 20
104.2643580534553962
 30
0.0
 11
660.7769230568417242
 21
104.2922715771554039
 31
0.0
  0
LINE
  5
B2EB
  8
0
 10
660.6436561611417346
 20
104.2671794404553935
 30
0.0
 11
660.6388717256946848
 21
104.3043668301812943
 31
0.0
  0
ARC
  5
B2EC
  8
0
 10
660.7081502349331004
 20
104.2319758918407047
 30
0.0
 40
0.0312196650863434
 50
54.6272684594738891
 51
121.6277566447956957
  0
ARC
  5
B2ED
  8
0
 10
660.7220217862427489
 20
104.2530108414348007
 30
0.0
 40
0.0060993520423772
 50
294.309194030586923
 51
46.4639537997178635
  0
ARC
  5
B2EE
  8
0
 10
660.7092806891132568
 20
104.274104864447196
 30
0.0
 40
0.0307080253179962
 50
230.8623789094988865
 51
299.7803734145001044
  0
ARC
  5
B2EF
  8
0
 10
660.6944767089006518
 20
104.2535955760171049
 30
0.0
 40
0.0056489684657043
 50
118.5295896598917977
 51
215.8554836070929071
  0
ARC
  5
B2F0
  8
0
 10
660.6853969585760069
 20
104.4787425355116
 30
0.0
 40
0.0394408335541846
 50
189.9523814325094122
 51
235.0390020588696984
  0
ARC
  5
B2F1
  8
0
 10
660.7062909911784345
 20
104.5086255805259015
 30
0.0
 40
0.0759039241762731
 50
235.0390020588696984
 51
256.4217348603153255
  0
ARC
  5
B2F2
  8
0
 10
660.7134941561031383
 20
104.5200781189638946
 30
0.0
 40
0.088832245853873
 50
253.638749596628287
 51
303.6502355729671194
  0
ARC
  5
B2F3
  8
0
 10
660.7372393435792901
 20
104.4765687096442974
 30
0.0
 40
0.0396940585723798
 50
309.9318830132149856
 51
349.1615248634707882
  0
ARC
  5
B2F4
  8
0
 10
660.6524449544100435
 20
104.5113058032767981
 30
0.0
 40
0.0109024653103501
 50
133.3090016913089073
 51
191.6009558817615925
  0
ARC
  5
B2F5
  8
0
 10
660.6864439356232879
 20
104.4548076668812939
 30
0.0
 40
0.0766275738397198
 50
93.6490773409535677
 51
122.7711414483805044
  0
ARC
  5
B2F6
  8
0
 10
660.6976389546874771
 20
104.3941071498112052
 30
0.0
 40
0.1381110733114377
 50
56.161087711938201
 51
96.6826606925125134
  0
ARC
  5
B2F7
  8
0
 10
660.7654668596803731
 20
104.4976916390561996
 30
0.0
 40
0.0143654744557683
 50
357.3127550550639171
 51
50.7937951949622288
  0
LINE
  5
B2F8
  8
0
 10
660.7762253077545438
 20
104.4691046033174047
 30
0.0
 11
660.7798165369547405
 21
104.4970181270173981
 31
0.0
  0
LINE
  5
B2F9
  8
0
 10
660.6465496412546372
 20
104.471925990317402
 30
0.0
 11
660.6417652058078147
 21
104.5091133800433028
 31
0.0
  0
ARC
  5
B2FA
  8
0
 10
660.7110437150460029
 20
104.4367224417026989
 30
0.0
 40
0.0312196650863434
 50
54.6272684594738891
 51
121.6277566447956957
  0
ARC
  5
B2FB
  8
0
 10
660.7249152663556515
 20
104.4577573912967949
 30
0.0
 40
0.0060993520423772
 50
294.309194030586923
 51
46.4639537997178635
  0
ARC
  5
B2FC
  8
0
 10
660.7121741692260457
 20
104.4788514143092044
 30
0.0
 40
0.0307080253179962
 50
230.8623789094988865
 51
299.7803734145001044
  0
ARC
  5
B2FD
  8
0
 10
660.6973701890136681
 20
104.4583421258790992
 30
0.0
 40
0.0056489684657043
 50
118.5295896598917977
 51
215.8554836070929071
  0
ARC
  5
B2FE
  8
0
 10
660.9359638379951321
 20
104.4068840016307007
 30
0.0
 40
0.0394408335541846
 50
189.9523814325094122
 51
235.0390020588696984
  0
ARC
  5
B2FF
  8
0
 10
660.9568578705975597
 20
104.4367670466450022
 30
0.0
 40
0.0759039241762731
 50
235.0390020588696984
 51
256.4217348603153255
  0
ARC
  5
B300
  8
0
 10
660.9640610355221497
 20
104.4482195850829953
 30
0.0
 40
0.088832245853873
 50
253.638749596628287
 51
303.6502355729671194
  0
ARC
  5
B301
  8
0
 10
660.9878062229983016
 20
104.4047101757633982
 30
0.0
 40
0.0396940585723798
 50
309.9318830132149856
 51
349.1615248634707882
  0
ARC
  5
B302
  8
0
 10
660.9030118338291686
 20
104.4394472693959983
 30
0.0
 40
0.0109024653103501
 50
133.3090016913089073
 51
191.6009558817615925
  0
ARC
  5
B303
  8
0
 10
660.9370108150422993
 20
104.3829491330003947
 30
0.0
 40
0.0766275738397198
 50
93.6490773409535677
 51
122.7711414483805044
  0
ARC
  5
B304
  8
0
 10
660.9482058341066022
 20
104.322248615930306
 30
0.0
 40
0.1381110733114377
 50
56.161087711938201
 51
96.6826606925125134
  0
ARC
  5
B305
  8
0
 10
661.0160337390997256
 20
104.4258331051753004
 30
0.0
 40
0.0143654744557683
 50
357.3127550550639171
 51
50.7937951949622288
  0
LINE
  5
B306
  8
0
 10
661.0267921871738963
 20
104.3972460694365054
 30
0.0
 11
661.0303834163738657
 21
104.4251595931364989
 31
0.0
  0
LINE
  5
B307
  8
0
 10
660.897116520673876
 20
104.4000674564365028
 30
0.0
 11
660.8923320852269399
 21
104.4372548461624035
 31
0.0
  0
ARC
  5
B308
  8
0
 10
660.9616105944652418
 20
104.3648639078217997
 30
0.0
 40
0.0312196650863434
 50
54.6272684594738891
 51
121.6277566447956957
  0
ARC
  5
B309
  8
0
 10
660.9754821457747767
 20
104.3858988574158957
 30
0.0
 40
0.0060993520423772
 50
294.309194030586923
 51
46.4639537997178635
  0
ARC
  5
B30A
  8
0
 10
660.9627410486453982
 20
104.4069928804283052
 30
0.0
 40
0.0307080253179962
 50
230.8623789094988865
 51
299.7803734145001044
  0
ARC
  5
B30B
  8
0
 10
660.9479370684327932
 20
104.3864835919981999
 30
0.0
 40
0.0056489684657043
 50
118.5295896598917977
 51
215.8554836070929071
  0
ARC
  5
B30C
  8
0
 10
660.8870561728699613
 20
104.5276913055217989
 30
0.0
 40
0.0394408335541846
 50
189.9523814325094122
 51
235.0390020588696984
  0
ARC
  5
B30D
  8
0
 10
660.9079502054725026
 20
104.5575743505361004
 30
0.0
 40
0.0759039241762731
 50
235.0390020588696984
 51
256.4217348603153255
  0
ARC
  5
B30E
  8
0
 10
660.9151533703972063
 20
104.569026888974193
 30
0.0
 40
0.088832245853873
 50
253.638749596628287
 51
303.6502355729671194
  0
ARC
  5
B30F
  8
0
 10
660.9388985578732445
 20
104.5255174796544964
 30
0.0
 40
0.0396940585723798
 50
309.9318830132149856
 51
349.1615248634707882
  0
ARC
  5
B310
  8
0
 10
660.8541041687041115
 20
104.5602545732870965
 30
0.0
 40
0.0109024653103501
 50
133.3090016913089073
 51
191.6009558817615925
  0
ARC
  5
B311
  8
0
 10
660.8881031499173559
 20
104.5037564368915071
 30
0.0
 40
0.0766275738397198
 50
93.6490773409535677
 51
122.7711414483805044
  0
ARC
  5
B312
  8
0
 10
660.8992981689815451
 20
104.4430559198214041
 30
0.0
 40
0.1381110733114377
 50
56.161087711938201
 51
96.6826606925125134
  0
ARC
  5
B313
  8
0
 10
660.9671260739745549
 20
104.546640409066498
 30
0.0
 40
0.0143654744557683
 50
357.3127550550639171
 51
50.7937951949622288
  0
LINE
  5
B314
  8
0
 10
660.9778845220487256
 20
104.5180533733276036
 30
0.0
 11
660.9814757512486949
 21
104.545966897027597
 31
0.0
  0
LINE
  5
B315
  8
0
 10
660.8482088555485916
 20
104.5208747603276009
 30
0.0
 11
660.8434244201018828
 21
104.5580621500535017
 31
0.0
  0
ARC
  5
B316
  8
0
 10
660.9127029293399573
 20
104.4856712117128978
 30
0.0
 40
0.0312196650863434
 50
54.6272684594738891
 51
121.6277566447956957
  0
ARC
  5
B317
  8
0
 10
660.9265744806498333
 20
104.5067061613069939
 30
0.0
 40
0.0060993520423772
 50
294.309194030586923
 51
46.4639537997178635
  0
ARC
  5
B318
  8
0
 10
660.9138333835202275
 20
104.5278001843194033
 30
0.0
 40
0.0307080253179962
 50
230.8623789094988865
 51
299.7803734145001044
  0
ARC
  5
B319
  8
0
 10
660.8990294033078499
 20
104.5072908958892981
 30
0.0
 40
0.0056489684657043
 50
118.5295896598917977
 51
215.8554836070929071
  0
ARC
  5
B31A
  8
0
 10
661.0477890445090452
 20
104.6348956841326014
 30
0.0
 40
0.0402703849329144
 50
186.2312260131230914
 51
240.767442861419795
  0
ARC
  5
B31B
  8
0
 10
661.0712002481606078
 20
104.6767292645225069
 30
0.0
 40
0.088209230399327
 50
240.767442861419795
 51
266.3944021311012875
  0
ARC
  5
B31C
  8
0
 10
661.0724560593938577
 20
104.6966587409731062
 30
0.0
 40
0.1081782337157002
 50
266.3944021311012875
 51
293.072486172234278
  0
ARC
  5
B31D
  8
0
 10
661.0992962618007596
 20
104.633648939919695
 30
0.0
 40
0.0396900486467731
 50
293.072486172234278
 51
349.7043987746824882
  0
ARC
  5
B31E
  8
0
 10
661.1019685461154722
 20
104.635306228378397
 30
0.0
 40
0.0468829324737834
 50
30.1612337857185899
 51
78.9314250670398394
  0
ARC
  5
B31F
  8
0
 10
661.0697012665951888
 20
104.521380656588903
 30
0.0
 40
0.1651747587339985
 50
75.5316769040272646
 51
109.2253500604681022
  0
ARC
  5
B320
  8
0
 10
661.0260116215987409
 20
104.6561632036247005
 30
0.0
 40
0.0237297672812036
 50
116.8016632736944018
 51
161.4537622726672907
  0
LINE
  5
B321
  8
0
 10
661.007756578740441
 20
104.6305246902943935
 30
0.0
 11
661.003514205644251
 21
104.6637109271619011
 31
0.0
  0
LINE
  5
B322
  8
0
 10
661.1383509795374493
 20
104.626581556748306
 30
0.0
 11
661.1425042302647626
 21
104.6588618575970031
 31
0.0
  0
ARC
  5
B323
  8
0
 10
661.0729685889338043
 20
104.5937019191160005
 30
0.0
 40
0.0312196650863434
 50
54.6272684594738891
 51
121.6277566447956957
  0
ARC
  5
B324
  8
0
 10
661.0868401402434529
 20
104.6147368687100965
 30
0.0
 40
0.0060993520423772
 50
294.309194030586923
 51
46.4639537997178635
  0
ARC
  5
B325
  8
0
 10
661.0740990431138471
 20
104.635830891722506
 30
0.0
 40
0.0307080253179962
 50
230.8623789094988865
 51
299.7803734145001044
  0
ARC
  5
B326
  8
0
 10
661.0592950629014695
 20
104.6153216032924007
 30
0.0
 40
0.0056489684657043
 50
118.5295896598917977
 51
215.8554836070929071
  0
ARC
  5
B327
  8
0
 10
660.8400482918700618
 20
104.7206570812676034
 30
0.0
 40
0.0402703849329144
 50
186.2312260131230914
 51
240.767442861419795
  0
ARC
  5
B328
  8
0
 10
660.8634594955217381
 20
104.7624906616574947
 30
0.0
 40
0.088209230399327
 50
240.767442861419795
 51
266.3944021311012875
  0
ARC
  5
B329
  8
0
 10
660.8647153067551017
 20
104.782420138108094
 30
0.0
 40
0.1081782337157002
 50
266.3944021311012875
 51
293.072486172234278
  0
ARC
  5
B32A
  8
0
 10
660.8915555091620035
 20
104.7194103370545974
 30
0.0
 40
0.0396900486467731
 50
293.072486172234278
 51
349.7043987746824882
  0
ARC
  5
B32B
  8
0
 10
660.8942277934764888
 20
104.7210676255132995
 30
0.0
 40
0.0468829324737834
 50
30.1612337857185899
 51
78.9314250670398394
  0
ARC
  5
B32C
  8
0
 10
660.8619605139564328
 20
104.607142053723905
 30
0.0
 40
0.1651747587339985
 50
75.5316769040272646
 51
109.2253500604681022
  0
ARC
  5
B32D
  8
0
 10
660.8182708689597575
 20
104.741924600759603
 30
0.0
 40
0.0237297672812036
 50
116.8016632736944018
 51
161.4537622726672907
  0
LINE
  5
B32E
  8
0
 10
660.8000158261014576
 20
104.716286087429296
 30
0.0
 11
660.7957734530052676
 21
104.749472324296903
 31
0.0
  0
LINE
  5
B32F
  8
0
 10
660.9306102268985796
 20
104.7123429538831942
 30
0.0
 11
660.9347634776257792
 21
104.7446232547320051
 31
0.0
  0
ARC
  5
B330
  8
0
 10
660.8652278362949346
 20
104.6794633162510024
 30
0.0
 40
0.0312196650863434
 50
54.6272684594738891
 51
121.6277566447956957
  0
ARC
  5
B331
  8
0
 10
660.8790993876045832
 20
104.700498265844999
 30
0.0
 40
0.0060993520423772
 50
294.309194030586923
 51
46.4639537997178635
  0
ARC
  5
B332
  8
0
 10
660.8663582904750911
 20
104.7215922888573942
 30
0.0
 40
0.0307080253179962
 50
230.8623789094988865
 51
299.7803734145001044
  0
ARC
  5
B333
  8
0
 10
660.8515543102625998
 20
104.7010830004273032
 30
0.0
 40
0.0056489684657043
 50
118.5295896598917977
 51
215.8554836070929071
  0
ARC
  5
B334
  8
0
 10
660.5695742665382113
 20
104.6927740966667955
 30
0.0
 40
0.0402703849329144
 50
186.2312260131230914
 51
240.767442861419795
  0
ARC
  5
B335
  8
0
 10
660.5929854701897739
 20
104.7346076770567009
 30
0.0
 40
0.088209230399327
 50
240.767442861419795
 51
266.3944021311012875
  0
ARC
  5
B336
  8
0
 10
660.5942412814231375
 20
104.7545371535073002
 30
0.0
 40
0.1081782337157002
 50
266.3944021311012875
 51
293.072486172234278
  0
ARC
  5
B337
  8
0
 10
660.6210814838300394
 20
104.6915273524539032
 30
0.0
 40
0.0396900486467731
 50
293.072486172234278
 51
349.7043987746824882
  0
ARC
  5
B338
  8
0
 10
660.6237537681446383
 20
104.6931846409126052
 30
0.0
 40
0.0468829324737834
 50
30.1612337857185899
 51
78.9314250670398394
  0
ARC
  5
B339
  8
0
 10
660.5914864886243549
 20
104.579259069123097
 30
0.0
 40
0.1651747587339985
 50
75.5316769040272646
 51
109.2253500604681022
  0
ARC
  5
B33A
  8
0
 10
660.5477968436277934
 20
104.7140416161588945
 30
0.0
 40
0.0237297672812036
 50
116.8016632736944018
 51
161.4537622726672907
  0
LINE
  5
B33B
  8
0
 10
660.5295418007694934
 20
104.6884031028286017
 30
0.0
 11
660.5252994276733034
 21
104.7215893396960951
 31
0.0
  0
LINE
  5
B33C
  8
0
 10
660.6601362015666155
 20
104.6844599692825
 30
0.0
 11
660.6642894522939287
 21
104.7167402701311971
 31
0.0
  0
ARC
  5
B33D
  8
0
 10
660.5947538109628567
 20
104.6515803316501945
 30
0.0
 40
0.0312196650863434
 50
54.6272684594738891
 51
121.6277566447956957
  0
ARC
  5
B33E
  8
0
 10
660.608625362272619
 20
104.6726152812443047
 30
0.0
 40
0.0060993520423772
 50
294.309194030586923
 51
46.4639537997178635
  0
ARC
  5
B33F
  8
0
 10
660.5958842651430132
 20
104.6937093042567
 30
0.0
 40
0.0307080253179962
 50
230.8623789094988865
 51
299.7803734145001044
  0
ARC
  5
B340
  8
0
 10
660.5810802849306356
 20
104.6732000158265947
 30
0.0
 40
0.0056489684657043
 50
118.5295896598917977
 51
215.8554836070929071
  0
ARC
  5
B341
  8
0
 10
661.1369856599864079
 20
103.5664718482512967
 30
0.0
 40
3.1115549928495572
 50
81.8732438712221153
 51
88.8299977860993977
  0
ARC
  5
B342
  8
0
 10
661.2515524374261986
 20
103.9374143938262023
 30
0.0
 40
2.7288233799197799
 50
66.0437797967268523
 51
83.153686782014347
  0
ARC
  5
B343
  8
0
 10
661.751239950026843
 20
105.0620428227006045
 30
0.0
 40
1.498182606468246
 50
39.5009658793755776
 51
66.0437797967268523
  0
ARC
  5
B344
  8
0
 10
662.2470188347174371
 20
105.470745433926794
 30
0.0
 40
0.8556606014534569
 50
4.008925732481643
 51
39.5009658793755776
  0
ARC
  5
B345
  8
0
 10
662.3516455590397527
 20
105.4780780261889959
 30
0.0
 40
0.7507772455206752
 50
350.2957554457079254
 51
4.008925732481643
  0
ARC
  5
B346
  8
0
 10
661.626881646043671
 20
105.602019451626802
 30
0.0
 40
1.4860623647233779
 50
329.1305483692651137
 51
350.2957554457079254
  0
ARC
  5
B347
  8
0
 10
661.9757723199246584
 20
105.4303118683428977
 30
0.0
 40
1.0989508680566309
 50
304.0029868501750911
 51
327.4813970386425126
  0
ARC
  5
B348
  8
0
 10
661.5089289868120659
 20
106.1084702429973987
 30
0.0
 40
1.922241214956723
 50
287.474998866951978
 51
304.2344785546969206
  0
ARC
  5
B349
  8
0
 10
661.246313599669179
 20
106.8896616240872959
 30
0.0
 40
2.746285876994317
 50
276.1610581762923857
 51
287.8069629166532764
  0
ARC
  5
B34A
  8
0
 10
661.0025536091086451
 20
110.8341400558059036
 30
0.0
 40
6.6965888570755974
 50
271.6940438454664104
 51
274.612379163694186
  0
ARC
  5
B34B
  8
0
 10
661.2007608376218286
 20
103.1499029162661998
 30
0.0
 40
3.0120005488750738
 50
83.8698774519820347
 51
90.0045734694674024
  0
ARC
  5
B34C
  8
0
 10
661.2540970083240381
 20
103.5547965027924988
 30
0.0
 40
2.6037449881214241
 50
68.4839308403489468
 51
84.0853939873076541
  0
ARC
  5
B34D
  8
0
 10
661.6104422850111177
 20
104.4586881885390994
 30
0.0
 40
1.6321472648948581
 50
54.0070132079719869
 51
68.4839308403489468
  0
ARC
  5
B34E
  8
0
 10
661.9358098068817071
 20
104.9066334564556939
 30
0.0
 40
1.0785056955225669
 50
33.818960417194738
 51
54.0070132079719869
  0
ARC
  5
B34F
  8
0
 10
662.3399002992535998
 20
105.1773421562056967
 30
0.0
 40
0.592118682799406
 50
8.3092805633542852
 51
33.818960417194738
  0
ARC
  5
B350
  8
0
 10
662.3370783128847279
 20
105.1769300060824008
 30
0.0
 40
0.5949706075512854
 50
334.1670971082219808
 51
8.3092805633542852
  0
ARC
  5
B351
  8
0
 10
662.0287725224463884
 20
105.3261893332329038
 30
0.0
 40
0.937506455542703
 50
303.8668649345909216
 51
334.1670971082219808
  0
ARC
  5
B352
  8
0
 10
661.3800642890545305
 20
106.2927760553282042
 30
0.0
 40
2.1015993484860989
 50
283.5073374663368213
 51
303.8668649345909216
  0
ARC
  5
B353
  8
0
 10
661.2037216992915774
 20
107.026881633960798
 30
0.0
 40
2.8565878977660528
 50
269.9357904552906007
 51
283.5073374663368213
  0
ARC
  5
B354
  8
0
 10
661.2009672869685346
 20
103.0967281243732998
 30
0.0
 40
3.1165022679421921
 50
84.0844744717429222
 51
90.0082156105443545
  0
ARC
  5
B355
  8
0
 10
661.2343239794225838
 20
103.4186609739404048
 30
0.0
 40
2.792845924636723
 50
69.1434762435595331
 51
84.0844744717429222
  0
ARC
  5
B356
  8
0
 10
661.6532197202001271
 20
104.5181431351504955
 30
0.0
 40
1.6162684029830701
 50
45.5306740452435719
 51
69.1434762435595331
  0
ARC
  5
B357
  8
0
 10
662.2687538554787352
 20
105.1451863626782028
 30
0.0
 40
0.7375958354804825
 50
9.4367594249771187
 51
45.5306740452435719
  0
ARC
  5
B358
  8
0
 10
662.4251636756395101
 20
105.1711829499690936
 30
0.0
 40
0.5790403108416169
 50
333.0214859031975152
 51
9.4367594249771187
  0
ARC
  5
B359
  8
0
 10
660.4535122220107723
 20
104.5890572163927033
 30
0.0
 40
0.0476120459237618
 50
191.9696725165539135
 51
249.0407009718884126
  0
ARC
  5
B35A
  8
0
 10
660.4748329465988945
 20
104.6255853124899033
 30
0.0
 40
0.0896114911339507
 50
244.660672069662894
 51
306.0956750340895951
  0
ARC
  5
B35B
  8
0
 10
660.5026720975913577
 20
104.5815357542745971
 30
0.0
 40
0.0377753450919853
 50
311.3451523654243829
 51
351.6534570690986925
  0
ARC
  5
B35C
  8
0
 10
660.5232675403541407
 20
104.6033338562728972
 30
0.0
 40
0.0201562885497703
 50
355.9171764836738134
 51
39.892636444613693
  0
ARC
  5
B35D
  8
0
 10
660.4487692270050729
 20
104.5013347435697995
 30
0.0
 40
0.1459501406265655
 50
51.9465267542568583
 51
94.2479601695689553
  0
ARC
  5
B35E
  8
0
 10
660.4414056233900965
 20
104.5903730091091006
 30
0.0
 40
0.0566159768859894
 50
93.4909119124890253
 51
126.4562443279310031
  0
ARC
  5
B35F
  8
0
 10
660.4178855787265547
 20
104.6228696803627969
 30
0.0
 40
0.016507398922001
 50
127.818282294581806
 51
192.2800969414207941
  0
LINE
  5
B360
  8
0
 10
660.5400473337116409
 20
104.5760522862317998
 30
0.0
 11
660.5433726757114528
 21
104.6018987603318067
 31
0.0
  0
LINE
  5
B361
  8
0
 10
660.4069353803115519
 20
104.5791827678317958
 30
0.0
 11
660.4017558770700589
 21
104.6193587056196037
 31
0.0
  0
ARC
  5
B362
  8
0
 10
660.4732503905935346
 20
104.5447219199178051
 30
0.0
 40
0.0312196650863434
 50
54.6272684594738891
 51
121.6277566447956957
  0
ARC
  5
B363
  8
0
 10
660.4871219419032968
 20
104.5657568695119011
 30
0.0
 40
0.0060993520423772
 50
294.309194030586923
 51
46.4639537997178635
  0
ARC
  5
B364
  8
0
 10
660.474380844773691
 20
104.5868508925242963
 30
0.0
 40
0.0307080253179962
 50
230.8623789094988865
 51
299.7803734145001044
  0
ARC
  5
B365
  8
0
 10
660.4595768645613134
 20
104.5663416040942053
 30
0.0
 40
0.0056489684657043
 50
118.5295896598917977
 51
215.8554836070929071
  0
ARC
  5
B366
  8
0
 10
660.3636981993546442
 20
104.4878277208247965
 30
0.0
 40
0.0476120459237618
 50
191.9696725165539135
 51
249.0407009718884126
  0
ARC
  5
B367
  8
0
 10
660.3850189239428801
 20
104.5243558169219966
 30
0.0
 40
0.0896114911339507
 50
244.660672069662894
 51
306.0956750340895951
  0
ARC
  5
B368
  8
0
 10
660.4128580749353432
 20
104.4803062587067046
 30
0.0
 40
0.0377753450919853
 50
311.3451523654243829
 51
351.6534570690986925
  0
ARC
  5
B369
  8
0
 10
660.4334535176981262
 20
104.5021043607050046
 30
0.0
 40
0.0201562885497703
 50
355.9171764836738134
 51
39.892636444613693
  0
ARC
  5
B36A
  8
0
 10
660.3589552043489448
 20
104.4001052480019069
 30
0.0
 40
0.1459501406265655
 50
51.9465267542568583
 51
94.2479601695689553
  0
ARC
  5
B36B
  8
0
 10
660.3515916007339683
 20
104.4891435135410944
 30
0.0
 40
0.0566159768859894
 50
93.4909119124890253
 51
126.4562443279310031
  0
ARC
  5
B36C
  8
0
 10
660.3280715560704266
 20
104.5216401847949044
 30
0.0
 40
0.016507398922001
 50
127.818282294581806
 51
192.2800969414207941
  0
LINE
  5
B36D
  8
0
 10
660.4502333110556265
 20
104.4748227906638931
 30
0.0
 11
660.453558653055552
 21
104.5006692647638999
 31
0.0
  0
LINE
  5
B36E
  8
0
 10
660.3171213576555374
 20
104.4779532722639033
 30
0.0
 11
660.3119418544140444
 21
104.518129210051697
 31
0.0
  0
ARC
  5
B36F
  8
0
 10
660.3834363679375201
 20
104.4434924243498983
 30
0.0
 40
0.0312196650863434
 50
54.6272684594738891
 51
121.6277566447956957
  0
ARC
  5
B370
  8
0
 10
660.3973079192471687
 20
104.4645273739439943
 30
0.0
 40
0.0060993520423772
 50
294.309194030586923
 51
46.4639537997178635
  0
ARC
  5
B371
  8
0
 10
660.3845668221175629
 20
104.4856213969564038
 30
0.0
 40
0.0307080253179962
 50
230.8623789094988865
 51
299.7803734145001044
  0
ARC
  5
B372
  8
0
 10
660.369762841905299
 20
104.4651121085262986
 30
0.0
 40
0.0056489684657043
 50
118.5295896598917977
 51
215.8554836070929071
  0
ARC
  5
B373
  8
0
 10
660.3045519337379119
 20
104.400438294801603
 30
0.0
 40
0.0476318875802354
 50
195.2677610968598003
 51
250.5187328266196118
  0
ARC
  5
B374
  8
0
 10
660.3262725827501072
 20
104.4378023275584013
 30
0.0
 40
0.0904565622730084
 50
245.4344859873490918
 51
304.6619151754017025
  0
ARC
  5
B375
  8
0
 10
660.3566693545664066
 20
104.386821671534193
 30
0.0
 40
0.0314902947451684
 50
311.9455046192325085
 51
356.2550824466300128
  0
LINE
  5
B376
  8
0
 10
660.3880924087441144
 20
104.3847648951048939
 30
0.0
 11
660.3907553657115841
 21
104.4047688218317944
 31
0.0
  0
LINE
  5
B377
  8
0
 10
660.2586011783570257
 20
104.387895376704904
 30
0.0
 11
660.2534216751155327
 21
104.4280713144925983
 31
0.0
  0
ARC
  5
B378
  8
0
 10
660.3249161886390084
 20
104.3534345287908991
 30
0.0
 40
0.0312196650863434
 50
54.6272684594738891
 51
121.6277566447956957
  0
ARC
  5
B379
  8
0
 10
660.3387877399485433
 20
104.3744694783849951
 30
0.0
 40
0.0060993520423772
 50
294.309194030586923
 51
46.4639537997178635
  0
ARC
  5
B37A
  8
0
 10
660.3260466428190512
 20
104.3955635013974046
 30
0.0
 40
0.0307080253179962
 50
230.8623789094988865
 51
299.7803734145001044
  0
ARC
  5
B37B
  8
0
 10
660.3112426626066735
 20
104.3750542129672993
 30
0.0
 40
0.0056489684657043
 50
118.5295896598917977
 51
215.8554836070929071
  0
ARC
  5
B37C
  8
0
 10
660.3786916356913252
 20
104.4056976981485008
 30
0.0
 40
0.0120994145917986
 50
355.594417572077873
 51
46.1530316762251331
  0
ARC
  5
B37D
  8
0
 10
660.2960934715375743
 20
104.2900954871040966
 30
0.0
 40
0.1540611526012563
 50
53.8043977345632385
 51
100.3297269314798967
  0
ARC
  5
B37E
  8
0
 10
660.2698416016424972
 20
104.4250140698227938
 30
0.0
 40
0.016702117593998
 50
94.7161743240178282
 51
169.4528076851908907
  0
ARC
  5
B37F
  8
0
 10
660.3235636062679532
 20
104.7325339218945999
 30
0.0
 40
0.0476120459237618
 50
191.9696725165539135
 51
249.0407009718884126
  0
ARC
  5
B380
  8
0
 10
660.3448843308560754
 20
104.7690620179918
 30
0.0
 40
0.0896114911339507
 50
244.660672069662894
 51
306.0956750340895951
  0
ARC
  5
B381
  8
0
 10
660.3727234818486522
 20
104.7250124597764938
 30
0.0
 40
0.0377753450919853
 50
311.3451523654243829
 51
351.6534570690986925
  0
ARC
  5
B382
  8
0
 10
660.3933189246114352
 20
104.7468105617748932
 30
0.0
 40
0.0201562885497703
 50
355.9171764836738134
 51
39.892636444613693
  0
ARC
  5
B383
  8
0
 10
660.3188206112623675
 20
104.6448114490716961
 30
0.0
 40
0.1459501406265655
 50
51.9465267542568583
 51
94.2479601695689553
  0
ARC
  5
B384
  8
0
 10
660.3114570076472774
 20
104.7338497146109972
 30
0.0
 40
0.0566159768859894
 50
93.4909119124890253
 51
126.4562443279310031
  0
ARC
  5
B385
  8
0
 10
660.2879369629837356
 20
104.766346385864793
 30
0.0
 40
0.016507398922001
 50
127.818282294581806
 51
192.2800969414207941
  0
LINE
  5
B386
  8
0
 10
660.4100987179688218
 20
104.7195289917337959
 30
0.0
 11
660.4134240599687473
 21
104.7453754658338028
 31
0.0
  0
LINE
  5
B387
  8
0
 10
660.2769867645688464
 20
104.7226594733338061
 30
0.0
 11
660.2718072613273534
 21
104.7628354111215003
 31
0.0
  0
ARC
  5
B388
  8
0
 10
660.3433017748508291
 20
104.6881986254198011
 30
0.0
 40
0.0312196650863434
 50
54.6272684594738891
 51
121.6277566447956957
  0
ARC
  5
B389
  8
0
 10
660.3571733261604777
 20
104.7092335750137977
 30
0.0
 40
0.0060993520423772
 50
294.309194030586923
 51
46.4639537997178635
  0
ARC
  5
B38A
  8
0
 10
660.3444322290308719
 20
104.730327598026193
 30
0.0
 40
0.0307080253179962
 50
230.8623789094988865
 51
299.7803734145001044
  0
ARC
  5
B38B
  8
0
 10
660.329628248818608
 20
104.7098183095961019
 30
0.0
 40
0.0056489684657043
 50
118.5295896598917977
 51
215.8554836070929071
  0
ARC
  5
B38C
  8
0
 10
660.1644663702909384
 20
104.6614913711899959
 30
0.0
 40
0.0476120459237618
 50
191.9696725165539135
 51
249.0407009718884126
  0
ARC
  5
B38D
  8
0
 10
660.1857870948791742
 20
104.698019467287196
 30
0.0
 40
0.0896114911339507
 50
244.660672069662894
 51
306.0956750340895951
  0
ARC
  5
B38E
  8
0
 10
660.2136262458716374
 20
104.653969909071904
 30
0.0
 40
0.0377753450919853
 50
311.3451523654243829
 51
351.6534570690986925
  0
ARC
  5
B38F
  8
0
 10
660.2342216886344204
 20
104.675768011070204
 30
0.0
 40
0.0201562885497703
 50
355.9171764836738134
 51
39.892636444613693
  0
ARC
  5
B390
  8
0
 10
660.1597233752853526
 20
104.5737688983671063
 30
0.0
 40
0.1459501406265655
 50
51.9465267542568583
 51
94.2479601695689553
  0
ARC
  5
B391
  8
0
 10
660.1523597716702625
 20
104.6628071639062938
 30
0.0
 40
0.0566159768859894
 50
93.4909119124890253
 51
126.4562443279310031
  0
ARC
  5
B392
  8
0
 10
660.1288397270067208
 20
104.6953038351601037
 30
0.0
 40
0.016507398922001
 50
127.818282294581806
 51
192.2800969414207941
  0
LINE
  5
B393
  8
0
 10
660.2510014819918069
 20
104.6484864410291067
 30
0.0
 11
660.2543268239918461
 21
104.6743329151290993
 31
0.0
  0
LINE
  5
B394
  8
0
 10
660.1178895285918315
 20
104.6516169226291026
 30
0.0
 11
660.1127100253504523
 21
104.6917928604168964
 31
0.0
  0
ARC
  5
B395
  8
0
 10
660.1842045388738143
 20
104.6171560747150977
 30
0.0
 40
0.0312196650863434
 50
54.6272684594738891
 51
121.6277566447956957
  0
ARC
  5
B396
  8
0
 10
660.1980760901834628
 20
104.6381910243091937
 30
0.0
 40
0.0060993520423772
 50
294.309194030586923
 51
46.4639537997178635
  0
ARC
  5
B397
  8
0
 10
660.185334993053857
 20
104.6592850473216032
 30
0.0
 40
0.0307080253179962
 50
230.8623789094988865
 51
299.7803734145001044
  0
ARC
  5
B398
  8
0
 10
660.1705310128415931
 20
104.638775758891498
 30
0.0
 40
0.0056489684657043
 50
118.5295896598917977
 51
215.8554836070929071
  0
ARC
  5
B399
  8
0
 10
660.0273072381461361
 20
104.5836464075275956
 30
0.0
 40
0.0476120459237618
 50
191.9696725165539135
 51
249.0407009718884126
  0
ARC
  5
B39A
  8
0
 10
660.0486279627342583
 20
104.6201745036247956
 30
0.0
 40
0.0896114911339507
 50
244.660672069662894
 51
306.0956750340895951
  0
ARC
  5
B39B
  8
0
 10
660.0764671137267214
 20
104.5761249454095037
 30
0.0
 40
0.0377753450919853
 50
311.3451523654243829
 51
351.6534570690986925
  0
ARC
  5
B39C
  8
0
 10
660.0970625564895045
 20
104.5979230474078037
 30
0.0
 40
0.0201562885497703
 50
355.9171764836738134
 51
39.892636444613693
  0
ARC
  5
B39D
  8
0
 10
660.0225642431405504
 20
104.495923934704706
 30
0.0
 40
0.1459501406265655
 50
51.9465267542568583
 51
94.2479601695689553
  0
ARC
  5
B39E
  8
0
 10
660.0152006395253466
 20
104.5849622002439929
 30
0.0
 40
0.0566159768859894
 50
93.4909119124890253
 51
126.4562443279310031
  0
ARC
  5
B39F
  8
0
 10
659.9916805948619185
 20
104.6174588714978029
 30
0.0
 40
0.016507398922001
 50
127.818282294581806
 51
192.2800969414207941
  0
LINE
  5
B3A0
  8
0
 10
660.113842349846891
 20
104.5706414773667063
 30
0.0
 11
660.1171676918470439
 21
104.596487951466699
 31
0.0
  0
LINE
  5
B3A1
  8
0
 10
659.9807303964470293
 20
104.5737719589667023
 30
0.0
 11
659.9755508932055363
 21
104.613947896754496
 31
0.0
  0
ARC
  5
B3A2
  8
0
 10
660.047045406729012
 20
104.5393111110526974
 30
0.0
 40
0.0312196650863434
 50
54.6272684594738891
 51
121.6277566447956957
  0
ARC
  5
B3A3
  8
0
 10
660.0609169580385469
 20
104.5603460606467934
 30
0.0
 40
0.0060993520423772
 50
294.309194030586923
 51
46.4639537997178635
  0
ARC
  5
B3A4
  8
0
 10
660.0481758609091685
 20
104.5814400836592029
 30
0.0
 40
0.0307080253179962
 50
230.8623789094988865
 51
299.7803734145001044
  0
ARC
  5
B3A5
  8
0
 10
660.0333718806965635
 20
104.5609307952290976
 30
0.0
 40
0.0056489684657043
 50
118.5295896598917977
 51
215.8554836070929071
  0
ARC
  5
B3A6
  8
0
 10
659.8060542388353724
 20
104.8155769714654042
 30
0.0
 40
0.0476120459237618
 50
191.9696725165539135
 51
249.0407009718884126
  0
ARC
  5
B3A7
  8
0
 10
659.827374963423722
 20
104.8521050675626043
 30
0.0
 40
0.0896114911339507
 50
244.660672069662894
 51
306.0956750340895951
  0
ARC
  5
B3A8
  8
0
 10
659.8552141144160714
 20
104.8080555093472981
 30
0.0
 40
0.0377753450919853
 50
311.3451523654243829
 51
351.6534570690986925
  0
ARC
  5
B3A9
  8
0
 10
659.8758095571788544
 20
104.8298536113456976
 30
0.0
 40
0.0201562885497703
 50
355.9171764836738134
 51
39.892636444613693
  0
ARC
  5
B3AA
  8
0
 10
659.8013112438299004
 20
104.7278544986425004
 30
0.0
 40
0.1459501406265655
 50
51.9465267542568583
 51
94.2479601695689553
  0
ARC
  5
B3AB
  8
0
 10
659.7939476402149239
 20
104.8168927641818016
 30
0.0
 40
0.0566159768859894
 50
93.4909119124890253
 51
126.4562443279310031
  0
ARC
  5
B3AC
  8
0
 10
659.7704275955511548
 20
104.8493894354355973
 30
0.0
 40
0.016507398922001
 50
127.818282294581806
 51
192.2800969414207941
  0
LINE
  5
B3AD
  8
0
 10
659.8925893505363547
 20
104.8025720413046002
 30
0.0
 11
659.8959146925363939
 21
104.8284185154046071
 31
0.0
  0
LINE
  5
B3AE
  8
0
 10
659.7594773971363793
 20
104.8057025229045962
 30
0.0
 11
659.754297893895
 21
104.8458784606923047
 31
0.0
  0
ARC
  5
B3AF
  8
0
 10
659.8257924074182483
 20
104.7712416749906055
 30
0.0
 40
0.0312196650863434
 50
54.6272684594738891
 51
121.6277566447956957
  0
ARC
  5
B3B0
  8
0
 10
659.8396639587281243
 20
104.792276624584602
 30
0.0
 40
0.0060993520423772
 50
294.309194030586923
 51
46.4639537997178635
  0
ARC
  5
B3B1
  8
0
 10
659.8269228615984048
 20
104.8133706475969973
 30
0.0
 40
0.0307080253179962
 50
230.8623789094988865
 51
299.7803734145001044
  0
ARC
  5
B3B2
  8
0
 10
659.8121188813861409
 20
104.7928613591670057
 30
0.0
 40
0.0056489684657043
 50
118.5295896598917977
 51
215.8554836070929071
  0
ARC
  5
B3B3
  8
0
 10
660.0174216755362977
 20
104.8584090866940954
 30
0.0
 40
0.0476120459237618
 50
191.9696725165539135
 51
249.0407009718884126
  0
ARC
  5
B3B4
  8
0
 10
660.0387424001246472
 20
104.8949371827912955
 30
0.0
 40
0.0896114911339507
 50
244.660672069662894
 51
306.0956750340895951
  0
ARC
  5
B3B5
  8
0
 10
660.0665815511169967
 20
104.8508876245760035
 30
0.0
 40
0.0377753450919853
 50
311.3451523654243829
 51
351.6534570690986925
  0
ARC
  5
B3B6
  8
0
 10
660.0871769938797797
 20
104.8726857265743035
 30
0.0
 40
0.0201562885497703
 50
355.9171764836738134
 51
39.892636444613693
  0
ARC
  5
B3B7
  8
0
 10
660.0126786805308257
 20
104.7706866138712059
 30
0.0
 40
0.1459501406265655
 50
51.9465267542568583
 51
94.2479601695689553
  0
ARC
  5
B3B8
  8
0
 10
660.0053150769158492
 20
104.859724879410507
 30
0.0
 40
0.0566159768859894
 50
93.4909119124890253
 51
126.4562443279310031
  0
ARC
  5
B3B9
  8
0
 10
659.9817950322520801
 20
104.8922215506643028
 30
0.0
 40
0.016507398922001
 50
127.818282294581806
 51
192.2800969414207941
  0
LINE
  5
B3BA
  8
0
 10
660.10395678723728
 20
104.8454041565332062
 30
0.0
 11
660.1072821292373192
 21
104.8712506306331989
 31
0.0
  0
LINE
  5
B3BB
  8
0
 10
659.9708448338373046
 20
104.8485346381333017
 30
0.0
 11
659.9656653305959253
 21
104.8887105759209959
 31
0.0
  0
ARC
  5
B3BC
  8
0
 10
660.0371598441191736
 20
104.8140737902191972
 30
0.0
 40
0.0312196650863434
 50
54.6272684594738891
 51
121.6277566447956957
  0
ARC
  5
B3BD
  8
0
 10
660.0510313954289359
 20
104.8351087398132933
 30
0.0
 40
0.0060993520423772
 50
294.309194030586923
 51
46.4639537997178635
  0
ARC
  5
B3BE
  8
0
 10
660.0382902982994437
 20
104.8562027628257027
 30
0.0
 40
0.0307080253179962
 50
230.8623789094988865
 51
299.7803734145001044
  0
ARC
  5
B3BF
  8
0
 10
660.0234863180869525
 20
104.8356934743955975
 30
0.0
 40
0.0056489684657043
 50
118.5295896598917977
 51
215.8554836070929071
  0
ARC
  5
B3C0
  8
0
 10
660.2433869358633274
 20
104.8996696779463065
 30
0.0
 40
0.0476120459237618
 50
191.9696725165539135
 51
249.0407009718884126
  0
ARC
  5
B3C1
  8
0
 10
660.2647076604514496
 20
104.9361977740435066
 30
0.0
 40
0.0896114911339507
 50
244.660672069662894
 51
306.0956750340895951
  0
ARC
  5
B3C2
  8
0
 10
660.2925468114440264
 20
104.8921482158282004
 30
0.0
 40
0.0377753450919853
 50
311.3451523654243829
 51
351.6534570690986925
  0
ARC
  5
B3C3
  8
0
 10
660.3131422542068094
 20
104.9139463178265004
 30
0.0
 40
0.0201562885497703
 50
355.9171764836738134
 51
39.892636444613693
  0
ARC
  5
B3C4
  8
0
 10
660.2386439408577417
 20
104.8119472051234027
 30
0.0
 40
0.1459501406265655
 50
51.9465267542568583
 51
94.2479601695689553
  0
ARC
  5
B3C5
  8
0
 10
660.2312803372426515
 20
104.9009854706626044
 30
0.0
 40
0.0566159768859894
 50
93.4909119124890253
 51
126.4562443279310031
  0
ARC
  5
B3C6
  8
0
 10
660.2077602925791098
 20
104.9334821419164001
 30
0.0
 40
0.016507398922001
 50
127.818282294581806
 51
192.2800969414207941
  0
LINE
  5
B3C7
  8
0
 10
660.329922047564196
 20
104.8866647477854031
 30
0.0
 11
660.3332473895642352
 21
104.9125112218853957
 31
0.0
  0
LINE
  5
B3C8
  8
0
 10
660.1968100941641069
 20
104.889795229385399
 30
0.0
 11
660.1916305909228413
 21
104.9299711671732069
 31
0.0
  0
ARC
  5
B3C9
  8
0
 10
660.2631251044462033
 20
104.8553343814713941
 30
0.0
 40
0.0312196650863434
 50
54.6272684594738891
 51
121.6277566447956957
  0
ARC
  5
B3CA
  8
0
 10
660.2769966557558519
 20
104.8763693310655043
 30
0.0
 40
0.0060993520423772
 50
294.309194030586923
 51
46.4639537997178635
  0
ARC
  5
B3CB
  8
0
 10
660.2642555586262461
 20
104.8974633540778996
 30
0.0
 40
0.0307080253179962
 50
230.8623789094988865
 51
299.7803734145001044
  0
ARC
  5
B3CC
  8
0
 10
660.2494515784138684
 20
104.8769540656477943
 30
0.0
 40
0.0056489684657043
 50
118.5295896598917977
 51
215.8554836070929071
  0
ARC
  5
B3CD
  8
0
 10
660.4910393427589952
 20
104.938942742617499
 30
0.0
 40
0.0476120459237618
 50
191.9696725165539135
 51
249.0407009718884126
  0
ARC
  5
B3CE
  8
0
 10
660.5123600673471174
 20
104.9754708387146991
 30
0.0
 40
0.0896114911339507
 50
244.660672069662894
 51
306.0956750340895951
  0
ARC
  5
B3CF
  8
0
 10
660.5401992183394668
 20
104.9314212804994071
 30
0.0
 40
0.0377753450919853
 50
311.3451523654243829
 51
351.6534570690986925
  0
ARC
  5
B3D0
  8
0
 10
660.5607946611022498
 20
104.9532193824977071
 30
0.0
 40
0.0201562885497703
 50
355.9171764836738134
 51
39.892636444613693
  0
ARC
  5
B3D1
  8
0
 10
660.4862963477532958
 20
104.8512202697945952
 30
0.0
 40
0.1459501406265655
 50
51.9465267542568583
 51
94.2479601695689553
  0
ARC
  5
B3D2
  8
0
 10
660.4789327441383193
 20
104.9402585353338964
 30
0.0
 40
0.0566159768859894
 50
93.4909119124890253
 51
126.4562443279310031
  0
ARC
  5
B3D3
  8
0
 10
660.4554126994747776
 20
104.9727552065876068
 30
0.0
 40
0.016507398922001
 50
127.818282294581806
 51
192.2800969414207941
  0
LINE
  5
B3D4
  8
0
 10
660.5775744544597501
 20
104.9259378124565956
 30
0.0
 11
660.5808997964596756
 21
104.9517842865566024
 31
0.0
  0
LINE
  5
B3D5
  8
0
 10
660.4444625010597747
 20
104.9290682940566057
 30
0.0
 11
660.4392829978182817
 21
104.9692442318443995
 31
0.0
  0
ARC
  5
B3D6
  8
0
 10
660.5107775113418711
 20
104.8946074461426008
 30
0.0
 40
0.0312196650863434
 50
54.6272684594738891
 51
121.6277566447956957
  0
ARC
  5
B3D7
  8
0
 10
660.5246490626515197
 20
104.9156423957366968
 30
0.0
 40
0.0060993520423772
 50
294.309194030586923
 51
46.4639537997178635
  0
ARC
  5
B3D8
  8
0
 10
660.5119079655219139
 20
104.9367364187491063
 30
0.0
 40
0.0307080253179962
 50
230.8623789094988865
 51
299.7803734145001044
  0
ARC
  5
B3D9
  8
0
 10
660.4971039853095363
 20
104.916227130319001
 30
0.0
 40
0.0056489684657043
 50
118.5295896598917977
 51
215.8554836070929071
  0
ARC
  5
B3DA
  8
0
 10
660.2842146280825091
 20
105.0591772699524995
 30
0.0
 40
0.0476120459237618
 50
191.9696725165539135
 51
249.0407009718884126
  0
ARC
  5
B3DB
  8
0
 10
660.3055353526706313
 20
105.0957053660496996
 30
0.0
 40
0.0896114911339507
 50
244.660672069662894
 51
306.0956750340895951
  0
ARC
  5
B3DC
  8
0
 10
660.3333745036629807
 20
105.0516558078343934
 30
0.0
 40
0.0377753450919853
 50
311.3451523654243829
 51
351.6534570690986925
  0
ARC
  5
B3DD
  8
0
 10
660.3539699464257637
 20
105.0734539098328071
 30
0.0
 40
0.0201562885497703
 50
355.9171764836738134
 51
39.892636444613693
  0
ARC
  5
B3DE
  8
0
 10
660.2794716330769234
 20
104.9714547971295957
 30
0.0
 40
0.1459501406265655
 50
51.9465267542568583
 51
94.2479601695689553
  0
ARC
  5
B3DF
  8
0
 10
660.2721080294618332
 20
105.0604930626688969
 30
0.0
 40
0.0566159768859894
 50
93.4909119124890253
 51
126.4562443279310031
  0
ARC
  5
B3E0
  8
0
 10
660.2485879847981778
 20
105.0929897339227068
 30
0.0
 40
0.016507398922001
 50
127.818282294581806
 51
192.2800969414207941
  0
LINE
  5
B3E1
  8
0
 10
660.3707497397833777
 20
105.0461723397915961
 30
0.0
 11
660.3740750817831895
 21
105.0720188138917024
 31
0.0
  0
LINE
  5
B3E2
  8
0
 10
660.2376377863834023
 20
105.0493028213917057
 30
0.0
 11
660.2324582831417956
 21
105.0894787591794
 31
0.0
  0
ARC
  5
B3E3
  8
0
 10
660.303952796665385
 20
105.0148419734777008
 30
0.0
 40
0.0312196650863434
 50
54.6272684594738891
 51
121.6277566447956957
  0
ARC
  5
B3E4
  8
0
 10
660.3178243479750336
 20
105.0358769230716973
 30
0.0
 40
0.0060993520423772
 50
294.309194030586923
 51
46.4639537997178635
  0
ARC
  5
B3E5
  8
0
 10
660.3050832508454278
 20
105.0569709460841068
 30
0.0
 40
0.0307080253179962
 50
230.8623789094988865
 51
299.7803734145001044
  0
ARC
  5
B3E6
  8
0
 10
660.2902792706330501
 20
105.036461657654101
 30
0.0
 40
0.0056489684657043
 50
118.5295896598917977
 51
215.8554836070929071
  0
ARC
  5
B3E7
  8
0
 10
659.8074341724951637
 20
105.054473173172596
 30
0.0
 40
0.0467340129372932
 50
186.8599724706459995
 51
241.3336043428753896
  0
ARC
  5
B3E8
  8
0
 10
659.8320521783463164
 20
105.0995015572663931
 30
0.0
 40
0.0980526409994878
 50
241.3336043428753896
 51
294.008176745022979
  0
ARC
  5
B3E9
  8
0
 10
659.8580232504316427
 20
105.0411919708961932
 30
0.0
 40
0.0342207959068828
 50
294.008176745022979
 51
356.4005715904801832
  0
ARC
  5
B3EA
  8
0
 10
659.8674243220687003
 20
105.0735179999493027
 30
0.0
 40
0.029002599307091
 50
355.8983309635178216
 51
22.7083815179188093
  0
ARC
  5
B3EB
  8
0
 10
659.7954259405122457
 20
105.0216211294354025
 30
0.0
 40
0.1171871986009159
 50
32.5744815883508494
 51
91.1227166966286433
  0
ARC
  5
B3EC
  8
0
 10
659.7898854287091126
 20
105.0950506420518025
 30
0.0
 40
0.043855360214787
 50
85.7574555942236429
 51
140.5524572728926103
  0
ARC
  5
B3ED
  8
0
 10
659.7756113134631732
 20
105.1116490926276015
 30
0.0
 40
0.0225995811215669
 50
150.098885953442192
 51
188.3890122108302876
  0
LINE
  5
B3EE
  8
0
 10
659.8921765408491638
 20
105.0390435700602012
 30
0.0
 11
659.896352637011546
 21
105.0714435455318068
 31
0.0
  0
LINE
  5
B3EF
  8
0
 10
659.761034727014362
 20
105.0488911104450978
 30
0.0
 11
659.7532535404114924
 21
105.1083519649317992
 31
0.0
  0
ARC
  5
B3F0
  8
0
 10
659.8270991651834265
 20
105.0096729630199945
 30
0.0
 40
0.0312196650863434
 50
54.6272684594738891
 51
121.6277566447956957
  0
ARC
  5
B3F1
  8
0
 10
659.8409707164930751
 20
105.0307079126141048
 30
0.0
 40
0.0060993520423772
 50
294.309194030586923
 51
46.4639537997178635
  0
ARC
  5
B3F2
  8
0
 10
659.828229619363583
 20
105.0518019356265
 30
0.0
 40
0.0307080253179962
 50
230.8623789094988865
 51
299.7803734145001044
  0
ARC
  5
B3F3
  8
0
 10
659.813425639150978
 20
105.0312926471963948
 30
0.0
 40
0.0056489684657043
 50
118.5295896598917977
 51
215.8554836070929071
  0
ARC
  5
B3F4
  8
0
 10
660.0377454780917788
 20
105.0648456160731001
 30
0.0
 40
0.0476120459237618
 50
191.9696725165539135
 51
249.0407009718884126
  0
ARC
  5
B3F5
  8
0
 10
660.0590662026801283
 20
105.1013737121703002
 30
0.0
 40
0.0896114911339507
 50
244.660672069662894
 51
306.0956750340895951
  0
ARC
  5
B3F6
  8
0
 10
660.0869053536725914
 20
105.057324153954994
 30
0.0
 40
0.0377753450919853
 50
311.3451523654243829
 51
351.6534570690986925
  0
ARC
  5
B3F7
  8
0
 10
660.1075007964353745
 20
105.0791222559533935
 30
0.0
 40
0.0201562885497703
 50
355.9171764836738134
 51
39.892636444613693
  0
ARC
  5
B3F8
  8
0
 10
660.0221463878924624
 20
104.9892214222987974
 30
0.0
 40
0.1440074364992682
 50
45.5651585777494503
 51
88.745626495034017
  0
ARC
  5
B3F9
  8
0
 10
660.0301981090516392
 20
105.0836378361530024
 30
0.0
 40
0.0497980958434391
 50
95.6459942663395708
 51
142.7919097559197041
  0
ARC
  5
B3FA
  8
0
 10
660.0156716907083592
 20
105.0977494997585069
 30
0.0
 40
0.0297964205912824
 50
147.5177444102208142
 51
185.0105494805169997
  0
LINE
  5
B3FB
  8
0
 10
660.124280589792761
 20
105.0518406859122962
 30
0.0
 11
660.1276059317926865
 21
105.077687160012303
 31
0.0
  0
LINE
  5
B3FC
  8
0
 10
659.9911686363926719
 20
105.0549711675123064
 30
0.0
 11
659.9859891331512927
 21
105.0951471053000006
 31
0.0
  0
ARC
  5
B3FD
  8
0
 10
660.0574836466747684
 20
105.0205103195983014
 30
0.0
 40
0.0312196650863434
 50
54.6272684594738891
 51
121.6277566447956957
  0
ARC
  5
B3FE
  8
0
 10
660.0713551979843032
 20
105.041545269192298
 30
0.0
 40
0.0060993520423772
 50
294.309194030586923
 51
46.4639537997178635
  0
ARC
  5
B3FF
  8
0
 10
660.0586141008549248
 20
105.0626392922046932
 30
0.0
 40
0.0307080253179962
 50
230.8623789094988865
 51
299.7803734145001044
  0
ARC
  5
B400
  8
0
 10
660.0438101206424335
 20
105.0421300037746022
 30
0.0
 40
0.0056489684657043
 50
118.5295896598917977
 51
215.8554836070929071
  0
ARC
  5
B401
  8
0
 10
660.1124869020186452
 20
105.275965239685604
 30
0.0
 40
0.0476120459237618
 50
191.9696725165539135
 51
249.0407009718884126
  0
ARC
  5
B402
  8
0
 10
660.1338076266068811
 20
105.3124933357828041
 30
0.0
 40
0.0896114911339507
 50
244.660672069662894
 51
306.0956750340895951
  0
ARC
  5
B403
  8
0
 10
660.1616467775993442
 20
105.2684437775674979
 30
0.0
 40
0.0377753450919853
 50
311.3451523654243829
 51
351.6534570690986925
  0
ARC
  5
B404
  8
0
 10
660.1822422203618999
 20
105.2902418795658974
 30
0.0
 40
0.0201562885497703
 50
355.9171764836738134
 51
39.892636444613693
  0
ARC
  5
B405
  8
0
 10
660.0968878118193288
 20
105.2003410459113013
 30
0.0
 40
0.1440074364992682
 50
45.5651585777494503
 51
88.745626495034017
  0
ARC
  5
B406
  8
0
 10
660.1049395329781646
 20
105.2947574597655063
 30
0.0
 40
0.0497980958434391
 50
95.6459942663395708
 51
142.7919097559197041
  0
ARC
  5
B407
  8
0
 10
660.0904131146352256
 20
105.3088691233709966
 30
0.0
 40
0.0297964205912824
 50
147.5177444102208142
 51
185.0105494805169997
  0
LINE
  5
B408
  8
0
 10
660.1990220137195138
 20
105.2629603095248001
 30
0.0
 11
660.202347355719553
 21
105.2888067836246933
 31
0.0
  0
LINE
  5
B409
  8
0
 10
660.0659100603195384
 20
105.2660907911247961
 30
0.0
 11
660.0607305570780454
 21
105.3062667289125045
 31
0.0
  0
ARC
  5
B40A
  8
0
 10
660.1322250706015211
 20
105.2316299432108053
 30
0.0
 40
0.0312196650863434
 50
54.6272684594738891
 51
121.6277566447956957
  0
ARC
  5
B40B
  8
0
 10
660.1460966219111697
 20
105.2526648928048019
 30
0.0
 40
0.0060993520423772
 50
294.309194030586923
 51
46.4639537997178635
  0
ARC
  5
B40C
  8
0
 10
660.1333555247815639
 20
105.2737589158171971
 30
0.0
 40
0.0307080253179962
 50
230.8623789094988865
 51
299.7803734145001044
  0
ARC
  5
B40D
  8
0
 10
660.1185515445691863
 20
105.2532496273871061
 30
0.0
 40
0.0056489684657043
 50
118.5295896598917977
 51
215.8554836070929071
  0
ARC
  5
B40E
  8
0
 10
660.3521073579663607
 20
105.4302332863442047
 30
0.0
 40
0.0476120459237618
 50
191.9696725165539135
 51
249.0407009718884126
  0
ARC
  5
B40F
  8
0
 10
660.3734280825547103
 20
105.4667613824414047
 30
0.0
 40
0.0896114911339507
 50
244.660672069662894
 51
306.0956750340895951
  0
ARC
  5
B410
  8
0
 10
660.4012672335470597
 20
105.422711824226198
 30
0.0
 40
0.0377753450919853
 50
311.3451523654243829
 51
351.6534570690986925
  0
ARC
  5
B411
  8
0
 10
660.4218626763098428
 20
105.444509926224498
 30
0.0
 40
0.0201562885497703
 50
355.9171764836738134
 51
39.892636444613693
  0
ARC
  5
B412
  8
0
 10
660.3365082677670443
 20
105.3546090925699019
 30
0.0
 40
0.1440074364992682
 50
45.5651585777494503
 51
88.745626495034017
  0
ARC
  5
B413
  8
0
 10
660.3445599889261075
 20
105.4490255064241069
 30
0.0
 40
0.0497980958434391
 50
95.6459942663395708
 51
142.7919097559197041
  0
ARC
  5
B414
  8
0
 10
660.3300335705830548
 20
105.4631371700295972
 30
0.0
 40
0.0297964205912824
 50
147.5177444102208142
 51
185.0105494805169997
  0
LINE
  5
B415
  8
0
 10
660.438642469667343
 20
105.4172283561834007
 30
0.0
 11
660.4419678116672685
 21
105.4430748302833933
 31
0.0
  0
LINE
  5
B416
  8
0
 10
660.3055305162673676
 20
105.4203588377833967
 30
0.0
 11
660.3003510130258746
 21
105.4605347755711051
 31
0.0
  0
ARC
  5
B417
  8
0
 10
660.3718455265493503
 20
105.3858979898694059
 30
0.0
 40
0.0312196650863434
 50
54.6272684594738891
 51
121.6277566447956957
  0
ARC
  5
B418
  8
0
 10
660.3857170778589989
 20
105.406932939463502
 30
0.0
 40
0.0060993520423772
 50
294.309194030586923
 51
46.4639537997178635
  0
ARC
  5
B419
  8
0
 10
660.3729759807293931
 20
105.4280269624758972
 30
0.0
 40
0.0307080253179962
 50
230.8623789094988865
 51
299.7803734145001044
  0
ARC
  5
B41A
  8
0
 10
660.3581720005170155
 20
105.4075176740458062
 30
0.0
 40
0.0056489684657043
 50
118.5295896598917977
 51
215.8554836070929071
  0
ARC
  5
B41B
  8
0
 10
660.3903327420289315
 20
105.2216472859216054
 30
0.0
 40
0.0476120459237618
 50
191.9696725165539135
 51
249.0407009718884126
  0
ARC
  5
B41C
  8
0
 10
660.4116534666171674
 20
105.2581753820188055
 30
0.0
 40
0.0896114911339507
 50
244.660672069662894
 51
306.0956750340895951
  0
ARC
  5
B41D
  8
0
 10
660.4394926176096305
 20
105.2141258238034993
 30
0.0
 40
0.0377753450919853
 50
311.3451523654243829
 51
351.6534570690986925
  0
ARC
  5
B41E
  8
0
 10
660.4600880603724136
 20
105.2359239258017993
 30
0.0
 40
0.0201562885497703
 50
355.9171764836738134
 51
39.892636444613693
  0
ARC
  5
B41F
  8
0
 10
660.3747336518296152
 20
105.1460230921472032
 30
0.0
 40
0.1440074364992682
 50
45.5651585777494503
 51
88.745626495034017
  0
ARC
  5
B420
  8
0
 10
660.3827853729885646
 20
105.240439506001394
 30
0.0
 40
0.0497980958434391
 50
95.6459942663395708
 51
142.7919097559197041
  0
ARC
  5
B421
  8
0
 10
660.3682589546456256
 20
105.254551169606998
 30
0.0
 40
0.0297964205912824
 50
147.5177444102208142
 51
185.0105494805169997
  0
LINE
  5
B422
  8
0
 10
660.4768678537298001
 20
105.208642355760702
 30
0.0
 11
660.4801931957298393
 21
105.2344888298606946
 31
0.0
  0
LINE
  5
B423
  8
0
 10
660.3437559003298247
 20
105.211772837360698
 30
0.0
 11
660.3385763970884454
 21
105.2519487751485059
 31
0.0
  0
ARC
  5
B424
  8
0
 10
660.4100709106118074
 20
105.177311989446693
 30
0.0
 40
0.0312196650863434
 50
54.6272684594738891
 51
121.6277566447956957
  0
ARC
  5
B425
  8
0
 10
660.423942461921456
 20
105.1983469390408032
 30
0.0
 40
0.0060993520423772
 50
294.309194030586923
 51
46.4639537997178635
  0
ARC
  5
B426
  8
0
 10
660.4112013647918502
 20
105.2194409620531985
 30
0.0
 40
0.0307080253179962
 50
230.8623789094988865
 51
299.7803734145001044
  0
ARC
  5
B427
  8
0
 10
660.3963973845795863
 20
105.1989316736230933
 30
0.0
 40
0.0056489684657043
 50
118.5295896598917977
 51
215.8554836070929071
  0
ARC
  5
B428
  8
0
 10
660.5885982098261593
 20
105.3346888697774943
 30
0.0
 40
0.0476120459237618
 50
191.9696725165539135
 51
249.0407009718884126
  0
ARC
  5
B429
  8
0
 10
660.6099189344141678
 20
105.3712169658746944
 30
0.0
 40
0.0896114911339507
 50
244.660672069662894
 51
306.0956750340895951
  0
ARC
  5
B42A
  8
0
 10
660.6377580854067446
 20
105.3271674076594024
 30
0.0
 40
0.0377753450919853
 50
311.3451523654243829
 51
351.6534570690986925
  0
ARC
  5
B42B
  8
0
 10
660.6583535281695276
 20
105.3489655096577025
 30
0.0
 40
0.0201562885497703
 50
355.9171764836738134
 51
39.892636444613693
  0
ARC
  5
B42C
  8
0
 10
660.5729991196267292
 20
105.2590646760031063
 30
0.0
 40
0.1440074364992682
 50
45.5651585777494503
 51
88.745626495034017
  0
ARC
  5
B42D
  8
0
 10
660.5810508407856787
 20
105.3534810898572971
 30
0.0
 40
0.0497980958434391
 50
95.6459942663395708
 51
142.7919097559197041
  0
ARC
  5
B42E
  8
0
 10
660.5665244224427397
 20
105.3675927534629011
 30
0.0
 40
0.0297964205912824
 50
147.5177444102208142
 51
185.0105494805169997
  0
LINE
  5
B42F
  8
0
 10
660.6751333215270279
 20
105.3216839396166051
 30
0.0
 11
660.6784586635269534
 21
105.3475304137165978
 31
0.0
  0
LINE
  5
B430
  8
0
 10
660.5420213681270525
 20
105.3248144212166011
 30
0.0
 11
660.5368418648854458
 21
105.3649903590042953
 31
0.0
  0
ARC
  5
B431
  8
0
 10
660.6083363784090352
 20
105.2903535733025961
 30
0.0
 40
0.0312196650863434
 50
54.6272684594738891
 51
121.6277566447956957
  0
ARC
  5
B432
  8
0
 10
660.6222079297186838
 20
105.3113885228967064
 30
0.0
 40
0.0060993520423772
 50
294.309194030586923
 51
46.4639537997178635
  0
ARC
  5
B433
  8
0
 10
660.609466832589078
 20
105.3324825459091016
 30
0.0
 40
0.0307080253179962
 50
230.8623789094988865
 51
299.7803734145001044
  0
ARC
  5
B434
  8
0
 10
660.5946628523767004
 20
105.3119732574789964
 30
0.0
 40
0.0056489684657043
 50
118.5295896598917977
 51
215.8554836070929071
  0
ARC
  5
B435
  8
0
 10
659.8345976609053878
 20
105.3224183668313998
 30
0.0
 40
0.0476120459237618
 50
191.9696725165539135
 51
249.0407009718884126
  0
ARC
  5
B436
  8
0
 10
659.8559183854936236
 20
105.3589464629285999
 30
0.0
 40
0.0896114911339507
 50
244.660672069662894
 51
306.0956750340895951
  0
ARC
  5
B437
  8
0
 10
659.8837575364859731
 20
105.3148969047132937
 30
0.0
 40
0.0377753450919853
 50
311.3451523654243829
 51
351.6534570690986925
  0
ARC
  5
B438
  8
0
 10
659.9043529792487561
 20
105.3366950067116932
 30
0.0
 40
0.0201562885497703
 50
355.9171764836738134
 51
39.892636444613693
  0
ARC
  5
B439
  8
0
 10
659.818998570705844
 20
105.2467941730570971
 30
0.0
 40
0.1440074364992682
 50
45.5651585777494503
 51
88.745626495034017
  0
ARC
  5
B43A
  8
0
 10
659.8270502918650209
 20
105.341210586911302
 30
0.0
 40
0.0497980958434391
 50
95.6459942663395708
 51
142.7919097559197041
  0
ARC
  5
B43B
  8
0
 10
659.8125238735218545
 20
105.3553222505168065
 30
0.0
 40
0.0297964205912824
 50
147.5177444102208142
 51
185.0105494805162039
  0
LINE
  5
B43C
  8
0
 10
659.9211327726062564
 20
105.3094134366704964
 30
0.0
 11
659.9244581146062956
 21
105.3352599107705032
 31
0.0
  0
LINE
  5
B43D
  8
0
 10
659.7880208192061673
 20
105.3125439182705065
 30
0.0
 11
659.7828413159646743
 21
105.3527198560583003
 31
0.0
  0
ARC
  5
B43E
  8
0
 10
659.85433582948815
 20
105.2780830703565016
 30
0.0
 40
0.0312196650863434
 50
54.6272684594738891
 51
121.6277566447956957
  0
ARC
  5
B43F
  8
0
 10
659.8682073807979123
 20
105.2991180199505976
 30
0.0
 40
0.0060993520423772
 50
294.309194030586923
 51
46.4639537997178635
  0
ARC
  5
B440
  8
0
 10
659.8554662836684201
 20
105.3202120429630071
 30
0.0
 40
0.0307080253179962
 50
230.8623789094988865
 51
299.7803734145001044
  0
ARC
  5
B441
  8
0
 10
659.8406623034559288
 20
105.2997027545329018
 30
0.0
 40
0.0056489684657043
 50
118.5295896598917977
 51
215.8554836070929071
  0
ARC
  5
B442
  8
0
 10
660.1107938194993494
 20
105.5087289271188951
 30
0.0
 40
0.0476120459237618
 50
191.9696725165539135
 51
249.0407009718884126
  0
ARC
  5
B443
  8
0
 10
660.1321145440874716
 20
105.5452570232160951
 30
0.0
 40
0.0896114911339507
 50
244.660672069662894
 51
306.0956750340895951
  0
ARC
  5
B444
  8
0
 10
660.1599536950800484
 20
105.5012074650008032
 30
0.0
 40
0.0377753450919853
 50
311.3451523654243829
 51
351.6534570690986925
  0
ARC
  5
B445
  8
0
 10
660.1815686791950384
 20
105.5489726781954971
 30
0.0
 40
0.0201562885497703
 50
355.9171764836738134
 51
39.892636444613693
  0
ARC
  5
B446
  8
0
 10
660.09621427065224
 20
105.459071844540901
 30
0.0
 40
0.1440074364992682
 50
45.5651585777494503
 51
88.745626495034017
  0
ARC
  5
B447
  8
0
 10
660.1042659918113031
 20
105.553488258395106
 30
0.0
 40
0.0497980958434391
 50
95.6459942663395708
 51
142.7919097559197041
  0
ARC
  5
B448
  8
0
 10
660.0897395734682505
 20
105.5675999220006958
 30
0.0
 40
0.0297964205912824
 50
147.5177444102208142
 51
185.0105494805162039
  0
LINE
  5
B449
  8
0
 10
660.1973289312003317
 20
105.4957239969580058
 30
0.0
 11
660.2016738145524641
 21
105.5475375822544066
 31
0.0
  0
LINE
  5
B44A
  8
0
 10
660.0642169778003563
 20
105.4988544785580018
 30
0.0
 11
660.0600570159110703
 21
105.5649975275422037
 31
0.0
  0
ARC
  5
B44B
  8
0
 10
660.130531988082339
 20
105.4643936306439969
 30
0.0
 40
0.0312196650863434
 50
54.6272684594738891
 51
121.6277566447956957
  0
ARC
  5
B44C
  8
0
 10
660.1444035393918739
 20
105.4854285802381071
 30
0.0
 40
0.0060993520423772
 50
294.309194030586923
 51
46.4639537997178635
  0
ARC
  5
B44D
  8
0
 10
660.1316624422624955
 20
105.5065226032505024
 30
0.0
 40
0.0307080253179962
 50
230.8623789094988865
 51
299.7803734145001044
  0
ARC
  5
B44E
  8
0
 10
660.1168584620498905
 20
105.4860133148203971
 30
0.0
 40
0.0056489684657043
 50
118.5295896598917977
 51
215.8554836070929071
  0
ARC
  5
B44F
  8
0
 10
660.3763628609427769
 20
105.7200457419300932
 30
0.0
 40
0.0476120459237618
 50
191.9696725165539135
 51
249.0407009718884126
  0
ARC
  5
B450
  8
0
 10
660.3976835855310128
 20
105.7565738380272933
 30
0.0
 40
0.0896114911339507
 50
244.660672069662894
 51
306.0956750340895951
  0
ARC
  5
B451
  8
0
 10
660.4255227365234759
 20
105.7125242798120013
 30
0.0
 40
0.0377753450919853
 50
311.3451523654243829
 51
351.6534570690986925
  0
ARC
  5
B452
  8
0
 10
660.446118179286259
 20
105.7343223818103013
 30
0.0
 40
0.0201562885497703
 50
355.9171764836738134
 51
39.892636444613693
  0
ARC
  5
B453
  8
0
 10
660.3812310207039218
 20
105.6930052955470956
 30
0.0
 40
0.0969479045605034
 50
34.0226455200092772
 51
100.2881395527713977
  0
ARC
  5
B454
  8
0
 10
660.3688154919025237
 20
105.7388379620099954
 30
0.0
 40
0.0497980958434391
 50
95.6459942663395708
 51
142.7919097559197041
  0
ARC
  5
B455
  8
0
 10
660.3542890735593573
 20
105.7529496256154999
 30
0.0
 40
0.0297964205912824
 50
147.5177444102208142
 51
185.0105494805162039
  0
LINE
  5
B456
  8
0
 10
660.4628979726436455
 20
105.707040811769204
 30
0.0
 11
660.466223314643571
 21
105.7328872858691966
 31
0.0
  0
LINE
  5
B457
  8
0
 10
660.3297860192435564
 20
105.7101712933691999
 30
0.0
 11
660.3246065160021772
 21
105.7503472311569936
 31
0.0
  0
ARC
  5
B458
  8
0
 10
660.3961010295256528
 20
105.675710445455195
 30
0.0
 40
0.0312196650863434
 50
54.6272684594738891
 51
121.6277566447956957
  0
ARC
  5
B459
  8
0
 10
660.4099725808353014
 20
105.6967453950493052
 30
0.0
 40
0.0060993520423772
 50
294.309194030586923
 51
46.4639537997178635
  0
ARC
  5
B45A
  8
0
 10
660.3972314837058093
 20
105.7178394180617005
 30
0.0
 40
0.0307080253179962
 50
230.8623789094988865
 51
299.7803734145001044
  0
ARC
  5
B45B
  8
0
 10
660.3824275034932043
 20
105.6973301296315952
 30
0.0
 40
0.0056489684657043
 50
118.5295896598917977
 51
215.8554836070929071
  0
ARC
  5
B45C
  8
0
 10
660.8239788724604296
 20
105.7746873775294034
 30
0.0
 40
0.0476120459237618
 50
191.9696725165539135
 51
249.0407009718884126
  0
ARC
  5
B45D
  8
0
 10
660.8452995970485517
 20
105.8112154736266035
 30
0.0
 40
0.0896114911339507
 50
244.660672069662894
 51
306.0956750340895951
  0
ARC
  5
B45E
  8
0
 10
660.8731387480410149
 20
105.7671659154112973
 30
0.0
 40
0.0377753450919853
 50
311.3451523654243829
 51
351.6534570690986925
  0
ARC
  5
B45F
  8
0
 10
660.8947537321560048
 20
105.8149311286060055
 30
0.0
 40
0.0201562885497703
 50
355.9171764836738134
 51
39.892636444613693
  0
ARC
  5
B460
  8
0
 10
660.8405754593458141
 20
105.7990340573521024
 30
0.0
 40
0.0753724639919125
 50
22.48398468692859
 51
111.8268003858512003
  0
ARC
  5
B461
  8
0
 10
660.8174510447722696
 20
105.8194467088056996
 30
0.0
 40
0.0497980958434391
 50
95.6459942663395708
 51
142.7919097559197041
  0
ARC
  5
B462
  8
0
 10
660.8029246264292169
 20
105.8335583724112041
 30
0.0
 40
0.0297964205912824
 50
147.5177444102208142
 51
185.0105494805162039
  0
LINE
  5
B463
  8
0
 10
660.9105139841612981
 20
105.7616824473685
 30
0.0
 11
660.9148588675134306
 21
105.8134960326649008
 31
0.0
  0
LINE
  5
B464
  8
0
 10
660.7774020307613227
 20
105.764812928968496
 30
0.0
 11
660.7732420688720367
 21
105.8309559779526978
 31
0.0
  0
ARC
  5
B465
  8
0
 10
660.8437170410431918
 20
105.7303520810545052
 30
0.0
 40
0.0312196650863434
 50
54.6272684594738891
 51
121.6277566447956957
  0
ARC
  5
B466
  8
0
 10
660.857588592352954
 20
105.7513870306486012
 30
0.0
 40
0.0060993520423772
 50
294.309194030586923
 51
46.4639537997178635
  0
ARC
  5
B467
  8
0
 10
660.8448474952233482
 20
105.7724810536609965
 30
0.0
 40
0.0307080253179962
 50
230.8623789094988865
 51
299.7803734145001044
  0
ARC
  5
B468
  8
0
 10
660.8300435150108569
 20
105.7519717652309055
 30
0.0
 40
0.0056489684657043
 50
118.5295896598917977
 51
215.8554836070929071
  0
ARC
  5
B469
  8
0
 10
660.8388108422898313
 20
105.4331304355057028
 30
0.0
 40
0.0476120459237618
 50
191.9696725165539135
 51
249.0407009718884126
  0
ARC
  5
B46A
  8
0
 10
660.8601315668780671
 20
105.4696585316029029
 30
0.0
 40
0.0896114911339507
 50
244.660672069662894
 51
306.0956750340895951
  0
ARC
  5
B46B
  8
0
 10
660.8879707178705303
 20
105.4256089733875967
 30
0.0
 40
0.0377753450919853
 50
311.3451523654243829
 51
351.6534570690986925
  0
ARC
  5
B46C
  8
0
 10
660.8695011420287528
 20
105.4426720500506036
 30
0.0
 40
0.0592621013285987
 50
3.1920884945240471
 51
18.5391085934364206
  0
ARC
  5
B46D
  8
0
 10
660.8521706810953447
 20
105.4222092162537052
 30
0.0
 40
0.0833648444273929
 50
28.1307786488993088
 51
108.0327249706737973
  0
ARC
  5
B46E
  8
0
 10
660.8312634732494644
 20
105.4519226555856051
 30
0.0
 40
0.0497980958434391
 50
95.6459942663395708
 51
142.7919097559197041
  0
ARC
  5
B46F
  8
0
 10
660.8167370549065254
 20
105.4660343191910954
 30
0.0
 40
0.0297964205912824
 50
147.5177444102208142
 51
185.0105494805162039
  0
LINE
  5
B470
  8
0
 10
660.9253459539908135
 20
105.4201255053447994
 30
0.0
 11
660.9286712959907391
 21
105.4459719794448063
 31
0.0
  0
LINE
  5
B471
  8
0
 10
660.7922340005907245
 20
105.4232559869447954
 30
0.0
 11
660.7870544973493452
 21
105.4634319247326033
 31
0.0
  0
ARC
  5
B472
  8
0
 10
660.8585490108727072
 20
105.3887951390308046
 30
0.0
 40
0.0312196650863434
 50
54.6272684594738891
 51
121.6277566447956957
  0
ARC
  5
B473
  8
0
 10
660.8724205621823558
 20
105.4098300886249007
 30
0.0
 40
0.0060993520423772
 50
294.309194030586923
 51
46.4639537997178635
  0
ARC
  5
B474
  8
0
 10
660.8596794650527499
 20
105.4309241116372959
 30
0.0
 40
0.0307080253179962
 50
230.8623789094988865
 51
299.7803734145001044
  0
ARC
  5
B475
  8
0
 10
660.844875484840486
 20
105.4104148232072049
 30
0.0
 40
0.0056489684657043
 50
118.5295896598917977
 51
215.8554836070929071
  0
ARC
  5
B476
  8
0
 10
660.9806165294775155
 20
105.6232841739757049
 30
0.0
 40
0.0476120459237618
 50
191.9696725165539135
 51
249.0407009718884126
  0
ARC
  5
B477
  8
0
 10
661.0019372540657514
 20
105.659812270072905
 30
0.0
 40
0.0896114911339507
 50
244.660672069662894
 51
306.0956750340895951
  0
ARC
  5
B478
  8
0
 10
661.0297764050582146
 20
105.6157627118575988
 30
0.0
 40
0.0377753450919853
 50
311.3451523654243829
 51
351.6534570690986925
  0
ARC
  5
B479
  8
0
 10
661.0113068292165508
 20
105.6328257885207051
 30
0.0
 40
0.0592621013285987
 50
3.1920884945240471
 51
18.5391085934364206
  0
ARC
  5
B47A
  8
0
 10
660.9939763682830289
 20
105.6123629547238068
 30
0.0
 40
0.0833648444273929
 50
28.1307786488993088
 51
108.0327249706737973
  0
ARC
  5
B47B
  8
0
 10
660.9730691604371486
 20
105.6420763940555929
 30
0.0
 40
0.0497980958434391
 50
95.6459942663395708
 51
142.7919097559197041
  0
ARC
  5
B47C
  8
0
 10
660.9585427420942096
 20
105.6561880576610974
 30
0.0
 40
0.0297964205912824
 50
147.5177444102208142
 51
185.0105494805162039
  0
LINE
  5
B47D
  8
0
 10
661.0671516411783841
 20
105.610279243814901
 30
0.0
 11
661.0704769831784233
 21
105.6361257179148936
 31
0.0
  0
LINE
  5
B47E
  8
0
 10
660.9340396877784087
 20
105.6134097254148969
 30
0.0
 11
660.9288601845370295
 21
105.6535856632026054
 31
0.0
  0
ARC
  5
B47F
  8
0
 10
661.0003546980602778
 20
105.5789488775009062
 30
0.0
 40
0.0312196650863434
 50
54.6272684594738891
 51
121.6277566447956957
  0
ARC
  5
B480
  8
0
 10
661.01422624937004
 20
105.5999838270949027
 30
0.0
 40
0.0060993520423772
 50
294.309194030586923
 51
46.4639537997178635
  0
ARC
  5
B481
  8
0
 10
661.0014851522405479
 20
105.6210778501073975
 30
0.0
 40
0.0307080253179962
 50
230.8623789094988865
 51
299.7803734145001044
  0
ARC
  5
B482
  8
0
 10
660.9866811720280566
 20
105.6005685616773064
 30
0.0
 40
0.0056489684657043
 50
118.5295896598917977
 51
215.8554836070929071
  0
ARC
  5
B483
  8
0
 10
660.6155982007746843
 20
105.5800078090522049
 30
0.0
 40
0.0476120459237618
 50
191.9696725165539135
 51
249.0407009718884126
  0
ARC
  5
B484
  8
0
 10
660.6369189253629202
 20
105.616535905149405
 30
0.0
 40
0.0896114911339507
 50
244.660672069662894
 51
306.0956750340895951
  0
ARC
  5
B485
  8
0
 10
660.6647580763553833
 20
105.5724863469340988
 30
0.0
 40
0.0377753450919853
 50
311.3451523654243829
 51
351.6534570690986925
  0
ARC
  5
B486
  8
0
 10
660.6462885005137196
 20
105.5895494235971057
 30
0.0
 40
0.0592621013285987
 50
3.1920884945240471
 51
18.5391085934364206
  0
ARC
  5
B487
  8
0
 10
660.628958039580084
 20
105.5690865898001931
 30
0.0
 40
0.0833648444273929
 50
28.1307786488993088
 51
108.0327249706737973
  0
ARC
  5
B488
  8
0
 10
660.6080508317344311
 20
105.598800029132093
 30
0.0
 40
0.0497980958434391
 50
95.6459942663395708
 51
142.7919097559197041
  0
ARC
  5
B489
  8
0
 10
660.5935244133912647
 20
105.6129116927375975
 30
0.0
 40
0.0297964205912824
 50
147.5177444102208142
 51
185.0105494805162039
  0
LINE
  5
B48A
  8
0
 10
660.7021333124755529
 20
105.5670028788913015
 30
0.0
 11
660.7054586544754784
 21
105.5928493529912942
 31
0.0
  0
LINE
  5
B48B
  8
0
 10
660.5690213590754638
 20
105.5701333604912975
 30
0.0
 11
660.5638418558341982
 21
105.6103092982791054
 31
0.0
  0
ARC
  5
B48C
  8
0
 10
660.6353363693575602
 20
105.5356725125773067
 30
0.0
 40
0.0312196650863434
 50
54.6272684594738891
 51
121.6277566447956957
  0
ARC
  5
B48D
  8
0
 10
660.6492079206673225
 20
105.5567074621714028
 30
0.0
 40
0.0060993520423772
 50
294.309194030586923
 51
46.4639537997178635
  0
ARC
  5
B48E
  8
0
 10
660.6364668235377167
 20
105.577801485183798
 30
0.0
 40
0.0307080253179962
 50
230.8623789094988865
 51
299.7803734145001044
  0
ARC
  5
B48F
  8
0
 10
660.6216628433253391
 20
105.557292196753707
 30
0.0
 40
0.0056489684657043
 50
118.5295896598917977
 51
215.8554836070929071
  0
ARC
  5
B490
  8
0
 10
661.1212039092490613
 20
105.4605975417561012
 30
0.0
 40
0.0476120459237618
 50
191.9696725165539135
 51
249.0407009718884126
  0
ARC
  5
B491
  8
0
 10
661.1425246338374109
 20
105.4971256378533013
 30
0.0
 40
0.0896114911339507
 50
244.660672069662894
 51
306.0956750340895951
  0
ARC
  5
B492
  8
0
 10
661.1703637848297603
 20
105.4530760796379951
 30
0.0
 40
0.0377753450919853
 50
311.3451523654243829
 51
351.6534570690986925
  0
ARC
  5
B493
  8
0
 10
661.1518942089880966
 20
105.470139156301002
 30
0.0
 40
0.0592621013285987
 50
3.1920884945240471
 51
18.5391085934364206
  0
ARC
  5
B494
  8
0
 10
661.1345637480545747
 20
105.4496763225041036
 30
0.0
 40
0.0833648444273929
 50
28.1307786488993088
 51
108.0327249706737973
  0
ARC
  5
B495
  8
0
 10
661.1136565402089218
 20
105.479389761835904
 30
0.0
 40
0.0497980958434391
 50
95.6459942663395708
 51
142.7919097559197041
  0
ARC
  5
B496
  8
0
 10
661.0991301218658691
 20
105.4935014254414938
 30
0.0
 40
0.0297964205912824
 50
147.5177444102208142
 51
185.0105494805162039
  0
LINE
  5
B497
  8
0
 10
661.2077390209500436
 20
105.4475926115951978
 30
0.0
 11
661.2110643629500828
 21
105.4734390856952047
 31
0.0
  0
LINE
  5
B498
  8
0
 10
661.0746270675499545
 20
105.4507230931951938
 30
0.0
 11
661.0694475643086889
 21
105.4908990309830017
 31
0.0
  0
ARC
  5
B499
  8
0
 10
661.1409420778320509
 20
105.416262245281203
 30
0.0
 40
0.0312196650863434
 50
54.6272684594738891
 51
121.6277566447956957
  0
ARC
  5
B49A
  8
0
 10
661.1548136291418132
 20
105.4372971948752991
 30
0.0
 40
0.0060993520423772
 50
294.309194030586923
 51
46.4639537997178635
  0
ARC
  5
B49B
  8
0
 10
661.1420725320122074
 20
105.4583912178876943
 30
0.0
 40
0.0307080253179962
 50
230.8623789094988865
 51
299.7803734145001044
  0
ARC
  5
B49C
  8
0
 10
661.1272685517998298
 20
105.4378819294576033
 30
0.0
 40
0.0056489684657043
 50
118.5295896598917977
 51
215.8554836070929071
  0
ARC
  5
B49D
  8
0
 10
661.0424306876742548
 20
105.2844657500924939
 30
0.0
 40
0.0476120459237618
 50
191.9696725165539135
 51
249.0407009718884126
  0
ARC
  5
B49E
  8
0
 10
661.0637514122624907
 20
105.320993846189694
 30
0.0
 40
0.0896114911339507
 50
244.660672069662894
 51
306.0956750340895951
  0
ARC
  5
B49F
  8
0
 10
661.0915905632549538
 20
105.276944287974402
 30
0.0
 40
0.0377753450919853
 50
311.3451523654243829
 51
351.6534570690986925
  0
ARC
  5
B4A0
  8
0
 10
661.0731209874134038
 20
105.2940073646373946
 30
0.0
 40
0.0592621013285987
 50
3.1920884945240471
 51
18.5391085934364206
  0
ARC
  5
B4A1
  8
0
 10
661.0557905264798819
 20
105.2735445308404962
 30
0.0
 40
0.0833648444273929
 50
28.1307786488993088
 51
108.0327249706737973
  0
ARC
  5
B4A2
  8
0
 10
661.0348833186341153
 20
105.3032579701723961
 30
0.0
 40
0.0497980958434391
 50
95.6459942663395708
 51
142.7919097559197041
  0
ARC
  5
B4A3
  8
0
 10
661.0203569002909489
 20
105.3173696337779006
 30
0.0
 40
0.0297964205912824
 50
147.5177444102208142
 51
185.0105494805162039
  0
LINE
  5
B4A4
  8
0
 10
661.1289657993752371
 20
105.2714608199316046
 30
0.0
 11
661.1322911413751626
 21
105.2973072940315973
 31
0.0
  0
LINE
  5
B4A5
  8
0
 10
660.9958538459752617
 20
105.2745913015316006
 30
0.0
 11
660.9906743427337688
 21
105.3147672393193943
 31
0.0
  0
ARC
  5
B4A6
  8
0
 10
661.0621688562572444
 20
105.2401304536175957
 30
0.0
 40
0.0312196650863434
 50
54.6272684594738891
 51
121.6277566447956957
  0
ARC
  5
B4A7
  8
0
 10
661.0760404075667793
 20
105.2611654032117059
 30
0.0
 40
0.0060993520423772
 50
294.309194030586923
 51
46.4639537997178635
  0
ARC
  5
B4A8
  8
0
 10
661.0632993104374009
 20
105.2822594262241012
 30
0.0
 40
0.0307080253179962
 50
230.8623789094988865
 51
299.7803734145001044
  0
ARC
  5
B4A9
  8
0
 10
661.0484953302249096
 20
105.2617501377939959
 30
0.0
 40
0.0056489684657043
 50
118.5295896598917977
 51
215.8554836070929071
  0
ARC
  5
B4AA
  8
0
 10
660.6669081932998324
 20
105.1585708288968988
 30
0.0
 40
0.0476120459237618
 50
191.9696725165539135
 51
249.0407009718884126
  0
ARC
  5
B4AB
  8
0
 10
660.6882289178879546
 20
105.1950989249940989
 30
0.0
 40
0.0896114911339507
 50
244.660672069662894
 51
306.0956750340895951
  0
ARC
  5
B4AC
  8
0
 10
660.7160680688804177
 20
105.1510493667788069
 30
0.0
 40
0.0377753450919853
 50
311.3451523654243829
 51
351.6534570690986925
  0
ARC
  5
B4AD
  8
0
 10
660.697598493038754
 20
105.1681124434417995
 30
0.0
 40
0.0592621013285987
 50
3.1920884945240471
 51
18.5391085934364206
  0
ARC
  5
B4AE
  8
0
 10
660.6802680321052321
 20
105.1476496096449011
 30
0.0
 40
0.0833648444273929
 50
28.1307786488993088
 51
108.0327249706737973
  0
ARC
  5
B4AF
  8
0
 10
660.6593608242594655
 20
105.177363048976801
 30
0.0
 40
0.0497980958434391
 50
95.6459942663395708
 51
142.7919097559197041
  0
ARC
  5
B4B0
  8
0
 10
660.6448344059164128
 20
105.1914747125823055
 30
0.0
 40
0.0297964205912824
 50
147.5177444102208142
 51
185.0105494805162039
  0
LINE
  5
B4B1
  8
0
 10
660.7534433050005873
 20
105.1455658987359953
 30
0.0
 11
660.7567686470006265
 21
105.1714123728360022
 31
0.0
  0
LINE
  5
B4B2
  8
0
 10
660.6203313516007256
 20
105.1486963803360055
 30
0.0
 11
660.6151518483592326
 21
105.1888723181237992
 31
0.0
  0
ARC
  5
B4B3
  8
0
 10
660.6866463618827083
 20
105.1142355324220006
 30
0.0
 40
0.0312196650863434
 50
54.6272684594738891
 51
121.6277566447956957
  0
ARC
  5
B4B4
  8
0
 10
660.7005179131922432
 20
105.1352704820160966
 30
0.0
 40
0.0060993520423772
 50
294.309194030586923
 51
46.4639537997178635
  0
ARC
  5
B4B5
  8
0
 10
660.6877768160627511
 20
105.1563645050285061
 30
0.0
 40
0.0307080253179962
 50
230.8623789094988865
 51
299.7803734145001044
  0
ARC
  5
B4B6
  8
0
 10
660.6729728358502598
 20
105.1358552165984008
 30
0.0
 40
0.0056489684657043
 50
118.5295896598917977
 51
215.8554836070929071
  0
ARC
  5
B4B7
  8
0
 10
660.8441057768476412
 20
105.0032119972332936
 30
0.0
 40
0.0476120459237618
 50
191.9696725165539135
 51
249.0407009718884126
  0
ARC
  5
B4B8
  8
0
 10
660.8654265014357634
 20
105.0397400933303942
 30
0.0
 40
0.0896114911339507
 50
244.660672069662894
 51
306.0956750340895951
  0
ARC
  5
B4B9
  8
0
 10
660.8932656524283402
 20
104.9956905351152017
 30
0.0
 40
0.0377753450919853
 50
311.3451523654243829
 51
351.6534570690986925
  0
ARC
  5
B4BA
  8
0
 10
660.8747960765865628
 20
105.0127536117781943
 30
0.0
 40
0.0592621013285987
 50
3.1920884945240471
 51
18.5391085934364206
  0
ARC
  5
B4BB
  8
0
 10
660.8574656156531546
 20
104.9922907779812959
 30
0.0
 40
0.0833648444273929
 50
28.1307786488993088
 51
108.0327249706737973
  0
ARC
  5
B4BC
  8
0
 10
660.8365584078072743
 20
105.0220042173130963
 30
0.0
 40
0.0497980958434391
 50
95.6459942663395708
 51
142.7919097559197041
  0
ARC
  5
B4BD
  8
0
 10
660.8220319894642216
 20
105.0361158809187003
 30
0.0
 40
0.0297964205912824
 50
147.5177444102208142
 51
185.0105494805162039
  0
LINE
  5
B4BE
  8
0
 10
660.9306408885485098
 20
104.9902070670724044
 30
0.0
 11
660.933966230548549
 21
105.016053541172397
 31
0.0
  0
LINE
  5
B4BF
  8
0
 10
660.7975289351485344
 20
104.9933375486724003
 30
0.0
 11
660.7923494319070414
 21
105.0335134864600946
 31
0.0
  0
ARC
  5
B4C0
  8
0
 10
660.8638439454304034
 20
104.9588767007583954
 30
0.0
 40
0.0312196650863434
 50
54.6272684594738891
 51
121.6277566447956957
  0
ARC
  5
B4C1
  8
0
 10
660.877715496740052
 20
104.9799116503525056
 30
0.0
 40
0.0060993520423772
 50
294.309194030586923
 51
46.4639537997178635
  0
ARC
  5
B4C2
  8
0
 10
660.8649743996106736
 20
105.0010056733648014
 30
0.0
 40
0.0307080253179962
 50
230.8623789094988865
 51
299.7803734145001044
  0
ARC
  5
B4C3
  8
0
 10
660.8501704193980686
 20
104.9804963849347956
 30
0.0
 40
0.0056489684657043
 50
118.5295896598917977
 51
215.8554836070929071
  0
ARC
  5
B4C4
  8
0
 10
660.7656793245912468
 20
104.8638894778347037
 30
0.0
 40
0.0476120459237618
 50
191.9696725165539135
 51
249.0407009718884126
  0
ARC
  5
B4C5
  8
0
 10
660.7870000491795963
 20
104.9004175739319038
 30
0.0
 40
0.0896114911339507
 50
244.660672069662894
 51
306.0956750340895951
  0
ARC
  5
B4C6
  8
0
 10
660.8148392001719458
 20
104.8563680157165976
 30
0.0
 40
0.0377753450919853
 50
311.3451523654243829
 51
351.6534570690986925
  0
ARC
  5
B4C7
  8
0
 10
660.796369624330282
 20
104.873431092379704
 30
0.0
 40
0.0592621013285987
 50
3.1920884945240471
 51
18.5391085934364206
  0
ARC
  5
B4C8
  8
0
 10
660.7790391633968738
 20
104.8529682585827061
 30
0.0
 40
0.0833648444273929
 50
28.1307786488993088
 51
108.0327249706737973
  0
ARC
  5
B4C9
  8
0
 10
660.7581319555511072
 20
104.8826816979146059
 30
0.0
 40
0.0497980958434391
 50
95.6459942663395708
 51
142.7919097559197041
  0
ARC
  5
B4CA
  8
0
 10
660.7436055372080546
 20
104.8967933615200963
 30
0.0
 40
0.0297964205912824
 50
147.5177444102208142
 51
185.0105494805162039
  0
LINE
  5
B4CB
  8
0
 10
660.8522144362923427
 20
104.8508845476738998
 30
0.0
 11
660.8555397782922682
 21
104.8767310217739066
 31
0.0
  0
LINE
  5
B4CC
  8
0
 10
660.7191024828922536
 20
104.8540150292737962
 30
0.0
 11
660.7139229796508744
 21
104.8941909670616042
 31
0.0
  0
ARC
  5
B4CD
  8
0
 10
660.7854174931742364
 20
104.819554181359905
 30
0.0
 40
0.0312196650863434
 50
54.6272684594738891
 51
121.6277566447956957
  0
ARC
  5
B4CE
  8
0
 10
660.7992890444838849
 20
104.8405891309539015
 30
0.0
 40
0.0060993520423772
 50
294.309194030586923
 51
46.4639537997178635
  0
ARC
  5
B4CF
  8
0
 10
660.7865479473542791
 20
104.8616831539662968
 30
0.0
 40
0.0307080253179962
 50
230.8623789094988865
 51
299.7803734145001044
  0
ARC
  5
B4D0
  8
0
 10
660.7717439671420152
 20
104.8411738655362058
 30
0.0
 40
0.0056489684657043
 50
118.5295896598917977
 51
215.8554836070929071
  0
ARC
  5
B4D1
  8
0
 10
661.7914596617548568
 20
104.3790803392820976
 30
0.0
 40
0.0394408335541846
 50
304.9609979411303016
 51
350.0476185674905878
  0
ARC
  5
B4D2
  8
0
 10
661.7705656291524292
 20
104.4089633842962996
 30
0.0
 40
0.0759039241762731
 50
283.5782651396846745
 51
304.9609979411303016
  0
ARC
  5
B4D3
  8
0
 10
661.7633624642277255
 20
104.4204159227344064
 30
0.0
 40
0.088832245853873
 50
236.3497644270327953
 51
286.3612504033716846
  0
ARC
  5
B4D4
  8
0
 10
661.7396172767516873
 20
104.3769065134146956
 30
0.0
 40
0.0396940585723798
 50
190.8384751365292118
 51
230.068116986784986
  0
ARC
  5
B4D5
  8
0
 10
661.8244116659208203
 20
104.4116436070472957
 30
0.0
 40
0.0109024653103501
 50
348.399044118237498
 51
46.6909983086910572
  0
ARC
  5
B4D6
  8
0
 10
661.7904126847075759
 20
104.3551454706517063
 30
0.0
 40
0.0766275738397198
 50
57.2288585516194885
 51
86.3509226590464607
  0
ARC
  5
B4D7
  8
0
 10
661.7792176656433867
 20
104.2944449535816034
 30
0.0
 40
0.1381110733114377
 50
83.3173393074874724
 51
123.8389122880618061
  0
ARC
  5
B4D8
  8
0
 10
661.7113897606502633
 20
104.3980294428266973
 30
0.0
 40
0.0143654744557683
 50
129.2062048050376859
 51
182.6872449449359976
  0
LINE
  5
B4D9
  8
0
 10
661.7006313125762063
 20
104.3694424070878028
 30
0.0
 11
661.6970400833762369
 21
104.3973559307878958
 31
0.0
  0
LINE
  5
B4DA
  8
0
 10
661.8303069790762265
 20
104.3722637940878997
 30
0.0
 11
661.835091414523049
 21
104.4094511838137009
 31
0.0
  0
ARC
  5
B4DB
  8
0
 10
661.7658129052847471
 20
104.3370602454731966
 30
0.0
 40
0.0312196650863434
 50
58.3722433552043114
 51
125.3727315405261038
  0
ARC
  5
B4DC
  8
0
 10
661.7519413539752122
 20
104.3580951950671931
 30
0.0
 40
0.0060993520423772
 50
133.5360462002821009
 51
245.6908059694131907
  0
ARC
  5
B4DD
  8
0
 10
661.7646824511047043
 20
104.3791892180796026
 30
0.0
 40
0.0307080253179962
 50
240.2196265854998956
 51
309.1376210905011135
  0
ARC
  5
B4DE
  8
0
 10
661.7794864313171956
 20
104.3586799296495968
 30
0.0
 40
0.0056489684657043
 50
324.1445163929071214
 51
61.4704103401081596
  0
ARC
  5
B4DF
  8
0
 10
661.5819330910754843
 20
104.2499099567198044
 30
0.0
 40
0.0394408335541846
 50
304.9609979411303016
 51
350.0476185674905878
  0
ARC
  5
B4E0
  8
0
 10
661.5610390584730567
 20
104.2797930017341059
 30
0.0
 40
0.0759039241762731
 50
283.5782651396846745
 51
304.9609979411303016
  0
ARC
  5
B4E1
  8
0
 10
661.5538358935483529
 20
104.291245540172099
 30
0.0
 40
0.088832245853873
 50
236.3497644270327953
 51
286.3612504033716846
  0
ARC
  5
B4E2
  8
0
 10
661.5300907060722011
 20
104.2477361308525019
 30
0.0
 40
0.0396940585723798
 50
190.8384751365292118
 51
230.068116986784986
  0
ARC
  5
B4E3
  8
0
 10
661.6148850952415614
 20
104.2824732244850026
 30
0.0
 40
0.0109024653103501
 50
348.399044118237498
 51
46.6909983086910572
  0
ARC
  5
B4E4
  8
0
 10
661.5808861140282033
 20
104.2259750880894984
 30
0.0
 40
0.0766275738397198
 50
57.2288585516194885
 51
86.3509226590464607
  0
ARC
  5
B4E5
  8
0
 10
661.5696910949641278
 20
104.1652745710193955
 30
0.0
 40
0.1381110733114377
 50
83.3173393074874724
 51
123.8389122880618061
  0
ARC
  5
B4E6
  8
0
 10
661.5018631899711181
 20
104.2688590602644041
 30
0.0
 40
0.0143654744557683
 50
129.2062048050376859
 51
182.6872449449359976
  0
LINE
  5
B4E7
  8
0
 10
661.4911047418969474
 20
104.2402720245255949
 30
0.0
 11
661.4875135126967507
 21
104.2681855482256026
 31
0.0
  0
LINE
  5
B4E8
  8
0
 10
661.6207804083969677
 20
104.2430934115256065
 30
0.0
 11
661.6255648438436765
 21
104.280280801251493
 31
0.0
  0
ARC
  5
B4E9
  8
0
 10
661.556286334605602
 20
104.2078898629109034
 30
0.0
 40
0.0312196650863434
 50
58.3722433552043114
 51
125.3727315405261038
  0
ARC
  5
B4EA
  8
0
 10
661.5424147832958397
 20
104.2289248125049994
 30
0.0
 40
0.0060993520423772
 50
133.5360462002821009
 51
245.6908059694131907
  0
ARC
  5
B4EB
  8
0
 10
661.5551558804254455
 20
104.2500188355173947
 30
0.0
 40
0.0307080253179962
 50
240.2196265854998956
 51
309.1376210905011135
  0
ARC
  5
B4EC
  8
0
 10
661.5699598606378231
 20
104.2295095470873036
 30
0.0
 40
0.0056489684657043
 50
324.1445163929071214
 51
61.4704103401081596
  0
ARC
  5
B4ED
  8
0
 10
661.8180761666560556
 20
104.5217570067320025
 30
0.0
 40
0.0394408335541846
 50
304.9609979411303016
 51
350.0476185674905878
  0
ARC
  5
B4EE
  8
0
 10
661.7971821340537417
 20
104.5516400517462046
 30
0.0
 40
0.0759039241762731
 50
283.5782651396846745
 51
304.9609979411303016
  0
ARC
  5
B4EF
  8
0
 10
661.789978969129038
 20
104.5630925901842971
 30
0.0
 40
0.088832245853873
 50
236.3497644270327953
 51
286.3612504033716846
  0
ARC
  5
B4F0
  8
0
 10
661.7662337816527724
 20
104.5195831808646005
 30
0.0
 40
0.0396940585723798
 50
190.8384751365292118
 51
230.068116986784986
  0
ARC
  5
B4F1
  8
0
 10
661.8510281708221328
 20
104.5543202744972007
 30
0.0
 40
0.0109024653103501
 50
348.399044118237498
 51
46.6909983086910572
  0
ARC
  5
B4F2
  8
0
 10
661.8170291896087747
 20
104.497822138101597
 30
0.0
 40
0.0766275738397198
 50
57.2288585516194885
 51
86.3509226590464607
  0
ARC
  5
B4F3
  8
0
 10
661.8058341705446992
 20
104.4371216210314941
 30
0.0
 40
0.1381110733114377
 50
83.3173393074874724
 51
123.8389122880618061
  0
ARC
  5
B4F4
  8
0
 10
661.7380062655516895
 20
104.5407061102765027
 30
0.0
 40
0.0143654744557683
 50
129.2062048050376859
 51
182.6872449449359976
  0
LINE
  5
B4F5
  8
0
 10
661.7272478174775188
 20
104.5121190745376936
 30
0.0
 11
661.7236565882774357
 21
104.5400325982377012
 31
0.0
  0
LINE
  5
B4F6
  8
0
 10
661.8569234839774253
 20
104.5149404615377051
 30
0.0
 11
661.8617079194242478
 21
104.5521278512636059
 31
0.0
  0
ARC
  5
B4F7
  8
0
 10
661.7924294101860596
 20
104.479736912923002
 30
0.0
 40
0.0312196650863434
 50
58.3722433552043114
 51
125.3727315405261038
  0
ARC
  5
B4F8
  8
0
 10
661.778557858876411
 20
104.500771862517098
 30
0.0
 40
0.0060993520423772
 50
133.5360462002821009
 51
245.6908059694131907
  0
ARC
  5
B4F9
  8
0
 10
661.7912989560060169
 20
104.5218658855294933
 30
0.0
 40
0.0307080253179962
 50
240.2196265854998956
 51
309.1376210905011135
  0
ARC
  5
B4FA
  8
0
 10
661.8061029362182808
 20
104.5013565970994023
 30
0.0
 40
0.0056489684657043
 50
324.1445163929071214
 51
61.4704103401081596
  0
ARC
  5
B4FB
  8
0
 10
661.7387555414771896
 20
104.6205299677505991
 30
0.0
 40
0.0402703849329144
 50
299.2325571385800913
 51
353.7687739868767949
  0
ARC
  5
B4FC
  8
0
 10
661.7153443378257407
 20
104.6623635481405046
 30
0.0
 40
0.088209230399327
 50
273.6055978688987125
 51
299.2325571385800913
  0
ARC
  5
B4FD
  8
0
 10
661.7140885265922634
 20
104.6822930245911039
 30
0.0
 40
0.1081782337157002
 50
246.9275138277656083
 51
273.6055978688987125
  0
ARC
  5
B4FE
  8
0
 10
661.6872483241854752
 20
104.6192832235377068
 30
0.0
 40
0.0396900486467731
 50
190.2956012253175118
 51
246.9275138277656083
  0
ARC
  5
B4FF
  8
0
 10
661.6845760398707625
 20
104.6209405119963947
 30
0.0
 40
0.0468829324737834
 50
101.0685749329601038
 51
149.8387662142814065
  0
ARC
  5
B500
  8
0
 10
661.716843319391046
 20
104.5070149402069006
 30
0.0
 40
0.1651747587339985
 50
70.7746499395318693
 51
104.4683230959727069
  0
ARC
  5
B501
  8
0
 10
661.7605329643874938
 20
104.6417974872426981
 30
0.0
 40
0.0237297672812036
 50
18.5462377273326915
 51
63.1983367263056124
  0
LINE
  5
B502
  8
0
 10
661.7787880072459075
 20
104.6161589739124054
 30
0.0
 11
661.7830303803420975
 21
104.6493452107798987
 31
0.0
  0
LINE
  5
B503
  8
0
 10
661.6481936064488991
 20
104.6122158403663036
 30
0.0
 11
661.6440403557214722
 21
104.6444961412150008
 31
0.0
  0
ARC
  5
B504
  8
0
 10
661.7135759970525442
 20
104.5793362027339981
 30
0.0
 40
0.0312196650863434
 50
58.3722433552043114
 51
125.3727315405261038
  0
ARC
  5
B505
  8
0
 10
661.6997044457428956
 20
104.6003711523279947
 30
0.0
 40
0.0060993520423772
 50
133.5360462002821009
 51
245.6908059694131907
  0
ARC
  5
B506
  8
0
 10
661.712445542872274
 20
104.6214651753405036
 30
0.0
 40
0.0307080253179962
 50
240.2196265854998956
 51
309.1376210905011135
  0
ARC
  5
B507
  8
0
 10
661.727249523084879
 20
104.6009558869103984
 30
0.0
 40
0.0056489684657043
 50
324.1445163929071214
 51
61.4704103401081596
  0
ARC
  5
B508
  8
0
 10
662.0120664843778968
 20
104.6394672970251065
 30
0.0
 40
0.0476120459237618
 50
290.9592990281116727
 51
348.0303274834461149
  0
ARC
  5
B509
  8
0
 10
661.9907457597895473
 20
104.6759953931223066
 30
0.0
 40
0.0896114911339507
 50
233.90432496590509
 51
295.3393279303369923
  0
ARC
  5
B50A
  8
0
 10
661.9629066087971978
 20
104.6319458349070004
 30
0.0
 40
0.0377753450919853
 50
188.3465429309013075
 51
228.6548476345755034
  0
ARC
  5
B50B
  8
0
 10
661.9423111660345285
 20
104.6537439369053999
 30
0.0
 40
0.0201562885497703
 50
140.1073635553863141
 51
184.0828235163261866
  0
ARC
  5
B50C
  8
0
 10
662.0168094793833689
 20
104.5517448242023022
 30
0.0
 40
0.1459501406265655
 50
85.7520398304310589
 51
128.0534732457431062
  0
ARC
  5
B50D
  8
0
 10
662.024173082998459
 20
104.6407830897415039
 30
0.0
 40
0.0566159768859894
 50
53.5437556720689898
 51
86.5090880875109889
  0
ARC
  5
B50E
  8
0
 10
662.0476931276621144
 20
104.6732797609952996
 30
0.0
 40
0.016507398922001
 50
347.7199030585791206
 51
52.1817177054181514
  0
LINE
  5
B50F
  8
0
 10
661.9255313726770282
 20
104.6264623668643026
 30
0.0
 11
661.9222060306768753
 21
104.6523088409642952
 31
0.0
  0
LINE
  5
B510
  8
0
 10
662.0586433260768899
 20
104.6295928484642985
 30
0.0
 11
662.0638228293183829
 21
104.669768786252007
 31
0.0
  0
ARC
  5
B511
  8
0
 10
661.9923283157950209
 20
104.5951320005502936
 30
0.0
 40
0.0312196650863434
 50
58.3722433552043114
 51
125.3727315405261038
  0
ARC
  5
B512
  8
0
 10
661.9784567644852586
 20
104.6161669501443043
 30
0.0
 40
0.0060993520423772
 50
133.5360462002821009
 51
245.6908059694131907
  0
ARC
  5
B513
  8
0
 10
661.9911978616148645
 20
104.6372609731566996
 30
0.0
 40
0.0307080253179962
 50
240.2196265854998956
 51
309.1376210905011135
  0
ARC
  5
B514
  8
0
 10
662.0060018418273557
 20
104.6167516847266938
 30
0.0
 40
0.0056489684657043
 50
324.1445163929071214
 51
61.4704103401081596
  0
ARC
  5
B515
  8
0
 10
662.051904301821537
 20
104.5155932853354983
 30
0.0
 40
0.0476120459237618
 50
290.9592990281116727
 51
348.0303274834461149
  0
ARC
  5
B516
  8
0
 10
662.0305835772333012
 20
104.5521213814326984
 30
0.0
 40
0.0896114911339507
 50
233.90432496590509
 51
295.3393279303369923
  0
ARC
  5
B517
  8
0
 10
662.002744426240838
 20
104.5080718232175059
 30
0.0
 40
0.0377753450919853
 50
188.3465429309013075
 51
228.6548476345755034
  0
ARC
  5
B518
  8
0
 10
661.982148983478055
 20
104.5298699252158059
 30
0.0
 40
0.0201562885497703
 50
140.1073635553863141
 51
184.0828235163261866
  0
ARC
  5
B519
  8
0
 10
662.0566472968270091
 20
104.427870812512694
 30
0.0
 40
0.1459501406265655
 50
85.7520398304310589
 51
128.0534732457431062
  0
ARC
  5
B51A
  8
0
 10
662.0640109004420992
 20
104.5169090780518957
 30
0.0
 40
0.0566159768859894
 50
53.5437556720689898
 51
86.5090880875109889
  0
ARC
  5
B51B
  8
0
 10
662.0875309451057547
 20
104.5494057493057056
 30
0.0
 40
0.016507398922001
 50
347.7199030585791206
 51
52.1817177054181514
  0
LINE
  5
B51C
  8
0
 10
661.9653691901206685
 20
104.5025883551746944
 30
0.0
 11
661.9620438481206293
 21
104.5284348292747012
 31
0.0
  0
LINE
  5
B51D
  8
0
 10
662.0984811435206439
 20
104.5057188367747045
 30
0.0
 11
662.1036606467620231
 21
104.5458947745623988
 31
0.0
  0
ARC
  5
B51E
  8
0
 10
662.0321661332385474
 20
104.4712579888606996
 30
0.0
 40
0.0312196650863434
 50
58.3722433552043114
 51
125.3727315405261038
  0
ARC
  5
B51F
  8
0
 10
662.0182945819290126
 20
104.4922929384547956
 30
0.0
 40
0.0060993520423772
 50
133.5360462002821009
 51
245.6908059694131907
  0
ARC
  5
B520
  8
0
 10
662.0310356790585047
 20
104.5133869614672051
 30
0.0
 40
0.0307080253179962
 50
240.2196265854998956
 51
309.1376210905011135
  0
ARC
  5
B521
  8
0
 10
662.0458396592708823
 20
104.4928776730370998
 30
0.0
 40
0.0056489684657043
 50
324.1445163929071214
 51
61.4704103401081596
  0
ARC
  5
B522
  8
0
 10
662.021226985551948
 20
104.3658447624139995
 30
0.0
 40
0.0476318875802354
 50
289.4812671733803882
 51
344.7322389031401144
  0
ARC
  5
B523
  8
0
 10
661.9995063365397527
 20
104.4032087951707979
 30
0.0
 40
0.0904565622730084
 50
235.3380848245982975
 51
294.5655140126509082
  0
ARC
  5
B524
  8
0
 10
661.9691095647234533
 20
104.3522281391467033
 30
0.0
 40
0.0314902947451684
 50
183.7449175533699872
 51
228.0544953807674915
  0
LINE
  5
B525
  8
0
 10
661.9376865105457455
 20
104.3501713627173046
 30
0.0
 11
661.9350235535781621
 21
104.3701752894443047
 31
0.0
  0
LINE
  5
B526
  8
0
 10
662.0671777409329479
 20
104.3533018443173006
 30
0.0
 11
662.0723572441743272
 21
104.3934777821049948
 31
0.0
  0
ARC
  5
B527
  8
0
 10
662.0008627306509652
 20
104.3188409964032957
 30
0.0
 40
0.0312196650863434
 50
58.3722433552043114
 51
125.3727315405261038
  0
ARC
  5
B528
  8
0
 10
661.9869911793410893
 20
104.3398759459974059
 30
0.0
 40
0.0060993520423772
 50
133.5360462002821009
 51
245.6908059694131907
  0
ARC
  5
B529
  8
0
 10
661.9997322764706951
 20
104.3609699690098012
 30
0.0
 40
0.0307080253179962
 50
240.2196265854998956
 51
309.1376210905011135
  0
ARC
  5
B52A
  8
0
 10
662.0145362566830727
 20
104.3404606805796959
 30
0.0
 40
0.0056489684657043
 50
324.1445163929071214
 51
61.4704103401081596
  0
ARC
  5
B52B
  8
0
 10
661.9470872835986484
 20
104.3711041657608973
 30
0.0
 40
0.0120994145917986
 50
133.8469683237748882
 51
184.4055824279220985
  0
ARC
  5
B52C
  8
0
 10
662.029685447752172
 20
104.2555019547166069
 30
0.0
 40
0.1540611526012563
 50
79.6702730685200606
 51
126.1956022654367047
  0
ARC
  5
B52D
  8
0
 10
662.0559373176472491
 20
104.390420537435304
 30
0.0
 40
0.016702117593998
 50
10.5471923148090596
 51
85.2838256759821718
  0
ARC
  5
B52E
  8
0
 10
662.1163654877923364
 20
104.8027774775532066
 30
0.0
 40
0.0476120459237618
 50
290.9592990281116727
 51
348.0303274834461149
  0
ARC
  5
B52F
  8
0
 10
662.0950447632042142
 20
104.8393055736504067
 30
0.0
 40
0.0896114911339507
 50
233.90432496590509
 51
295.3393279303369923
  0
ARC
  5
B530
  8
0
 10
662.067205612211751
 20
104.7952560154352
 30
0.0
 40
0.0377753450919853
 50
188.3465429309013075
 51
228.6548476345755034
  0
ARC
  5
B531
  8
0
 10
662.0466101694488543
 20
104.8170541174335
 30
0.0
 40
0.0201562885497703
 50
140.1073635553863141
 51
184.0828235163261866
  0
ARC
  5
B532
  8
0
 10
662.1211084827979221
 20
104.7150550047303028
 30
0.0
 40
0.1459501406265655
 50
85.7520398304310589
 51
128.0534732457431062
  0
ARC
  5
B533
  8
0
 10
662.1284720864130122
 20
104.804093270269604
 30
0.0
 40
0.0566159768859894
 50
53.5437556720689898
 51
86.5090880875109889
  0
ARC
  5
B534
  8
0
 10
662.151992131076554
 20
104.8365899415233997
 30
0.0
 40
0.016507398922001
 50
347.7199030585791206
 51
52.1817177054181514
  0
LINE
  5
B535
  8
0
 10
662.0298303760914678
 20
104.7897725473924027
 30
0.0
 11
662.0265050340915423
 21
104.8156190214923953
 31
0.0
  0
LINE
  5
B536
  8
0
 10
662.1629423294914432
 20
104.7929030289923986
 30
0.0
 11
662.1681218327329361
 21
104.8330789667801071
 31
0.0
  0
ARC
  5
B537
  8
0
 10
662.0966273192094604
 20
104.7584421810783937
 30
0.0
 40
0.0312196650863434
 50
58.3722433552043114
 51
125.3727315405261038
  0
ARC
  5
B538
  8
0
 10
662.0827557678998119
 20
104.7794771306725039
 30
0.0
 40
0.0060993520423772
 50
133.5360462002821009
 51
245.6908059694131907
  0
ARC
  5
B539
  8
0
 10
662.0954968650294177
 20
104.8005711536847997
 30
0.0
 40
0.0307080253179962
 50
240.2196265854998956
 51
309.1376210905011135
  0
ARC
  5
B53A
  8
0
 10
662.1103008452417953
 20
104.7800618652547939
 30
0.0
 40
0.0056489684657043
 50
324.1445163929071214
 51
61.4704103401081596
  0
ARC
  5
B53B
  8
0
 10
662.2894733689295208
 20
104.687908406350104
 30
0.0
 40
0.0476120459237618
 50
290.9592990281116727
 51
348.0303274834461149
  0
ARC
  5
B53C
  8
0
 10
662.2681526443412849
 20
104.7244365024473041
 30
0.0
 40
0.0896114911339507
 50
233.90432496590509
 51
295.3393279303369923
  0
ARC
  5
B53D
  8
0
 10
662.2403134933488218
 20
104.6803869442319979
 30
0.0
 40
0.0377753450919853
 50
188.3465429309013075
 51
228.6548476345755034
  0
ARC
  5
B53E
  8
0
 10
662.2197180505860388
 20
104.7021850462303973
 30
0.0
 40
0.0201562885497703
 50
140.1073635553863141
 51
184.0828235163261866
  0
ARC
  5
B53F
  8
0
 10
662.2942163639351065
 20
104.6001859335272002
 30
0.0
 40
0.1459501406265655
 50
85.7520398304310589
 51
128.0534732457431062
  0
ARC
  5
B540
  8
0
 10
662.3015799675499693
 20
104.6892241990665013
 30
0.0
 40
0.0566159768859894
 50
53.5437556720689898
 51
86.5090880875109889
  0
ARC
  5
B541
  8
0
 10
662.3251000122137384
 20
104.7217208703202971
 30
0.0
 40
0.016507398922001
 50
347.7199030585791206
 51
52.1817177054181514
  0
LINE
  5
B542
  8
0
 10
662.2029382572285385
 20
104.6749034761892005
 30
0.0
 11
662.199612915228613
 21
104.7007499502893069
 31
0.0
  0
LINE
  5
B543
  8
0
 10
662.3360502106286276
 20
104.6780339577891965
 30
0.0
 11
662.3412297138700069
 21
104.7182098955770044
 31
0.0
  0
ARC
  5
B544
  8
0
 10
662.2697352003466449
 20
104.6435731098753052
 30
0.0
 40
0.0312196650863434
 50
58.3722433552043114
 51
125.3727315405261038
  0
ARC
  5
B545
  8
0
 10
662.2558636490367689
 20
104.6646080594693018
 30
0.0
 40
0.0060993520423772
 50
133.5360462002821009
 51
245.6908059694131907
  0
ARC
  5
B546
  8
0
 10
662.2686047461663748
 20
104.6857020824816971
 30
0.0
 40
0.0307080253179962
 50
240.2196265854998956
 51
309.1376210905011135
  0
ARC
  5
B547
  8
0
 10
662.283408726378866
 20
104.665192794051606
 30
0.0
 40
0.0056489684657043
 50
324.1445163929071214
 51
61.4704103401081596
  0
ARC
  5
B548
  8
0
 10
662.2879036773939561
 20
104.5207841645082993
 30
0.0
 40
0.0476120459237618
 50
290.9592990281116727
 51
348.0303274834461149
  0
ARC
  5
B549
  8
0
 10
662.2665829528058339
 20
104.5573122606054994
 30
0.0
 40
0.0896114911339507
 50
233.90432496590509
 51
295.3393279303369923
  0
ARC
  5
B54A
  8
0
 10
662.2387438018132571
 20
104.5132627023901932
 30
0.0
 40
0.0377753450919853
 50
188.3465429309013075
 51
228.6548476345755034
  0
ARC
  5
B54B
  8
0
 10
662.218148359050474
 20
104.5350608043886069
 30
0.0
 40
0.0201562885497703
 50
140.1073635553863141
 51
184.0828235163261866
  0
ARC
  5
B54C
  8
0
 10
662.2926466723996555
 20
104.4330616916853955
 30
0.0
 40
0.1459501406265655
 50
85.7520398304310589
 51
128.0534732457431062
  0
ARC
  5
B54D
  8
0
 10
662.3000102760146319
 20
104.5220999572246967
 30
0.0
 40
0.0566159768859894
 50
53.5437556720689898
 51
86.5090880875109889
  0
ARC
  5
B54E
  8
0
 10
662.3235303206782874
 20
104.5545966284785067
 30
0.0
 40
0.016507398922001
 50
347.7199030585791206
 51
52.1817177054181514
  0
LINE
  5
B54F
  8
0
 10
662.2013685656932012
 20
104.5077792343474954
 30
0.0
 11
662.1980432236930483
 21
104.5336257084475022
 31
0.0
  0
LINE
  5
B550
  8
0
 10
662.3344805190931766
 20
104.5109097159475056
 30
0.0
 11
662.3396600223345558
 21
104.5510856537351998
 31
0.0
  0
ARC
  5
B551
  8
0
 10
662.2681655088110801
 20
104.4764488680335006
 30
0.0
 40
0.0312196650863434
 50
58.3722433552043114
 51
125.3727315405261038
  0
ARC
  5
B552
  8
0
 10
662.2542939575015453
 20
104.4974838176274972
 30
0.0
 40
0.0060993520423772
 50
133.5360462002821009
 51
245.6908059694131907
  0
ARC
  5
B553
  8
0
 10
662.2670350546310374
 20
104.5185778406399066
 30
0.0
 40
0.0307080253179962
 50
240.2196265854998956
 51
309.1376210905011135
  0
ARC
  5
B554
  8
0
 10
662.2818390348435287
 20
104.4980685522098014
 30
0.0
 40
0.0056489684657043
 50
324.1445163929071214
 51
61.4704103401081596
  0
ARC
  5
B555
  8
0
 10
662.5670962164668936
 20
104.7694657812852057
 30
0.0
 40
0.0476120459237618
 50
290.9592990281116727
 51
348.0303274834461149
  0
ARC
  5
B556
  8
0
 10
662.545775491878544
 20
104.8059938773824058
 30
0.0
 40
0.0896114911339507
 50
233.90432496590509
 51
295.3393279303369923
  0
ARC
  5
B557
  8
0
 10
662.5179363408861946
 20
104.7619443191670996
 30
0.0
 40
0.0377753450919853
 50
188.3465429309013075
 51
228.6548476345755034
  0
ARC
  5
B558
  8
0
 10
662.4973408981234115
 20
104.7837424211653996
 30
0.0
 40
0.0201562885497703
 50
140.1073635553863141
 51
184.0828235163261866
  0
ARC
  5
B559
  8
0
 10
662.5718392114723656
 20
104.6817433084623019
 30
0.0
 40
0.1459501406265655
 50
85.7520398304310589
 51
128.0534732457431062
  0
ARC
  5
B55A
  8
0
 10
662.5792028150874557
 20
104.7707815740015036
 30
0.0
 40
0.0566159768859894
 50
53.5437556720689898
 51
86.5090880875109889
  0
ARC
  5
B55B
  8
0
 10
662.6027228597511112
 20
104.8032782452552993
 30
0.0
 40
0.016507398922001
 50
347.7199030585791206
 51
52.1817177054181514
  0
LINE
  5
B55C
  8
0
 10
662.480561104766025
 20
104.7564608511243023
 30
0.0
 11
662.4772357627659858
 21
104.7823073252242949
 31
0.0
  0
LINE
  5
B55D
  8
0
 10
662.6136730581658867
 20
104.7595913327242982
 30
0.0
 11
662.6188525614073797
 21
104.7997672705121062
 31
0.0
  0
ARC
  5
B55E
  8
0
 10
662.5473580478840177
 20
104.7251304848102933
 30
0.0
 40
0.0312196650863434
 50
58.3722433552043114
 51
125.3727315405261038
  0
ARC
  5
B55F
  8
0
 10
662.5334864965742554
 20
104.7461654344044035
 30
0.0
 40
0.0060993520423772
 50
133.5360462002821009
 51
245.6908059694131907
  0
ARC
  5
B560
  8
0
 10
662.5462275937038612
 20
104.7672594574167988
 30
0.0
 40
0.0307080253179962
 50
240.2196265854998956
 51
309.1376210905011135
  0
ARC
  5
B561
  8
0
 10
662.5610315739163525
 20
104.7467501689866936
 30
0.0
 40
0.0056489684657043
 50
324.1445163929071214
 51
61.4704103401081596
  0
ARC
  5
B562
  8
0
 10
662.3624595204021261
 20
104.884826121854303
 30
0.0
 40
0.0476120459237618
 50
290.9592990281116727
 51
348.0303274834461149
  0
ARC
  5
B563
  8
0
 10
662.341138795814004
 20
104.9213542179514036
 30
0.0
 40
0.0896114911339507
 50
233.90432496590509
 51
295.3393279303369923
  0
ARC
  5
B564
  8
0
 10
662.3132996448215408
 20
104.8773046597361969
 30
0.0
 40
0.0377753450919853
 50
188.3465429309013075
 51
228.6548476345755034
  0
ARC
  5
B565
  8
0
 10
662.2927042020586441
 20
104.8991027617344969
 30
0.0
 40
0.0201562885497703
 50
140.1073635553863141
 51
184.0828235163261866
  0
ARC
  5
B566
  8
0
 10
662.3672025154077119
 20
104.7971036490313992
 30
0.0
 40
0.1459501406265655
 50
85.7520398304310589
 51
128.0534732457431062
  0
ARC
  5
B567
  8
0
 10
662.374566119022802
 20
104.8861419145706009
 30
0.0
 40
0.0566159768859894
 50
53.5437556720689898
 51
86.5090880875109889
  0
ARC
  5
B568
  8
0
 10
662.3980861636863438
 20
104.9186385858243966
 30
0.0
 40
0.016507398922001
 50
347.7199030585791206
 51
52.1817177054181514
  0
LINE
  5
B569
  8
0
 10
662.2759244087012576
 20
104.8718211916933996
 30
0.0
 11
662.272599066701332
 21
104.8976676657934064
 31
0.0
  0
LINE
  5
B56A
  8
0
 10
662.4090363621013466
 20
104.8749516732933955
 30
0.0
 11
662.4142158653427259
 21
104.915127611081104
 31
0.0
  0
ARC
  5
B56B
  8
0
 10
662.3427213518192502
 20
104.8404908253794048
 30
0.0
 40
0.0312196650863434
 50
58.3722433552043114
 51
125.3727315405261038
  0
ARC
  5
B56C
  8
0
 10
662.3288498005096017
 20
104.8615257749735008
 30
0.0
 40
0.0060993520423772
 50
133.5360462002821009
 51
245.6908059694131907
  0
ARC
  5
B56D
  8
0
 10
662.3415908976392075
 20
104.8826197979857966
 30
0.0
 40
0.0307080253179962
 50
240.2196265854998956
 51
309.1376210905011135
  0
ARC
  5
B56E
  8
0
 10
662.3563948778515851
 20
104.862110509555805
 30
0.0
 40
0.0056489684657043
 50
324.1445163929071214
 51
61.4704103401081596
  0
ARC
  5
B56F
  8
0
 10
662.1593087365579322
 20
104.964128502844801
 30
0.0
 40
0.0476120459237618
 50
290.9592990281116727
 51
348.0303274834461149
  0
ARC
  5
B570
  8
0
 10
662.13798801196981
 20
105.0006565989420011
 30
0.0
 40
0.0896114911339507
 50
233.90432496590509
 51
295.3393279303369923
  0
ARC
  5
B571
  8
0
 10
662.1101488609773469
 20
104.9566070407267944
 30
0.0
 40
0.0377753450919853
 50
188.3465429309013075
 51
228.6548476345755034
  0
ARC
  5
B572
  8
0
 10
662.0895534182144502
 20
104.9784051427250944
 30
0.0
 40
0.0201562885497703
 50
140.1073635553863141
 51
184.0828235163261866
  0
ARC
  5
B573
  8
0
 10
662.1640517315634042
 20
104.8764060300218972
 30
0.0
 40
0.1459501406265655
 50
85.7520398304310589
 51
128.0534732457431062
  0
ARC
  5
B574
  8
0
 10
662.1714153351786081
 20
104.9654442955611984
 30
0.0
 40
0.0566159768859894
 50
53.5437556720689898
 51
86.5090880875109889
  0
ARC
  5
B575
  8
0
 10
662.1949353798421498
 20
104.9979409668149941
 30
0.0
 40
0.016507398922001
 50
347.7199030585791206
 51
52.1817177054181514
  0
LINE
  5
B576
  8
0
 10
662.0727736248570636
 20
104.9511235726839971
 30
0.0
 11
662.0694482828571381
 21
104.9769700467840039
 31
0.0
  0
LINE
  5
B577
  8
0
 10
662.205885578257039
 20
104.954254054283993
 30
0.0
 11
662.211065081498532
 21
104.9944299920718009
 31
0.0
  0
ARC
  5
B578
  8
0
 10
662.1395705679750563
 20
104.9197932063700023
 30
0.0
 40
0.0312196650863434
 50
58.3722433552043114
 51
125.3727315405261038
  0
ARC
  5
B579
  8
0
 10
662.1256990166654077
 20
104.9408281559640983
 30
0.0
 40
0.0060993520423772
 50
133.5360462002821009
 51
245.6908059694131907
  0
ARC
  5
B57A
  8
0
 10
662.1384401137948998
 20
104.9619221789764936
 30
0.0
 40
0.0307080253179962
 50
240.2196265854998956
 51
309.1376210905011135
  0
ARC
  5
B57B
  8
0
 10
662.1532440940072775
 20
104.9414128905464025
 30
0.0
 40
0.0056489684657043
 50
324.1445163929071214
 51
61.4704103401081596
  0
ARC
  5
B57C
  8
0
 10
661.9125934638570925
 20
104.847817256145305
 30
0.0
 40
0.0476120459237618
 50
290.9592990281116727
 51
348.0303274834461149
  0
ARC
  5
B57D
  8
0
 10
661.8912727392688566
 20
104.8843453522425051
 30
0.0
 40
0.0896114911339507
 50
233.90432496590509
 51
295.3393279303369923
  0
ARC
  5
B57E
  8
0
 10
661.8634335882763935
 20
104.8402957940271989
 30
0.0
 40
0.0377753450919853
 50
188.3465429309013075
 51
228.6548476345755034
  0
ARC
  5
B57F
  8
0
 10
661.8428381455137242
 20
104.8620938960254989
 30
0.0
 40
0.0201562885497703
 50
140.1073635553863141
 51
184.0828235163261866
  0
ARC
  5
B580
  8
0
 10
661.9173364588625645
 20
104.7600947833224012
 30
0.0
 40
0.1459501406265655
 50
85.7520398304310589
 51
128.0534732457431062
  0
ARC
  5
B581
  8
0
 10
661.9247000624777684
 20
104.8491330488617024
 30
0.0
 40
0.0566159768859894
 50
53.5437556720689898
 51
86.5090880875109889
  0
ARC
  5
B582
  8
0
 10
661.9482201071413101
 20
104.8816297201153986
 30
0.0
 40
0.016507398922001
 50
347.7199030585791206
 51
52.1817177054181514
  0
LINE
  5
B583
  8
0
 10
661.8260583521561102
 20
104.8348123259844016
 30
0.0
 11
661.8227330101561847
 21
104.8606588000843942
 31
0.0
  0
LINE
  5
B584
  8
0
 10
661.9591703055560856
 20
104.8379428075843975
 30
0.0
 11
661.9643498087976923
 21
104.8781187453722055
 31
0.0
  0
ARC
  5
B585
  8
0
 10
661.8928552952742166
 20
104.8034819596704068
 30
0.0
 40
0.0312196650863434
 50
58.3722433552043114
 51
125.3727315405261038
  0
ARC
  5
B586
  8
0
 10
661.878983743964568
 20
104.8245169092645028
 30
0.0
 40
0.0060993520423772
 50
133.5360462002821009
 51
245.6908059694131907
  0
ARC
  5
B587
  8
0
 10
661.8917248410939465
 20
104.8456109322768981
 30
0.0
 40
0.0307080253179962
 50
240.2196265854998956
 51
309.1376210905011135
  0
ARC
  5
B588
  8
0
 10
661.9065288213065514
 20
104.8251016438468071
 30
0.0
 40
0.0056489684657043
 50
324.1445163929071214
 51
61.4704103401081596
  0
ARC
  5
B589
  8
0
 10
662.0754557180442816
 20
105.1277680394771039
 30
0.0
 40
0.0476120459237618
 50
290.9592990281116727
 51
348.0303274834461149
  0
ARC
  5
B58A
  8
0
 10
662.0541349934561595
 20
105.164296135574304
 30
0.0
 40
0.0896114911339507
 50
233.90432496590509
 51
295.3393279303369923
  0
ARC
  5
B58B
  8
0
 10
662.02629584246381
 20
105.1202465773589978
 30
0.0
 40
0.0377753450919853
 50
188.3465429309013075
 51
228.6548476345755034
  0
ARC
  5
B58C
  8
0
 10
662.005700399701027
 20
105.1420446793573973
 30
0.0
 40
0.0201562885497703
 50
140.1073635553863141
 51
184.0828235163261866
  0
ARC
  5
B58D
  8
0
 10
662.0801987130500947
 20
105.0400455666542001
 30
0.0
 40
0.1459501406265655
 50
85.7520398304310589
 51
128.0534732457431062
  0
ARC
  5
B58E
  8
0
 10
662.0875623166649575
 20
105.1290838321935013
 30
0.0
 40
0.0566159768859894
 50
53.5437556720689898
 51
86.5090880875109889
  0
ARC
  5
B58F
  8
0
 10
662.1110823613287266
 20
105.161580503447297
 30
0.0
 40
0.016507398922001
 50
347.7199030585791206
 51
52.1817177054181514
  0
LINE
  5
B590
  8
0
 10
661.9889206063435267
 20
105.1147631093163
 30
0.0
 11
661.9855952643436012
 21
105.1406095834163068
 31
0.0
  0
LINE
  5
B591
  8
0
 10
662.1220325597436158
 20
105.1178935909162959
 30
0.0
 11
662.1272120629849951
 21
105.1580695287040044
 31
0.0
  0
ARC
  5
B592
  8
0
 10
662.0557175494616331
 20
105.0834327430023052
 30
0.0
 40
0.0312196650863434
 50
58.3722433552043114
 51
125.3727315405261038
  0
ARC
  5
B593
  8
0
 10
662.0418459981517572
 20
105.1044676925963017
 30
0.0
 40
0.0060993520423772
 50
133.5360462002821009
 51
245.6908059694131907
  0
ARC
  5
B594
  8
0
 10
662.054587095281363
 20
105.125561715608697
 30
0.0
 40
0.0307080253179962
 50
240.2196265854998956
 51
309.1376210905011135
  0
ARC
  5
B595
  8
0
 10
662.0693910754938543
 20
105.105052427178606
 30
0.0
 40
0.0056489684657043
 50
324.1445163929071214
 51
61.4704103401081596
  0
ARC
  5
B596
  8
0
 10
662.5936066543279139
 20
104.9741578316387063
 30
0.0
 40
0.0467340129372932
 50
298.6663956571246104
 51
353.1400275293539721
  0
ARC
  5
B597
  8
0
 10
662.5689886484767612
 20
105.0191862157325033
 30
0.0
 40
0.0980526409994878
 50
245.9918232549769925
 51
298.6663956571246104
  0
ARC
  5
B598
  8
0
 10
662.5430175763915486
 20
104.9608766293623034
 30
0.0
 40
0.0342207959068828
 50
183.5994284095189926
 51
245.9918232549769925
  0
ARC
  5
B599
  8
0
 10
662.533616504754491
 20
104.9932026584153988
 30
0.0
 40
0.029002599307091
 50
157.2916184820811907
 51
184.101669036481411
  0
ARC
  5
B59A
  8
0
 10
662.6056148863109456
 20
104.9413057879014985
 30
0.0
 40
0.1171871986009159
 50
88.8772833033713852
 51
147.425518411649108
  0
ARC
  5
B59B
  8
0
 10
662.6111553981140787
 20
105.0147353005178985
 30
0.0
 40
0.043855360214787
 50
39.4475427271073471
 51
94.2425444057763144
  0
ARC
  5
B59C
  8
0
 10
662.6254295133600181
 20
105.0313337510936975
 30
0.0
 40
0.0225995811215669
 50
351.6109877891697124
 51
29.9011140465577689
  0
LINE
  5
B59D
  8
0
 10
662.5088642859740276
 20
104.9587282285263967
 30
0.0
 11
662.5046881898116453
 21
104.9911282039979028
 31
0.0
  0
LINE
  5
B59E
  8
0
 10
662.6400060998086019
 20
104.9685757689111938
 30
0.0
 11
662.6477872864114715
 21
105.0280366233978953
 31
0.0
  0
ARC
  5
B59F
  8
0
 10
662.5739416616396511
 20
104.9293576214862043
 30
0.0
 40
0.0312196650863434
 50
58.3722433552043114
 51
125.3727315405261038
  0
ARC
  5
B5A0
  8
0
 10
662.5600701103301162
 20
104.9503925710802008
 30
0.0
 40
0.0060993520423772
 50
133.5360462002821009
 51
245.6908059694131907
  0
ARC
  5
B5A1
  8
0
 10
662.5728112074596083
 20
104.9714865940925961
 30
0.0
 40
0.0307080253179962
 50
240.2196265854998956
 51
309.1376210905011135
  0
ARC
  5
B5A2
  8
0
 10
662.587615187671986
 20
104.9509773056626045
 30
0.0
 40
0.0056489684657043
 50
324.1445163929071214
 51
61.4704103401081596
  0
ARC
  5
B5A3
  8
0
 10
662.3884223898048731
 20
105.1031502859918021
 30
0.0
 40
0.0476120459237618
 50
290.9592990281116727
 51
348.0303274834461149
  0
ARC
  5
B5A4
  8
0
 10
662.3671016652167509
 20
105.1396783820890022
 30
0.0
 40
0.0896114911339507
 50
233.90432496590509
 51
295.3393279303369923
  0
ARC
  5
B5A5
  8
0
 10
662.3392625142244015
 20
105.095628823873696
 30
0.0
 40
0.0377753450919853
 50
188.3465429309013075
 51
228.6548476345755034
  0
ARC
  5
B5A6
  8
0
 10
662.3186670714616184
 20
105.1174269258720955
 30
0.0
 40
0.0201562885497703
 50
140.1073635553863141
 51
184.0828235163261866
  0
ARC
  5
B5A7
  8
0
 10
662.4040214800044168
 20
105.0275260922174994
 30
0.0
 40
0.1440074364992682
 50
91.2543735049659972
 51
134.4348414222505141
  0
ARC
  5
B5A8
  8
0
 10
662.3959697588453537
 20
105.1219425060717043
 30
0.0
 40
0.0497980958434391
 50
37.208090244080239
 51
84.3540057336604292
  0
ARC
  5
B5A9
  8
0
 10
662.4104961771884064
 20
105.1360541696771946
 30
0.0
 40
0.0297964205912824
 50
354.9894505194830003
 51
32.4822555897791574
  0
LINE
  5
B5AA
  8
0
 10
662.3018872781041182
 20
105.0901453558309981
 30
0.0
 11
662.2985619361039653
 21
105.115991829931005
 31
0.0
  0
LINE
  5
B5AB
  8
0
 10
662.4349992315040936
 20
105.0932758374308946
 30
0.0
 11
662.4401787347455866
 21
105.1334517752187026
 31
0.0
  0
ARC
  5
B5AC
  8
0
 10
662.3686842212221109
 20
105.0588149895169039
 30
0.0
 40
0.0312196650863434
 50
58.3722433552043114
 51
125.3727315405261038
  0
ARC
  5
B5AD
  8
0
 10
662.3548126699123486
 20
105.0798499391109999
 30
0.0
 40
0.0060993520423772
 50
133.5360462002821009
 51
245.6908059694131907
  0
ARC
  5
B5AE
  8
0
 10
662.3675537670419544
 20
105.1009439621233952
 30
0.0
 40
0.0307080253179962
 50
240.2196265854998956
 51
309.1376210905011135
  0
ARC
  5
B5AF
  8
0
 10
662.3823577472544457
 20
105.0804346736933041
 30
0.0
 40
0.0056489684657043
 50
324.1445163929071214
 51
61.4704103401081596
  0
ARC
  5
B5B0
  8
0
 10
662.2356550124072783
 20
105.2865320537496956
 30
0.0
 40
0.0476120459237618
 50
290.9592990281116727
 51
348.0303274834461149
  0
ARC
  5
B5B1
  8
0
 10
662.2143342878191561
 20
105.3230601498468957
 30
0.0
 40
0.0896114911339507
 50
233.90432496590509
 51
295.3393279303369923
  0
ARC
  5
B5B2
  8
0
 10
662.1864951368266929
 20
105.2790105916316037
 30
0.0
 40
0.0377753450919853
 50
188.3465429309013075
 51
228.6548476345755034
  0
ARC
  5
B5B3
  8
0
 10
662.1658996940639099
 20
105.3008086936299037
 30
0.0
 40
0.0201562885497703
 50
140.1073635553863141
 51
184.0828235163261866
  0
ARC
  5
B5B4
  8
0
 10
662.2512541026067083
 20
105.2109078599752934
 30
0.0
 40
0.1440074364992682
 50
91.2543735049659972
 51
134.4348414222505141
  0
ARC
  5
B5B5
  8
0
 10
662.2432023814476452
 20
105.3053242738294983
 30
0.0
 40
0.0497980958434391
 50
37.208090244080239
 51
84.3540057336604292
  0
ARC
  5
B5B6
  8
0
 10
662.2577287997906978
 20
105.3194359374351023
 30
0.0
 40
0.0297964205912824
 50
354.9894505194830003
 51
32.4822555897791574
  0
LINE
  5
B5B7
  8
0
 10
662.149119900706296
 20
105.2735271235888064
 30
0.0
 11
662.1457945587064842
 21
105.299373597688799
 31
0.0
  0
LINE
  5
B5B8
  8
0
 10
662.2822318541063851
 20
105.2766576051888023
 30
0.0
 11
662.2874113573477644
 21
105.316833542976596
 31
0.0
  0
ARC
  5
B5B9
  8
0
 10
662.215916843824516
 20
105.2421967572747974
 30
0.0
 40
0.0312196650863434
 50
58.3722433552043114
 51
125.3727315405261038
  0
ARC
  5
B5BA
  8
0
 10
662.2020452925147538
 20
105.2632317068688934
 30
0.0
 40
0.0060993520423772
 50
133.5360462002821009
 51
245.6908059694131907
  0
ARC
  5
B5BB
  8
0
 10
662.2147863896443596
 20
105.2843257298813029
 30
0.0
 40
0.0307080253179962
 50
240.2196265854998956
 51
309.1376210905011135
  0
ARC
  5
B5BC
  8
0
 10
662.2295903698567372
 20
105.2638164414511976
 30
0.0
 40
0.0056489684657043
 50
324.1445163929071214
 51
61.4704103401081596
  0
ARC
  5
B5BD
  8
0
 10
662.038353708352588
 20
105.4725005426004998
 30
0.0
 40
0.0476120459237618
 50
290.9592990281116727
 51
348.0303274834461149
  0
ARC
  5
B5BE
  8
0
 10
662.0170329837643521
 20
105.5090286386976999
 30
0.0
 40
0.0896114911339507
 50
233.90432496590509
 51
295.3393279303369923
  0
ARC
  5
B5BF
  8
0
 10
661.9891938327717753
 20
105.4649790804823937
 30
0.0
 40
0.0377753450919853
 50
188.3465429309013075
 51
228.6548476345755034
  0
ARC
  5
B5C0
  8
0
 10
661.9685983900089923
 20
105.4867771824806937
 30
0.0
 40
0.0201562885497703
 50
140.1073635553863141
 51
184.0828235163261866
  0
ARC
  5
B5C1
  8
0
 10
662.0539527985519044
 20
105.3968763488260976
 30
0.0
 40
0.1440074364992682
 50
91.2543735049659972
 51
134.4348414222505141
  0
ARC
  5
B5C2
  8
0
 10
662.0459010773928412
 20
105.4912927626803025
 30
0.0
 40
0.0497980958434391
 50
37.208090244080239
 51
84.3540057336604292
  0
ARC
  5
B5C3
  8
0
 10
662.0604274957358939
 20
105.5054044262859065
 30
0.0
 40
0.0297964205912824
 50
354.9894505194830003
 51
32.4822555897791574
  0
LINE
  5
B5C4
  8
0
 10
661.9518185966516057
 20
105.4594956124395964
 30
0.0
 11
661.9484932546516802
 21
105.4853420865396032
 31
0.0
  0
LINE
  5
B5C5
  8
0
 10
662.0849305500516948
 20
105.4626260940396065
 30
0.0
 11
662.0901100532930741
 21
105.5028020318274002
 31
0.0
  0
ARC
  5
B5C6
  8
0
 10
662.0186155397695984
 20
105.4281652461256016
 30
0.0
 40
0.0312196650863434
 50
58.3722433552043114
 51
125.3727315405261038
  0
ARC
  5
B5C7
  8
0
 10
662.0047439884599498
 20
105.4492001957196976
 30
0.0
 40
0.0060993520423772
 50
133.5360462002821009
 51
245.6908059694131907
  0
ARC
  5
B5C8
  8
0
 10
662.0174850855895556
 20
105.4702942187321071
 30
0.0
 40
0.0307080253179962
 50
240.2196265854998956
 51
309.1376210905011135
  0
ARC
  5
B5C9
  8
0
 10
662.0322890658019332
 20
105.4497849303020018
 30
0.0
 40
0.0056489684657043
 50
324.1445163929071214
 51
61.4704103401081596
  0
ARC
  5
B5CA
  8
0
 10
661.9472197427861602
 20
105.2744893913378945
 30
0.0
 40
0.0476120459237618
 50
290.9592990281116727
 51
348.0303274834461149
  0
ARC
  5
B5CB
  8
0
 10
661.9258990181981517
 20
105.3110174874350946
 30
0.0
 40
0.0896114911339507
 50
233.90432496590509
 51
295.3393279303369923
  0
ARC
  5
B5CC
  8
0
 10
661.8980598672056885
 20
105.2669679292199021
 30
0.0
 40
0.0377753450919853
 50
188.3465429309013075
 51
228.6548476345755034
  0
ARC
  5
B5CD
  8
0
 10
661.8774644244429055
 20
105.2887660312182021
 30
0.0
 40
0.0201562885497703
 50
140.1073635553863141
 51
184.0828235163261866
  0
ARC
  5
B5CE
  8
0
 10
661.9628188329857039
 20
105.198865197563606
 30
0.0
 40
0.1440074364992682
 50
91.2543735049659972
 51
134.4348414222505141
  0
ARC
  5
B5CF
  8
0
 10
661.9547671118266408
 20
105.2932816114177967
 30
0.0
 40
0.0497980958434391
 50
37.208090244080239
 51
84.3540057336604292
  0
ARC
  5
B5D0
  8
0
 10
661.9692935301696934
 20
105.3073932750234007
 30
0.0
 40
0.0297964205912824
 50
354.9894505194830003
 51
32.4822555897791574
  0
LINE
  5
B5D1
  8
0
 10
661.8606846310854053
 20
105.2614844611771048
 30
0.0
 11
661.8573592890854798
 21
105.2873309352770974
 31
0.0
  0
LINE
  5
B5D2
  8
0
 10
661.9937965844853807
 20
105.2646149427771007
 30
0.0
 11
661.9989760877268736
 21
105.3047908805648945
 31
0.0
  0
ARC
  5
B5D3
  8
0
 10
661.9274815742035116
 20
105.2301540948630958
 30
0.0
 40
0.0312196650863434
 50
58.3722433552043114
 51
125.3727315405261038
  0
ARC
  5
B5D4
  8
0
 10
661.9136100228937494
 20
105.251189044457206
 30
0.0
 40
0.0060993520423772
 50
133.5360462002821009
 51
245.6908059694131907
  0
ARC
  5
B5D5
  8
0
 10
661.9263511200233552
 20
105.2722830674696013
 30
0.0
 40
0.0307080253179962
 50
240.2196265854998956
 51
309.1376210905011135
  0
ARC
  5
B5D6
  8
0
 10
661.9411551002357328
 20
105.251773779039496
 30
0.0
 40
0.0056489684657043
 50
324.1445163929071214
 51
61.4704103401081596
  0
ARC
  5
B5D7
  8
0
 10
661.7066286403995719
 20
105.3833036448650944
 30
0.0
 40
0.0476120459237618
 50
290.9592990281116727
 51
348.0303274834461149
  0
ARC
  5
B5D8
  8
0
 10
661.6853079158114497
 20
105.4198317409622945
 30
0.0
 40
0.0896114911339507
 50
233.90432496590509
 51
295.3393279303369923
  0
ARC
  5
B5D9
  8
0
 10
661.6574687648189865
 20
105.3757821827470025
 30
0.0
 40
0.0377753450919853
 50
188.3465429309013075
 51
228.6548476345755034
  0
ARC
  5
B5DA
  8
0
 10
661.6368733220562035
 20
105.397580284745402
 30
0.0
 40
0.0201562885497703
 50
140.1073635553863141
 51
184.0828235163261866
  0
ARC
  5
B5DB
  8
0
 10
661.7222277305991156
 20
105.3076794510908059
 30
0.0
 40
0.1440074364992682
 50
91.2543735049659972
 51
134.4348414222505141
  0
ARC
  5
B5DC
  8
0
 10
661.7141760094400524
 20
105.4020958649449966
 30
0.0
 40
0.0497980958434391
 50
37.208090244080239
 51
84.3540057336604292
  0
ARC
  5
B5DD
  8
0
 10
661.7287024277831051
 20
105.4162075285505011
 30
0.0
 40
0.0297964205912824
 50
354.9894505194830003
 51
32.4822555897791574
  0
LINE
  5
B5DE
  8
0
 10
661.620093528698817
 20
105.3702987147042052
 30
0.0
 11
661.6167681866988914
 21
105.3961451888042973
 31
0.0
  0
LINE
  5
B5DF
  8
0
 10
661.753205482098906
 20
105.3734291963043006
 30
0.0
 11
661.7583849853402853
 21
105.4136051340919948
 31
0.0
  0
ARC
  5
B5E0
  8
0
 10
661.6868904718169233
 20
105.3389683483902957
 30
0.0
 40
0.0312196650863434
 50
58.3722433552043114
 51
125.3727315405261038
  0
ARC
  5
B5E1
  8
0
 10
661.6730189205070474
 20
105.3600032979843064
 30
0.0
 40
0.0060993520423772
 50
133.5360462002821009
 51
245.6908059694131907
  0
ARC
  5
B5E2
  8
0
 10
661.6857600176366532
 20
105.3810973209967017
 30
0.0
 40
0.0307080253179962
 50
240.2196265854998956
 51
309.1376210905011135
  0
ARC
  5
B5E3
  8
0
 10
661.7005639978491445
 20
105.3605880325665964
 30
0.0
 40
0.0056489684657043
 50
324.1445163929071214
 51
61.4704103401081596
  0
ARC
  5
B5E4
  8
0
 10
662.5952814957352075
 20
105.272218896836506
 30
0.0
 40
0.0476120459237618
 50
290.9592990281116727
 51
348.0303274834461149
  0
ARC
  5
B5E5
  8
0
 10
662.573960771146858
 20
105.3087469929337061
 30
0.0
 40
0.0896114911339507
 50
233.90432496590509
 51
295.3393279303369923
  0
ARC
  5
B5E6
  8
0
 10
662.5461216201545085
 20
105.2646974347183999
 30
0.0
 40
0.0377753450919853
 50
188.3465429309013075
 51
228.6548476345755034
  0
ARC
  5
B5E7
  8
0
 10
662.5255261773918392
 20
105.2864955367166999
 30
0.0
 40
0.0201562885497703
 50
140.1073635553863141
 51
184.0828235163261866
  0
ARC
  5
B5E8
  8
0
 10
662.6108805859345239
 20
105.1965947030622033
 30
0.0
 40
0.1440074364992682
 50
91.2543735049659972
 51
134.4348414222505141
  0
ARC
  5
B5E9
  8
0
 10
662.6028288647755744
 20
105.291011116916394
 30
0.0
 40
0.0497980958434391
 50
37.208090244080239
 51
84.3540057336604292
  0
ARC
  5
B5EA
  8
0
 10
662.6173552831186271
 20
105.3051227805218986
 30
0.0
 40
0.0297964205912824
 50
354.9894505194830003
 51
32.4822555897791574
  0
LINE
  5
B5EB
  8
0
 10
662.5087463840343389
 20
105.2592139666756026
 30
0.0
 11
662.505421042034186
 21
105.2850604407755952
 31
0.0
  0
LINE
  5
B5EC
  8
0
 10
662.6418583374343143
 20
105.2623444482755986
 30
0.0
 11
662.6470378406756936
 21
105.3025203860634065
 31
0.0
  0
ARC
  5
B5ED
  8
0
 10
662.5755433271523316
 20
105.2278836003615936
 30
0.0
 40
0.0312196650863434
 50
58.3722433552043114
 51
125.3727315405261038
  0
ARC
  5
B5EE
  8
0
 10
662.5616717758425693
 20
105.2489185499557038
 30
0.0
 40
0.0060993520423772
 50
133.5360462002821009
 51
245.6908059694131907
  0
ARC
  5
B5EF
  8
0
 10
662.5744128729721751
 20
105.2700125729680991
 30
0.0
 40
0.0307080253179962
 50
240.2196265854998956
 51
309.1376210905011135
  0
ARC
  5
B5F0
  8
0
 10
662.5892168531845527
 20
105.2495032845379939
 30
0.0
 40
0.0056489684657043
 50
324.1445163929071214
 51
61.4704103401081596
  0
ARC
  5
B5F1
  8
0
 10
662.3762077811727522
 20
105.4426863185095016
 30
0.0
 40
0.0476120459237618
 50
290.9592990281116727
 51
348.0303274834461149
  0
ARC
  5
B5F2
  8
0
 10
662.35488705658463
 20
105.4792144146067017
 30
0.0
 40
0.0896114911339507
 50
233.90432496590509
 51
295.3393279303369923
  0
ARC
  5
B5F3
  8
0
 10
662.3270479055920532
 20
105.4351648563913955
 30
0.0
 40
0.0377753450919853
 50
188.3465429309013075
 51
228.6548476345755034
  0
ARC
  5
B5F4
  8
0
 10
662.3054329214772906
 20
105.4829300695862031
 30
0.0
 40
0.0201562885497703
 50
140.1073635553863141
 51
184.0828235163261866
  0
ARC
  5
B5F5
  8
0
 10
662.390787330020089
 20
105.393029235931607
 30
0.0
 40
0.1440074364992682
 50
91.2543735049659972
 51
134.4348414222505141
  0
ARC
  5
B5F6
  8
0
 10
662.3827356088610259
 20
105.4874456497857977
 30
0.0
 40
0.0497980958434391
 50
37.208090244080239
 51
84.3540057336604292
  0
ARC
  5
B5F7
  8
0
 10
662.3972620272040785
 20
105.5015573133913023
 30
0.0
 40
0.0297964205912824
 50
354.9894505194830003
 51
32.4822555897791574
  0
LINE
  5
B5F8
  8
0
 10
662.2896726694719973
 20
105.4296813883486976
 30
0.0
 11
662.2853277861198649
 21
105.4814949736449989
 31
0.0
  0
LINE
  5
B5F9
  8
0
 10
662.4227846228719727
 20
105.4328118699486936
 30
0.0
 11
662.4269445847612587
 21
105.498954918932796
 31
0.0
  0
ARC
  5
B5FA
  8
0
 10
662.35646961258999
 20
105.3983510220346034
 30
0.0
 40
0.0312196650863434
 50
58.3722433552043114
 51
125.3727315405261038
  0
ARC
  5
B5FB
  8
0
 10
662.3425980612803414
 20
105.4193859716286994
 30
0.0
 40
0.0060993520423772
 50
133.5360462002821009
 51
245.6908059694131907
  0
ARC
  5
B5FC
  8
0
 10
662.3553391584098335
 20
105.4404799946410947
 30
0.0
 40
0.0307080253179962
 50
240.2196265854998956
 51
309.1376210905011135
  0
ARC
  5
B5FD
  8
0
 10
662.3701431386223248
 20
105.4199707062110036
 30
0.0
 40
0.0056489684657043
 50
324.1445163929071214
 51
61.4704103401081596
  0
ARC
  5
B5FE
  8
0
 10
662.0947690989731882
 20
105.694949568882393
 30
0.0
 40
0.0476120459237618
 50
290.9592990281116727
 51
348.0303274834461149
  0
ARC
  5
B5FF
  8
0
 10
662.0734483743849523
 20
105.7314776649795931
 30
0.0
 40
0.0896114911339507
 50
233.90432496590509
 51
295.3393279303369923
  0
ARC
  5
B600
  8
0
 10
662.0456092233924892
 20
105.6874281067643011
 30
0.0
 40
0.0377753450919853
 50
188.3465429309013075
 51
228.6548476345755034
  0
ARC
  5
B601
  8
0
 10
662.0250137806298198
 20
105.7092262087627006
 30
0.0
 40
0.0201562885497703
 50
140.1073635553863141
 51
184.0828235163261866
  0
ARC
  5
B602
  8
0
 10
662.0899009392120433
 20
105.6679091224993954
 30
0.0
 40
0.0969479045605034
 50
79.7118604472285455
 51
145.9773544799907086
  0
ARC
  5
B603
  8
0
 10
662.1023164680135551
 20
105.7137417889622952
 30
0.0
 40
0.0497980958434391
 50
37.208090244080239
 51
84.3540057336604292
  0
ARC
  5
B604
  8
0
 10
662.1168428863564941
 20
105.7278534525677998
 30
0.0
 40
0.0297964205912824
 50
354.9894505194830003
 51
32.4822555897791574
  0
LINE
  5
B605
  8
0
 10
662.0082339872723196
 20
105.6819446387216033
 30
0.0
 11
662.0049086452722804
 21
105.7077911128215959
 31
0.0
  0
LINE
  5
B606
  8
0
 10
662.1413459406721813
 20
105.6850751203215992
 30
0.0
 11
662.1465254439136743
 21
105.7252510581092935
 31
0.0
  0
ARC
  5
B607
  8
0
 10
662.0750309303903123
 20
105.6506142724075943
 30
0.0
 40
0.0312196650863434
 50
58.3722433552043114
 51
125.3727315405261038
  0
ARC
  5
B608
  8
0
 10
662.06115937908055
 20
105.671649222001605
 30
0.0
 40
0.0060993520423772
 50
133.5360462002821009
 51
245.6908059694131907
  0
ARC
  5
B609
  8
0
 10
662.0739004762101558
 20
105.6927432450140998
 30
0.0
 40
0.0307080253179962
 50
240.2196265854998956
 51
309.1376210905011135
  0
ARC
  5
B60A
  8
0
 10
662.0887044564226471
 20
105.6722339565839945
 30
0.0
 40
0.0056489684657043
 50
324.1445163929071214
 51
61.4704103401081596
  0
ARC
  5
B60B
  8
0
 10
661.713276700482993
 20
105.7482703423692953
 30
0.0
 40
0.0476120459237618
 50
290.9592990281116727
 51
348.0303274834461149
  0
ARC
  5
B60C
  8
0
 10
661.6919559758947571
 20
105.7847984384664954
 30
0.0
 40
0.0896114911339507
 50
233.90432496590509
 51
295.3393279303369923
  0
ARC
  5
B60D
  8
0
 10
661.6641168249024076
 20
105.7407488802512034
 30
0.0
 40
0.0377753450919853
 50
188.3465429309013075
 51
228.6548476345755034
  0
ARC
  5
B60E
  8
0
 10
661.6425018407875314
 20
105.7885140934458974
 30
0.0
 40
0.0201562885497703
 50
140.1073635553863141
 51
184.0828235163261866
  0
ARC
  5
B60F
  8
0
 10
661.6966801135977221
 20
105.7726170221919944
 30
0.0
 40
0.0753724639919125
 50
68.1731996141487286
 51
157.5160153130713923
  0
ARC
  5
B610
  8
0
 10
661.7198045281711529
 20
105.7930296736455063
 30
0.0
 40
0.0497980958434391
 50
37.208090244080239
 51
84.3540057336604292
  0
ARC
  5
B611
  8
0
 10
661.7343309465143193
 20
105.8071413372509966
 30
0.0
 40
0.0297964205912824
 50
354.9894505194830003
 51
32.4822555897791574
  0
LINE
  5
B612
  8
0
 10
661.6267415887822381
 20
105.7352654122084061
 30
0.0
 11
661.6223967054299919
 21
105.7870789975048069
 31
0.0
  0
LINE
  5
B613
  8
0
 10
661.7598535421822135
 20
105.7383958938084021
 30
0.0
 11
661.7640135040714995
 21
105.8045389427925045
 31
0.0
  0
ARC
  5
B614
  8
0
 10
661.6935385319002307
 20
105.7039350458943971
 30
0.0
 40
0.0312196650863434
 50
58.3722433552043114
 51
125.3727315405261038
  0
ARC
  5
B615
  8
0
 10
661.6796669805904685
 20
105.7249699954884932
 30
0.0
 40
0.0060993520423772
 50
133.5360462002821009
 51
245.6908059694131907
  0
ARC
  5
B616
  8
0
 10
661.6924080777199606
 20
105.7460640185009026
 30
0.0
 40
0.0307080253179962
 50
240.2196265854998956
 51
309.1376210905011135
  0
ARC
  5
B617
  8
0
 10
661.7072120579324519
 20
105.7255547300707974
 30
0.0
 40
0.0056489684657043
 50
324.1445163929071214
 51
61.4704103401081596
  0
ARC
  5
B618
  8
0
 10
661.7219638432707143
 20
105.5667993121811037
 30
0.0
 40
0.0476120459237618
 50
290.9592990281116727
 51
348.0303274834461149
  0
ARC
  5
B619
  8
0
 10
661.7006431186824784
 20
105.6033274082783038
 30
0.0
 40
0.0896114911339507
 50
233.90432496590509
 51
295.3393279303369923
  0
ARC
  5
B61A
  8
0
 10
661.672803967690129
 20
105.5592778500629976
 30
0.0
 40
0.0377753450919853
 50
188.3465429309013075
 51
228.6548476345755034
  0
ARC
  5
B61B
  8
0
 10
661.6912735435317927
 20
105.5763409267261039
 30
0.0
 40
0.0592621013285987
 50
161.4608914065636043
 51
176.8079115054758859
  0
ARC
  5
B61C
  8
0
 10
661.7086040044653146
 20
105.5558780929292055
 30
0.0
 40
0.0833648444273929
 50
71.9672750293261601
 51
151.8692213511006912
  0
ARC
  5
B61D
  8
0
 10
661.7295112123110812
 20
105.5855915322610059
 30
0.0
 40
0.0497980958434391
 50
37.208090244080239
 51
84.3540057336604292
  0
ARC
  5
B61E
  8
0
 10
661.7440376306542476
 20
105.5997031958665957
 30
0.0
 40
0.0297964205912824
 50
354.9894505194830003
 51
32.4822555897791574
  0
LINE
  5
B61F
  8
0
 10
661.6354287315698457
 20
105.5537943820202997
 30
0.0
 11
661.6321033895699202
 21
105.5796408561203066
 31
0.0
  0
LINE
  5
B620
  8
0
 10
661.7685406849699348
 20
105.5569248636202957
 30
0.0
 11
661.7737201882113141
 21
105.5971008014080041
 31
0.0
  0
ARC
  5
B621
  8
0
 10
661.7022256746879521
 20
105.522464015706305
 30
0.0
 40
0.0312196650863434
 50
58.3722433552043114
 51
125.3727315405261038
  0
ARC
  5
B622
  8
0
 10
661.6883541233781898
 20
105.5434989653003015
 30
0.0
 40
0.0060993520423772
 50
133.5360462002821009
 51
245.6908059694131907
  0
ARC
  5
B623
  8
0
 10
661.7010952205076819
 20
105.5645929883126968
 30
0.0
 40
0.0307080253179962
 50
240.2196265854998956
 51
309.1376210905011135
  0
ARC
  5
B624
  8
0
 10
661.7158992007202869
 20
105.5440836998827052
 30
0.0
 40
0.0056489684657043
 50
324.1445163929071214
 51
61.4704103401081596
  0
ARC
  5
B625
  8
0
 10
661.8270201135243269
 20
105.0896532711853979
 30
0.0
 40
0.0476120459237618
 50
290.9592990281116727
 51
348.0303274834461149
  0
ARC
  5
B626
  8
0
 10
661.8056993889360911
 20
105.126181367282598
 30
0.0
 40
0.0896114911339507
 50
233.90432496590509
 51
295.3393279303369923
  0
ARC
  5
B627
  8
0
 10
661.7778602379436279
 20
105.082131809067306
 30
0.0
 40
0.0377753450919853
 50
188.3465429309013075
 51
228.6548476345755034
  0
ARC
  5
B628
  8
0
 10
661.796329813785178
 20
105.0991948857303981
 30
0.0
 40
0.0592621013285987
 50
161.4608914065636043
 51
176.8079115054758859
  0
ARC
  5
B629
  8
0
 10
661.8136602747186998
 20
105.0787320519334003
 30
0.0
 40
0.0833648444273929
 50
71.9672750293261601
 51
151.8692213511006912
  0
ARC
  5
B62A
  8
0
 10
661.8345674825644664
 20
105.1084454912653001
 30
0.0
 40
0.0497980958434391
 50
37.208090244080239
 51
84.3540057336604292
  0
ARC
  5
B62B
  8
0
 10
661.8490939009077465
 20
105.1225571548708047
 30
0.0
 40
0.0297964205912824
 50
354.9894505194830003
 51
32.4822555897791574
  0
LINE
  5
B62C
  8
0
 10
661.7404850018233446
 20
105.0766483410245939
 30
0.0
 11
661.7371596598234191
 21
105.1024948151245013
 31
0.0
  0
LINE
  5
B62D
  8
0
 10
661.8735969552234337
 20
105.0797788226246041
 30
0.0
 11
661.878776458464813
 21
105.1199547604122984
 31
0.0
  0
ARC
  5
B62E
  8
0
 10
661.807281944941451
 20
105.0453179747104997
 30
0.0
 40
0.0312196650863434
 50
58.3722433552043114
 51
125.3727315405261038
  0
ARC
  5
B62F
  8
0
 10
661.7934103936318024
 20
105.0663529243045957
 30
0.0
 40
0.0060993520423772
 50
133.5360462002821009
 51
245.6908059694131907
  0
ARC
  5
B630
  8
0
 10
661.8061514907612946
 20
105.0874469473170052
 30
0.0
 40
0.0307080253179962
 50
240.2196265854998956
 51
309.1376210905011135
  0
ARC
  5
B631
  8
0
 10
661.8209554709736722
 20
105.0669376588869
 30
0.0
 40
0.0056489684657043
 50
324.1445163929071214
 51
61.4704103401081596
  0
ARC
  5
B632
  8
0
 10
661.5670684880117278
 20
104.4268210284513998
 30
0.0
 40
0.0394408335541846
 50
304.9609979411303016
 51
350.0476185674905878
  0
ARC
  5
B633
  8
0
 10
661.5461744554091865
 20
104.4567040734656018
 30
0.0
 40
0.0759039241762731
 50
283.5782651396846745
 51
304.9609979411303016
  0
ARC
  5
B634
  8
0
 10
661.5389712904844828
 20
104.4681566119036944
 30
0.0
 40
0.088832245853873
 50
236.3497644270327953
 51
286.3612504033716846
  0
ARC
  5
B635
  8
0
 10
661.5152261030084446
 20
104.4246472025839978
 30
0.0
 40
0.0396940585723798
 50
190.8384751365292118
 51
230.068116986784986
  0
ARC
  5
B636
  8
0
 10
661.6000204921775776
 20
104.4593842962165979
 30
0.0
 40
0.0109024653103501
 50
348.399044118237498
 51
46.6909983086910572
  0
ARC
  5
B637
  8
0
 10
661.5660215109644469
 20
104.4028861598209943
 30
0.0
 40
0.0766275738397198
 50
57.2288585516194885
 51
86.3509226590464607
  0
ARC
  5
B638
  8
0
 10
661.554826491900144
 20
104.3421856427509056
 30
0.0
 40
0.1381110733114377
 50
83.3173393074874724
 51
123.8389122880618061
  0
ARC
  5
B639
  8
0
 10
661.486998586907248
 20
104.4457701319959995
 30
0.0
 40
0.0143654744557683
 50
129.2062048050376859
 51
182.6872449449359976
  0
LINE
  5
B63A
  8
0
 10
661.4762401388330773
 20
104.4171830962572045
 30
0.0
 11
661.4726489096331079
 21
104.445096619957198
 31
0.0
  0
LINE
  5
B63B
  8
0
 10
661.6059158053330975
 20
104.4200044832571024
 30
0.0
 11
661.61070024077992
 21
104.4571918729830031
 31
0.0
  0
ARC
  5
B63C
  8
0
 10
661.5414217315417318
 20
104.3848009346424988
 30
0.0
 40
0.0312196650863434
 50
58.3722433552043114
 51
125.3727315405261038
  0
ARC
  5
B63D
  8
0
 10
661.5275501802319695
 20
104.4058358842364953
 30
0.0
 40
0.0060993520423772
 50
133.5360462002821009
 51
245.6908059694131907
  0
ARC
  5
B63E
  8
0
 10
661.5402912773615753
 20
104.4269299072489048
 30
0.0
 40
0.0307080253179962
 50
240.2196265854998956
 51
309.1376210905011135
  0
ARC
  5
B63F
  8
0
 10
661.5550952575739529
 20
104.406420618818899
 30
0.0
 40
0.0056489684657043
 50
324.1445163929071214
 51
61.4704103401081596
  0
ARC
  5
B640
  8
0
 10
661.4276626071257397
 20
104.3220220449846067
 30
0.0
 40
0.0394408335541846
 50
304.9609979411303016
 51
350.0476185674905878
  0
ARC
  5
B641
  8
0
 10
661.4067685745233121
 20
104.351905089998894
 30
0.0
 40
0.0759039241762731
 50
283.5782651396846745
 51
304.9609979411303016
  0
ARC
  5
B642
  8
0
 10
661.3995654095986083
 20
104.3633576284370008
 30
0.0
 40
0.088832245853873
 50
236.3497644270327953
 51
286.3612504033716846
  0
ARC
  5
B643
  8
0
 10
661.3758202221224565
 20
104.3198482191173042
 30
0.0
 40
0.0396940585723798
 50
190.8384751365292118
 51
230.068116986784986
  0
ARC
  5
B644
  8
0
 10
661.4606146112914757
 20
104.3545853127499043
 30
0.0
 40
0.0109024653103501
 50
348.399044118237498
 51
46.6909983086910572
  0
ARC
  5
B645
  8
0
 10
661.426615630078345
 20
104.2980871763543007
 30
0.0
 40
0.0766275738397198
 50
57.2288585516194885
 51
86.3509226590464607
  0
ARC
  5
B646
  8
0
 10
661.4154206110142695
 20
104.2373866592841978
 30
0.0
 40
0.1381110733114377
 50
83.3173393074874724
 51
123.8389122880618061
  0
ARC
  5
B647
  8
0
 10
661.3475927060211461
 20
104.3409711485292064
 30
0.0
 40
0.0143654744557683
 50
129.2062048050376859
 51
182.6872449449359976
  0
LINE
  5
B648
  8
0
 10
661.3368342579469754
 20
104.3123841127903972
 30
0.0
 11
661.3332430287470061
 21
104.3402976364904049
 31
0.0
  0
LINE
  5
B649
  8
0
 10
661.466509924446882
 20
104.3152054997903946
 30
0.0
 11
661.4712943598939319
 21
104.3523928895162953
 31
0.0
  0
ARC
  5
B64A
  8
0
 10
661.4020158506557436
 20
104.2800019511757057
 30
0.0
 40
0.0312196650863434
 50
58.3722433552043114
 51
125.3727315405261038
  0
ARC
  5
B64B
  8
0
 10
661.3881442993458677
 20
104.3010369007698017
 30
0.0
 40
0.0060993520423772
 50
133.5360462002821009
 51
245.6908059694131907
  0
ARC
  5
B64C
  8
0
 10
661.4008853964754735
 20
104.322130923782197
 30
0.0
 40
0.0307080253179962
 50
240.2196265854998956
 51
309.1376210905011135
  0
ARC
  5
B64D
  8
0
 10
661.4156893766878511
 20
104.301621635352106
 30
0.0
 40
0.0056489684657043
 50
324.1445163929071214
 51
61.4704103401081596
  0
ARC
  5
B64E
  8
0
 10
661.2910887855512101
 20
104.3984309215996973
 30
0.0
 40
0.0394408335541846
 50
304.9609979411303016
 51
350.0476185674905878
  0
ARC
  5
B64F
  8
0
 10
661.2701947529488962
 20
104.4283139666138993
 30
0.0
 40
0.0759039241762731
 50
283.5782651396846745
 51
304.9609979411303016
  0
ARC
  5
B650
  8
0
 10
661.2629915880240787
 20
104.4397665050520061
 30
0.0
 40
0.088832245853873
 50
236.3497644270327953
 51
286.3612504033716846
  0
ARC
  5
B651
  8
0
 10
661.2392464005480406
 20
104.3962570957322953
 30
0.0
 40
0.0396940585723798
 50
190.8384751365292118
 51
230.068116986784986
  0
ARC
  5
B652
  8
0
 10
661.3240407897171735
 20
104.4309941893648954
 30
0.0
 40
0.0109024653103501
 50
348.399044118237498
 51
46.6909983086910572
  0
ARC
  5
B653
  8
0
 10
661.2900418085040428
 20
104.374496052969306
 30
0.0
 40
0.0766275738397198
 50
57.2288585516194885
 51
86.3509226590464607
  0
ARC
  5
B654
  8
0
 10
661.2788467894398536
 20
104.3137955358992031
 30
0.0
 40
0.1381110733114377
 50
83.3173393074874724
 51
123.8389122880618061
  0
ARC
  5
B655
  8
0
 10
661.2110188844468439
 20
104.417380025144297
 30
0.0
 40
0.0143654744557683
 50
129.2062048050376859
 51
182.6872449449359976
  0
LINE
  5
B656
  8
0
 10
661.2002604363725595
 20
104.3887929894054025
 30
0.0
 11
661.1966692071724765
 21
104.416706513105396
 31
0.0
  0
LINE
  5
B657
  8
0
 10
661.3299361028724661
 20
104.3916143764053999
 30
0.0
 11
661.3347205383194023
 21
104.4288017661313006
 31
0.0
  0
ARC
  5
B658
  8
0
 10
661.2654420290813277
 20
104.3564108277906968
 30
0.0
 40
0.0312196650863434
 50
58.3722433552043114
 51
125.3727315405261038
  0
ARC
  5
B659
  8
0
 10
661.2515704777714518
 20
104.377445777384807
 30
0.0
 40
0.0060993520423772
 50
133.5360462002821009
 51
245.6908059694131907
  0
ARC
  5
B65A
  8
0
 10
661.2643115749010576
 20
104.3985398003972023
 30
0.0
 40
0.0307080253179962
 50
240.2196265854998956
 51
309.1376210905011135
  0
ARC
  5
B65B
  8
0
 10
661.2791155551135489
 20
104.378030511967097
 30
0.0
 40
0.0056489684657043
 50
324.1445163929071214
 51
61.4704103401081596
  0
ARC
  5
B65C
  8
0
 10
661.1303851890568239
 20
104.2222379162485026
 30
0.0
 40
0.0402703849329144
 50
186.2312260131230914
 51
240.767442861419795
  0
ARC
  5
B65D
  8
0
 10
661.1537963927085002
 20
104.2640714966383939
 30
0.0
 40
0.088209230399327
 50
240.767442861419795
 51
266.3944021311012875
  0
ARC
  5
B65E
  8
0
 10
661.1550522039417501
 20
104.2840009730889932
 30
0.0
 40
0.1081782337157002
 50
266.3944021311012875
 51
293.072486172234278
  0
ARC
  5
B65F
  8
0
 10
661.181892406348652
 20
104.2209911720355962
 30
0.0
 40
0.0396900486467731
 50
293.072486172234278
 51
349.7043987746824882
  0
ARC
  5
B660
  8
0
 10
661.184564690663251
 20
104.2226484604942982
 30
0.0
 40
0.0468829324737834
 50
30.1612337857185899
 51
78.9314250670398394
  0
ARC
  5
B661
  8
0
 10
661.1522974111431949
 20
104.1087228887048042
 30
0.0
 40
0.1651747587339985
 50
75.5316769040272646
 51
109.2253500604681022
  0
ARC
  5
B662
  8
0
 10
661.1086077661465197
 20
104.2435054357405022
 30
0.0
 40
0.0237297672812036
 50
116.8016632736944018
 51
161.4537622726672907
  0
LINE
  5
B663
  8
0
 10
661.0903527232883334
 20
104.2178669224102947
 30
0.0
 11
661.0861103501921434
 21
104.2510531592778023
 31
0.0
  0
LINE
  5
B664
  8
0
 10
661.2209471240853418
 20
104.2139237888640935
 30
0.0
 11
661.225100374812655
 21
104.2462040897129043
 31
0.0
  0
ARC
  5
B665
  8
0
 10
661.1555647334815831
 20
104.1810441512319017
 30
0.0
 40
0.0312196650863434
 50
54.6272684594738891
 51
121.6277566447956957
  0
ARC
  5
B666
  8
0
 10
661.1694362847913453
 20
104.2020791008259977
 30
0.0
 40
0.0060993520423772
 50
294.309194030586923
 51
46.4639537997178635
  0
ARC
  5
B667
  8
0
 10
661.1566951876617395
 20
104.2231731238383929
 30
0.0
 40
0.0307080253179962
 50
230.8623789094988865
 51
299.7803734145001044
  0
ARC
  5
B668
  8
0
 10
661.1418912074492482
 20
104.2026638354083019
 30
0.0
 40
0.0056489684657043
 50
118.5295896598917977
 51
215.8554836070929071
  0
ARC
  5
B669
  8
0
 10
661.3160771925200834
 20
104.4994377560336005
 30
0.0
 40
0.0402703849329144
 50
186.2312260131230914
 51
240.767442861419795
  0
ARC
  5
B66A
  8
0
 10
661.3394883961716459
 20
104.5412713364234065
 30
0.0
 40
0.088209230399327
 50
240.767442861419795
 51
266.3944021311012875
  0
ARC
  5
B66B
  8
0
 10
661.3407442074051232
 20
104.5612008128740058
 30
0.0
 40
0.1081782337157002
 50
266.3944021311012875
 51
293.072486172234278
  0
ARC
  5
B66C
  8
0
 10
661.3675844098120251
 20
104.4981910118205946
 30
0.0
 40
0.0396900486467731
 50
293.072486172234278
 51
349.7043987746824882
  0
ARC
  5
B66D
  8
0
 10
661.3702566941266241
 20
104.4998483002792966
 30
0.0
 40
0.0468829324737834
 50
30.1612337857185899
 51
78.9314250670398394
  0
ARC
  5
B66E
  8
0
 10
661.3379894146064544
 20
104.3859227284898026
 30
0.0
 40
0.1651747587339985
 50
75.5316769040272646
 51
109.2253500604681022
  0
ARC
  5
B66F
  8
0
 10
661.2942997696096654
 20
104.5207052755256001
 30
0.0
 40
0.0237297672812036
 50
116.8016632736944018
 51
161.4537622726672907
  0
LINE
  5
B670
  8
0
 10
661.2760447267515929
 20
104.4950667621952931
 30
0.0
 11
661.2718023536554028
 21
104.5282529990628007
 31
0.0
  0
LINE
  5
B671
  8
0
 10
661.4066391275486012
 20
104.4911236286492056
 30
0.0
 11
661.4107923782759144
 21
104.5234039294980022
 31
0.0
  0
ARC
  5
B672
  8
0
 10
661.3412567369449562
 20
104.4582439910169001
 30
0.0
 40
0.0312196650863434
 50
54.6272684594738891
 51
121.6277566447956957
  0
ARC
  5
B673
  8
0
 10
661.3551282882546047
 20
104.4792789406109961
 30
0.0
 40
0.0060993520423772
 50
294.309194030586923
 51
46.4639537997178635
  0
ARC
  5
B674
  8
0
 10
661.3423871911248852
 20
104.5003729636234056
 30
0.0
 40
0.0307080253179962
 50
230.8623789094988865
 51
299.7803734145001044
  0
ARC
  5
B675
  8
0
 10
661.3275832109126213
 20
104.4798636751933003
 30
0.0
 40
0.0056489684657043
 50
118.5295896598917977
 51
215.8554836070929071
  0
ARC
  5
B676
  8
0
 10
661.3044427302764916
 20
104.6344489493564964
 30
0.0
 40
0.0402703849329144
 50
186.2312260131230914
 51
240.767442861419795
  0
ARC
  5
B677
  8
0
 10
661.3278539339280542
 20
104.6762825297463024
 30
0.0
 40
0.088209230399327
 50
240.767442861419795
 51
266.3944021311012875
  0
ARC
  5
B678
  8
0
 10
661.3291097451615315
 20
104.6962120061970012
 30
0.0
 40
0.1081782337157002
 50
266.3944021311012875
 51
293.072486172234278
  0
ARC
  5
B679
  8
0
 10
661.3559499475684333
 20
104.6332022051436041
 30
0.0
 40
0.0396900486467731
 50
293.072486172234278
 51
349.7043987746824882
  0
ARC
  5
B67A
  8
0
 10
661.3586222318830323
 20
104.6348594936022067
 30
0.0
 40
0.0468829324737834
 50
30.1612337857185899
 51
78.9314250670398394
  0
ARC
  5
B67B
  8
0
 10
661.3263549523628626
 20
104.520933921812798
 30
0.0
 40
0.1651747587339985
 50
75.5316769040272646
 51
109.2253500604681022
  0
ARC
  5
B67C
  8
0
 10
661.2826653073661873
 20
104.655716468848496
 30
0.0
 40
0.0237297672812036
 50
116.8016632736944018
 51
161.4537622726672907
  0
LINE
  5
B67D
  8
0
 10
661.2644102645080011
 20
104.6300779555182032
 30
0.0
 11
661.2601678914118111
 21
104.663264192385796
 31
0.0
  0
LINE
  5
B67E
  8
0
 10
661.3950046653050094
 20
104.6261348219721015
 30
0.0
 11
661.3991579160323226
 21
104.6584151228208981
 31
0.0
  0
ARC
  5
B67F
  8
0
 10
661.3296222747012507
 20
104.5932551843398954
 30
0.0
 40
0.0312196650863434
 50
54.6272684594738891
 51
121.6277566447956957
  0
ARC
  5
B680
  8
0
 10
661.343493826011013
 20
104.6142901339339062
 30
0.0
 40
0.0060993520423772
 50
294.309194030586923
 51
46.4639537997178635
  0
ARC
  5
B681
  8
0
 10
661.3307527288815209
 20
104.6353841569463015
 30
0.0
 40
0.0307080253179962
 50
230.8623789094988865
 51
299.7803734145001044
  0
ARC
  5
B682
  8
0
 10
661.3159487486690296
 20
104.6148748685161962
 30
0.0
 40
0.0056489684657043
 50
118.5295896598917977
 51
215.8554836070929071
  0
ARC
  5
B683
  8
0
 10
661.3533158401445462
 20
105.0878823448830985
 30
0.0
 40
0.0402703849329144
 50
299.2325571385800913
 51
353.7687739868767949
  0
ARC
  5
B684
  8
0
 10
661.3299046364929836
 20
105.129715925273004
 30
0.0
 40
0.088209230399327
 50
273.6055978688987125
 51
299.2325571385800913
  0
ARC
  5
B685
  8
0
 10
661.32864882525962
 20
105.1496454017236033
 30
0.0
 40
0.1081782337157002
 50
246.9275138277656083
 51
273.6055978688987125
  0
ARC
  5
B686
  8
0
 10
661.3018086228527181
 20
105.0866356006702063
 30
0.0
 40
0.0396900486467731
 50
190.2956012253175118
 51
246.9275138277656083
  0
ARC
  5
B687
  8
0
 10
661.3105980512075348
 20
105.0913289651856957
 30
0.0
 40
0.0558997436298744
 50
117.5324476489711003
 51
158.4644917971048983
  0
ARC
  5
B688
  8
0
 10
661.3293008488933538
 20
105.060471583691097
 30
0.0
 40
0.0919371843151997
 50
51.0362007068875627
 51
118.9789616737400024
  0
ARC
  5
B689
  8
0
 10
661.3464110617029519
 20
105.0927836796575008
 30
0.0
 40
0.0564909571139631
 50
25.0445461018843183
 51
43.9029901239475109
  0
LINE
  5
B68A
  8
0
 10
661.3933483059131504
 20
105.0835113510449048
 30
0.0
 11
661.3975906790093404
 21
105.1166975879123981
 31
0.0
  0
LINE
  5
B68B
  8
0
 10
661.2627539051161421
 20
105.0795682174987036
 30
0.0
 11
661.2586006543888288
 21
105.1118485183475002
 31
0.0
  0
ARC
  5
B68C
  8
0
 10
661.3281362957197871
 20
105.0466885798664975
 30
0.0
 40
0.0312196650863434
 50
58.3722433552043114
 51
125.3727315405261038
  0
ARC
  5
B68D
  8
0
 10
661.3142647444101385
 20
105.0677235294604941
 30
0.0
 40
0.0060993520423772
 50
133.5360462002821009
 51
245.6908059694131907
  0
ARC
  5
B68E
  8
0
 10
661.3270058415396306
 20
105.0888175524729036
 30
0.0
 40
0.0307080253179962
 50
240.2196265854998956
 51
309.1376210905011135
  0
ARC
  5
B68F
  8
0
 10
661.3418098217521219
 20
105.0683082640427983
 30
0.0
 40
0.0056489684657043
 50
324.1445163929071214
 51
61.4704103401081596
  0
ARC
  5
B690
  8
0
 10
661.5569350499755501
 20
105.0032119972332936
 30
0.0
 40
0.0476120459237618
 50
290.9592990281116727
 51
348.0303274834461149
  0
ARC
  5
B691
  8
0
 10
661.5356143253873142
 20
105.0397400933303942
 30
0.0
 40
0.0896114911339507
 50
233.90432496590509
 51
295.3393279303369923
  0
ARC
  5
B692
  8
0
 10
661.5077751743949648
 20
104.9956905351152017
 30
0.0
 40
0.0377753450919853
 50
188.3465429309013075
 51
228.6548476345755034
  0
ARC
  5
B693
  8
0
 10
661.5262447502366285
 20
105.0127536117781943
 30
0.0
 40
0.0592621013285987
 50
161.4608914065636043
 51
176.8079115054758859
  0
ARC
  5
B694
  8
0
 10
661.5435752111700367
 20
104.9922907779812959
 30
0.0
 40
0.0833648444273929
 50
71.9672750293261601
 51
151.8692213511006912
  0
ARC
  5
B695
  8
0
 10
661.564482419015917
 20
105.0220042173130963
 30
0.0
 40
0.0497980958434391
 50
37.208090244080239
 51
84.3540057336604292
  0
ARC
  5
B696
  8
0
 10
661.579008837358856
 20
105.0361158809187003
 30
0.0
 40
0.0297964205912824
 50
354.9894505194830003
 51
32.4822555897791574
  0
LINE
  5
B697
  8
0
 10
661.4703999382745678
 20
104.9902070670724044
 30
0.0
 11
661.4670745962746423
 21
105.016053541172397
 31
0.0
  0
LINE
  5
B698
  8
0
 10
661.6035118916745432
 20
104.9933375486724003
 30
0.0
 11
661.6086913949161499
 21
105.0335134864600946
 31
0.0
  0
ARC
  5
B699
  8
0
 10
661.5371968813925605
 20
104.9588767007583954
 30
0.0
 40
0.0312196650863434
 50
58.3722433552043114
 51
125.3727315405261038
  0
ARC
  5
B69A
  8
0
 10
661.5233253300830256
 20
104.9799116503525056
 30
0.0
 40
0.0060993520423772
 50
133.5360462002821009
 51
245.6908059694131907
  0
ARC
  5
B69B
  8
0
 10
661.5360664272125177
 20
105.0010056733648014
 30
0.0
 40
0.0307080253179962
 50
240.2196265854998956
 51
309.1376210905011135
  0
ARC
  5
B69C
  8
0
 10
661.550870407425009
 20
104.9804963849347956
 30
0.0
 40
0.0056489684657043
 50
324.1445163929071214
 51
61.4704103401081596
  0
ARC
  5
B69D
  8
0
 10
661.6353615022318309
 20
104.8638894778347037
 30
0.0
 40
0.0476120459237618
 50
290.9592990281116727
 51
348.0303274834461149
  0
ARC
  5
B69E
  8
0
 10
661.614040777643595
 20
104.9004175739319038
 30
0.0
 40
0.0896114911339507
 50
233.90432496590509
 51
295.3393279303369923
  0
ARC
  5
B69F
  8
0
 10
661.5862016266511318
 20
104.8563680157165976
 30
0.0
 40
0.0377753450919853
 50
188.3465429309013075
 51
228.6548476345755034
  0
ARC
  5
B6A0
  8
0
 10
661.6046712024926819
 20
104.873431092379704
 30
0.0
 40
0.0592621013285987
 50
161.4608914065636043
 51
176.8079115054758859
  0
ARC
  5
B6A1
  8
0
 10
661.6220016634263175
 20
104.8529682585827061
 30
0.0
 40
0.0833648444273929
 50
71.9672750293261601
 51
151.8692213511006912
  0
ARC
  5
B6A2
  8
0
 10
661.6429088712719704
 20
104.8826816979146059
 30
0.0
 40
0.0497980958434391
 50
37.208090244080239
 51
84.3540057336604292
  0
ARC
  5
B6A3
  8
0
 10
661.6574352896151368
 20
104.8967933615200963
 30
0.0
 40
0.0297964205912824
 50
354.9894505194830003
 51
32.4822555897791574
  0
LINE
  5
B6A4
  8
0
 10
661.5488263905309623
 20
104.8508845476738998
 30
0.0
 11
661.5455010485309231
 21
104.8767310217739066
 31
0.0
  0
LINE
  5
B6A5
  8
0
 10
661.6819383439309377
 20
104.8540150292737962
 30
0.0
 11
661.6871178471723169
 21
104.8941909670616042
 31
0.0
  0
ARC
  5
B6A6
  8
0
 10
661.6156233336489549
 20
104.819554181359905
 30
0.0
 40
0.0312196650863434
 50
58.3722433552043114
 51
125.3727315405261038
  0
ARC
  5
B6A7
  8
0
 10
661.6017517823391927
 20
104.8405891309539015
 30
0.0
 40
0.0060993520423772
 50
133.5360462002821009
 51
245.6908059694131907
  0
ARC
  5
B6A8
  8
0
 10
661.6144928794687985
 20
104.8616831539662968
 30
0.0
 40
0.0307080253179962
 50
240.2196265854998956
 51
309.1376210905011135
  0
ARC
  5
B6A9
  8
0
 10
661.6292968596811761
 20
104.8411738655362058
 30
0.0
 40
0.0056489684657043
 50
324.1445163929071214
 51
61.4704103401081596
  0
ARC
  5
B6AA
  8
0
 10
661.0477249866786451
 20
105.0878823448830985
 30
0.0
 40
0.0402703849329144
 50
186.2312260131230914
 51
240.767442861419795
  0
ARC
  5
B6AB
  8
0
 10
661.0711361903302077
 20
105.129715925273004
 30
0.0
 40
0.088209230399327
 50
240.767442861419795
 51
266.3944021311012875
  0
ARC
  5
B6AC
  8
0
 10
661.0723920015635713
 20
105.1496454017236033
 30
0.0
 40
0.1081782337157002
 50
266.3944021311012875
 51
293.072486172234278
  0
ARC
  5
B6AD
  8
0
 10
661.0992322039703595
 20
105.0866356006702063
 30
0.0
 40
0.0396900486467731
 50
293.072486172234278
 51
349.7043987746824882
  0
ARC
  5
B6AE
  8
0
 10
661.0904427756156565
 20
105.0913289651856957
 30
0.0
 40
0.0558997436298744
 50
21.5355082028950804
 51
62.4675523510288997
  0
ARC
  5
B6AF
  8
0
 10
661.0717399779298376
 20
105.060471583691097
 30
0.0
 40
0.0919371843151997
 50
61.0210383262599976
 51
128.9637992931124018
  0
ARC
  5
B6B0
  8
0
 10
661.0546297651203531
 20
105.0927836796575008
 30
0.0
 40
0.0564909571139631
 50
136.0970098760525104
 51
154.9554538981157066
  0
LINE
  5
B6B1
  8
0
 10
661.0076925209100409
 20
105.0835113510449048
 30
0.0
 11
661.0034501478138509
 21
105.1166975879123981
 31
0.0
  0
LINE
  5
B6B2
  8
0
 10
661.1382869217070493
 20
105.0795682174987036
 30
0.0
 11
661.1424401724342488
 21
105.1118485183475002
 31
0.0
  0
ARC
  5
B6B3
  8
0
 10
661.0729045311034042
 20
105.0466885798664975
 30
0.0
 40
0.0312196650863434
 50
54.6272684594738891
 51
121.6277566447956957
  0
ARC
  5
B6B4
  8
0
 10
661.0867760824130528
 20
105.0677235294604941
 30
0.0
 40
0.0060993520423772
 50
294.309194030586923
 51
46.4639537997178635
  0
ARC
  5
B6B5
  8
0
 10
661.074034985283447
 20
105.0888175524729036
 30
0.0
 40
0.0307080253179962
 50
230.8623789094988865
 51
299.7803734145001044
  0
ARC
  5
B6B6
  8
0
 10
661.0592310050709557
 20
105.0683082640427983
 30
0.0
 40
0.0056489684657043
 50
118.5295896598917977
 51
215.8554836070929071
  0
ARC
  5
B6B7
  8
0
 10
661.3762839472726682
 20
105.6553468581809057
 30
0.0
 40
0.0476120459237618
 50
290.9592990281116727
 51
348.0303274834461149
  0
ARC
  5
B6B8
  8
0
 10
661.3549632226844324
 20
105.6918749542781057
 30
0.0
 40
0.0896114911339507
 50
233.90432496590509
 51
295.3393279303369923
  0
ARC
  5
B6B9
  8
0
 10
661.3271240716918555
 20
105.6478253960627995
 30
0.0
 40
0.0377753450919853
 50
188.3465429309013075
 51
228.6548476345755034
  0
ARC
  5
B6BA
  8
0
 10
661.345593647533633
 20
105.6648884727258064
 30
0.0
 40
0.0592621013285987
 50
161.4608914065636043
 51
176.8079115054758859
  0
ARC
  5
B6BB
  8
0
 10
661.3629241084671548
 20
105.6444256389288938
 30
0.0
 40
0.0833648444273929
 50
71.9672750293261601
 51
151.8692213511006912
  0
ARC
  5
B6BC
  8
0
 10
661.3838313163129214
 20
105.6741390782607937
 30
0.0
 40
0.0497980958434391
 50
37.208090244080239
 51
84.3540057336604292
  0
ARC
  5
B6BD
  8
0
 10
661.3983577346559741
 20
105.6882507418662982
 30
0.0
 40
0.0297964205912824
 50
354.9894505194830003
 51
32.4822555897791574
  0
LINE
  5
B6BE
  8
0
 10
661.289748835571686
 20
105.6423419280200022
 30
0.0
 11
661.2864234935717604
 21
105.6681884021199949
 31
0.0
  0
LINE
  5
B6BF
  8
0
 10
661.4228607889716613
 20
105.6454724096199982
 30
0.0
 11
661.4280402922131543
 21
105.6856483474078061
 31
0.0
  0
ARC
  5
B6C0
  8
0
 10
661.3565457786896786
 20
105.6110115617059932
 30
0.0
 40
0.0312196650863434
 50
58.3722433552043114
 51
125.3727315405261038
  0
ARC
  5
B6C1
  8
0
 10
661.3426742273800301
 20
105.6320465113001035
 30
0.0
 40
0.0060993520423772
 50
133.5360462002821009
 51
245.6908059694131907
  0
ARC
  5
B6C2
  8
0
 10
661.3554153245096359
 20
105.6531405343124987
 30
0.0
 40
0.0307080253179962
 50
240.2196265854998956
 51
309.1376210905011135
  0
ARC
  5
B6C3
  8
0
 10
661.3702193047218998
 20
105.6326312458823935
 30
0.0
 40
0.0056489684657043
 50
324.1445163929071214
 51
61.4704103401081596
  0
ARC
  5
B6C4
  8
0
 10
661.457947023045449
 20
105.4505754575062042
 30
0.0
 40
0.0476120459237618
 50
290.9592990281116727
 51
348.0303274834461149
  0
ARC
  5
B6C5
  8
0
 10
661.4366262984573268
 20
105.4871035536034043
 30
0.0
 40
0.0896114911339507
 50
233.90432496590509
 51
295.3393279303369923
  0
ARC
  5
B6C6
  8
0
 10
661.40878714746475
 20
105.4430539953880981
 30
0.0
 40
0.0377753450919853
 50
188.3465429309013075
 51
228.6548476345755034
  0
ARC
  5
B6C7
  8
0
 10
661.4272567233065274
 20
105.460117072051105
 30
0.0
 40
0.0592621013285987
 50
161.4608914065636043
 51
176.8079115054758859
  0
ARC
  5
B6C8
  8
0
 10
661.4445871842400493
 20
105.4396542382542066
 30
0.0
 40
0.0833648444273929
 50
71.9672750293261601
 51
151.8692213511006912
  0
ARC
  5
B6C9
  8
0
 10
661.4654943920858159
 20
105.4693676775861064
 30
0.0
 40
0.0497980958434391
 50
37.208090244080239
 51
84.3540057336604292
  0
ARC
  5
B6CA
  8
0
 10
661.4800208104288686
 20
105.4834793411915967
 30
0.0
 40
0.0297964205912824
 50
354.9894505194830003
 51
32.4822555897791574
  0
LINE
  5
B6CB
  8
0
 10
661.3714119113445804
 20
105.4375705273453008
 30
0.0
 11
661.3680865693446549
 21
105.4634170014452934
 31
0.0
  0
LINE
  5
B6CC
  8
0
 10
661.5045238647445558
 20
105.4407010089452967
 30
0.0
 11
661.5097033679860488
 21
105.4808769467331047
 31
0.0
  0
ARC
  5
B6CD
  8
0
 10
661.4382088544625731
 20
105.406240161031306
 30
0.0
 40
0.0312196650863434
 50
58.3722433552043114
 51
125.3727315405261038
  0
ARC
  5
B6CE
  8
0
 10
661.4243373031529245
 20
105.427275110625402
 30
0.0
 40
0.0060993520423772
 50
133.5360462002821009
 51
245.6908059694131907
  0
ARC
  5
B6CF
  8
0
 10
661.4370784002825303
 20
105.4483691336377973
 30
0.0
 40
0.0307080253179962
 50
240.2196265854998956
 51
309.1376210905011135
  0
ARC
  5
B6D0
  8
0
 10
661.4518823804949079
 20
105.4278598452077063
 30
0.0
 40
0.0056489684657043
 50
324.1445163929071214
 51
61.4704103401081596
  0
ARC
  5
B6D1
  8
0
 10
661.5079386109273401
 20
105.2536980003185931
 30
0.0
 40
0.0476120459237618
 50
290.9592990281116727
 51
348.0303274834461149
  0
ARC
  5
B6D2
  8
0
 10
661.4866178863389905
 20
105.2902260964157932
 30
0.0
 40
0.0896114911339507
 50
233.90432496590509
 51
295.3393279303369923
  0
ARC
  5
B6D3
  8
0
 10
661.458778735346641
 20
105.2461765382005012
 30
0.0
 40
0.0377753450919853
 50
188.3465429309013075
 51
228.6548476345755034
  0
ARC
  5
B6D4
  8
0
 10
661.4772483111883048
 20
105.2632396148635934
 30
0.0
 40
0.0592621013285987
 50
161.4608914065636043
 51
176.8079115054758859
  0
ARC
  5
B6D5
  8
0
 10
661.4945787721218267
 20
105.242776781066695
 30
0.0
 40
0.0833648444273929
 50
71.9672750293261601
 51
151.8692213511006912
  0
ARC
  5
B6D6
  8
0
 10
661.5154859799675933
 20
105.2724902203984954
 30
0.0
 40
0.0497980958434391
 50
37.208090244080239
 51
84.3540057336604292
  0
ARC
  5
B6D7
  8
0
 10
661.5300123983106459
 20
105.2866018840039999
 30
0.0
 40
0.0297964205912824
 50
354.9894505194830003
 51
32.4822555897791574
  0
LINE
  5
B6D8
  8
0
 10
661.4214034992263578
 20
105.2406930701577039
 30
0.0
 11
661.4180781572264323
 21
105.2665395442576965
 31
0.0
  0
LINE
  5
B6D9
  8
0
 10
661.5545154526264469
 20
105.2438235517576999
 30
0.0
 11
661.5596949558678261
 21
105.2839994895454936
 31
0.0
  0
ARC
  5
B6DA
  8
0
 10
661.4882004423443504
 20
105.2093627038437944
 30
0.0
 40
0.0312196650863434
 50
58.3722433552043114
 51
125.3727315405261038
  0
ARC
  5
B6DB
  8
0
 10
661.4743288910347019
 20
105.2303976534378052
 30
0.0
 40
0.0060993520423772
 50
133.5360462002821009
 51
245.6908059694131907
  0
ARC
  5
B6DC
  8
0
 10
661.4870699881643077
 20
105.2514916764502004
 30
0.0
 40
0.0307080253179962
 50
240.2196265854998956
 51
309.1376210905011135
  0
ARC
  5
B6DD
  8
0
 10
661.501873968376799
 20
105.2309823880200952
 30
0.0
 40
0.0056489684657043
 50
324.1445163929071214
 51
61.4704103401081596
  0
ARC
  5
B6DE
  8
0
 10
661.2298327334109445
 20
105.8601562997342
 30
0.0
 40
0.0487773455944471
 50
189.3767628392745053
 51
246.1855382793920057
  0
ARC
  5
B6DF
  8
0
 10
661.2492103424397101
 20
105.9040612039409979
 30
0.0
 40
0.0967683066711723
 50
246.1855382793920057
 51
267.5034083780042238
  0
ARC
  5
B6E0
  8
0
 10
661.2481657061309761
 20
105.8801023931606977
 30
0.0
 40
0.0727867329317315
 50
267.5034083780042238
 51
310.7555266059121095
  0
ARC
  5
B6E1
  8
0
 10
661.2666247154403436
 20
105.8586838365054064
 30
0.0
 40
0.0445114859145948
 50
310.7555266059121095
 51
356.484708905365494
  0
ARC
  5
B6E2
  8
0
 10
661.227762455535867
 20
105.8865323413166948
 30
0.0
 40
0.0500600727762269
 50
163.7413375975675081
 51
184.8547297100836033
  0
ARC
  5
B6E3
  8
0
 10
661.2357843484824116
 20
105.8841928568441944
 30
0.0
 40
0.0584161456602764
 50
111.631786355846998
 51
163.7413375975683039
  0
ARC
  5
B6E4
  8
0
 10
661.2438186033766669
 20
105.8639334901010045
 30
0.0
 40
0.0802104383200977
 50
34.8395686447445527
 51
111.6317863558472965
  0
ARC
  5
B6E5
  8
0
 10
661.2643995485408368
 20
105.8877330737654034
 30
0.0
 40
0.0503266749339202
 50
352.7482846724365118
 51
25.9510090298300398
  0
LINE
  5
B6E6
  8
0
 10
661.3110524516698661
 20
105.8559546183287949
 30
0.0
 11
661.3143236690116282
 21
105.8813804046317983
 31
0.0
  0
LINE
  5
B6E7
  8
0
 10
661.181707135111651
 20
105.8522092102318055
 30
0.0
 11
661.1778819745508144
 21
105.8822957739483996
 31
0.0
  0
ARC
  5
B6E8
  8
0
 10
661.2455748720542488
 20
105.8190531222407031
 30
0.0
 40
0.0312196650863434
 50
58.3722433552043114
 51
125.3727315405261038
  0
ARC
  5
B6E9
  8
0
 10
661.2317033207447139
 20
105.8400880718347992
 30
0.0
 40
0.0060993520423772
 50
133.5360462002821009
 51
245.6908059694131907
  0
ARC
  5
B6EA
  8
0
 10
661.2444444178740923
 20
105.8611820948471944
 30
0.0
 40
0.0307080253179962
 50
240.2196265854998956
 51
309.1376210905011135
  0
ARC
  5
B6EB
  8
0
 10
661.2592483980866973
 20
105.8406728064171034
 30
0.0
 40
0.0056489684657043
 50
324.1445163929071214
 51
61.4704103401081596
  0
ARC
  5
B6EC
  8
0
 10
661.5609925349530158
 20
104.7206570812676034
 30
0.0
 40
0.0402703849329144
 50
299.2325571385800913
 51
353.7687739868767949
  0
ARC
  5
B6ED
  8
0
 10
661.5375813313014532
 20
104.7624906616574947
 30
0.0
 40
0.088209230399327
 50
273.6055978688987125
 51
299.2325571385800913
  0
ARC
  5
B6EE
  8
0
 10
661.5363255200680896
 20
104.782420138108094
 30
0.0
 40
0.1081782337157002
 50
246.9275138277656083
 51
273.6055978688987125
  0
ARC
  5
B6EF
  8
0
 10
661.5094853176611878
 20
104.7194103370545974
 30
0.0
 40
0.0396900486467731
 50
190.2956012253175118
 51
246.9275138277656083
  0
ARC
  5
B6F0
  8
0
 10
661.5068130333464751
 20
104.7210676255132995
 30
0.0
 40
0.0468829324737834
 50
101.0685749329601038
 51
149.8387662142814065
  0
ARC
  5
B6F1
  8
0
 10
661.5390803128667585
 20
104.607142053723905
 30
0.0
 40
0.1651747587339985
 50
70.7746499395318693
 51
104.4683230959727069
  0
ARC
  5
B6F2
  8
0
 10
661.5827699578634338
 20
104.741924600759603
 30
0.0
 40
0.0237297672812036
 50
18.5462377273326915
 51
63.1983367263056124
  0
LINE
  5
B6F3
  8
0
 10
661.6010250007215063
 20
104.716286087429296
 30
0.0
 11
661.6052673738176964
 21
104.749472324296903
 31
0.0
  0
LINE
  5
B6F4
  8
0
 10
661.4704305999246117
 20
104.7123429538831942
 30
0.0
 11
661.4662773491971848
 21
104.7446232547320051
 31
0.0
  0
ARC
  5
B6F5
  8
0
 10
661.5358129905282567
 20
104.6794633162510024
 30
0.0
 40
0.0312196650863434
 50
58.3722433552043114
 51
125.3727315405261038
  0
ARC
  5
B6F6
  8
0
 10
661.5219414392186081
 20
104.700498265844999
 30
0.0
 40
0.0060993520423772
 50
133.5360462002821009
 51
245.6908059694131907
  0
ARC
  5
B6F7
  8
0
 10
661.5346825363481003
 20
104.7215922888573942
 30
0.0
 40
0.0307080253179962
 50
240.2196265854998956
 51
309.1376210905011135
  0
ARC
  5
B6F8
  8
0
 10
661.5494865165604779
 20
104.7010830004273032
 30
0.0
 40
0.0056489684657043
 50
324.1445163929071214
 51
61.4704103401081596
  0
ARC
  5
B6F9
  8
0
 10
661.200520413411482
 20
108.7915819519817973
 30
0.0
 40
1.370078740149999
 50
297.140764829215982
 51
242.8592351707841033
  0
LINE
  5
B6FA
  8
0
 10
660.5755204134115957
 20
107.4346992681228983
 30
0.0
 11
660.5755204134115957
 21
108.7915819519817973
 31
0.0
  0
ARC
  5
B6FB
  8
0
 10
661.2221324689649009
 20
105.7842710569807991
 30
0.0
 40
1.3478285319293399
 50
90.9187612588890062
 51
103.1682951426895016
  0
ARC
  5
B6FC
  8
0
 10
661.1178208873823223
 20
106.3346886518629049
 30
0.0
 40
0.7884806410572527
 50
104.8996871028963938
 51
126.7726822084455023
  0
ARC
  5
B6FD
  8
0
 10
660.8897417743747837
 20
106.6398715425294057
 30
0.0
 40
0.4074863122990545
 50
126.7726822084455023
 51
168.8183162592692099
  0
LINE
  5
B6FE
  8
0
 10
660.4899932135116387
 20
106.718891460331804
 30
0.0
 11
660.4675148857372733
 21
106.5796462494935071
 31
0.0
  0
ARC
  5
B6FF
  8
0
 10
661.2214451054396704
 20
106.5219886094248949
 30
0.0
 40
1.2676460565001939
 50
90.9458089548538453
 51
100.9339829784832006
  0
ARC
  5
B700
  8
0
 10
661.141277583408737
 20
107.0076567562792036
 30
0.0
 40
0.7757044330215818
 50
101.9244071713604995
 51
124.7356250439631964
  0
ARC
  5
B701
  8
0
 10
660.8727219646972344
 20
107.3949855390581973
 30
0.0
 40
0.3043810765978296
 50
124.7356250439631964
 51
157.9741077070657127
  0
ARC
  5
B702
  8
0
 10
660.7817965588432116
 20
107.431769593434197
 30
0.0
 40
0.2062969490028819
 50
157.9741077070657127
 51
179.1863009197282111
  0
ARC
  5
B703
  8
0
 10
660.8301920348118301
 20
107.4408666372581962
 30
0.0
 40
0.2547462878800649
 50
181.3872577024800989
 51
230.7533833398535137
  0
ARC
  5
B704
  8
0
 10
661.200520413411482
 20
108.7915819519318035
 30
0.0
 40
0.6249999999999992
 50
0.0000000045840699
 51
179.9999999954158909
  0
ARC
  5
B705
  8
0
 10
661.200520413411482
 20
108.7915819519817973
 30
0.0
 40
0.6456692912685165
 50
345.4634690503646084
 51
194.5365309496378075
  0
ARC
  5
B706
  8
0
 10
661.1986679385397565
 20
106.8344314916834037
 30
0.0
 40
0.9095752814941169
 50
89.8833092022741056
 51
103.690141477471002
  0
ARC
  5
B707
  8
0
 10
661.1419480803236866
 20
107.0672798124401055
 30
0.0
 40
0.6699182707574242
 50
103.690141477471002
 51
121.5154657199958024
  0
ARC
  5
B708
  8
0
 10
660.9678884929015794
 20
107.3511472218286968
 30
0.0
 40
0.3369356194277858
 50
121.5154657199958024
 51
145.2147979232751993
  0
ARC
  5
B709
  8
0
 10
660.8546411127753117
 20
107.4298128319406942
 30
0.0
 40
0.199047087200521
 50
145.2147979232751993
 51
201.1677983574300868
  0
LINE
  5
B70A
  8
0
 10
660.6690243504116324
 20
106.989350530232997
 30
0.0
 11
660.6690243504116324
 21
107.501688839430102
 31
0.0
  0
ARC
  5
B70B
  8
0
 10
658.0780860792663134
 20
104.0652416875886956
 30
0.0
 40
4.021260353889355
 50
48.9217993575001202
 51
49.1280299615417704
  0
ARC
  5
B70C
  8
0
 10
660.7179605801889011
 20
107.093711879917393
 30
0.0
 40
0.0037276425794781
 50
283.0195883756903186
 51
48.9217993575017189
  0
ARC
  5
B70D
  8
0
 10
660.6255068855183481
 20
107.3866032375544961
 30
0.0
 40
0.3108531244295944
 50
283.6251263892975203
 51
287.4648559171528177
  0
ARC
  5
B70E
  8
0
 10
660.7015294713723961
 20
107.0759305783048063
 30
0.0
 40
0.0090121429407417
 50
108.0703939307634016
 51
155.4046062513791924
  0
ARC
  5
B70F
  8
0
 10
660.6971255870961386
 20
107.0798371109429041
 30
0.0
 40
0.0037937757457689
 50
182.3507621319002112
 51
228.3027104258914051
  0
ARC
  5
B710
  8
0
 10
661.0871174085356188
 20
107.468364521286702
 30
0.0
 40
0.5542843047291455
 50
224.9155546970089006
 51
226.3219348774132129
  0
ARC
  5
B711
  8
0
 10
660.6999242427654053
 20
107.0651188889240046
 30
0.0
 40
0.0049987256748315
 50
282.7743405605758085
 51
28.2984092758653283
  0
ARC
  5
B712
  8
0
 10
660.2094217999822376
 20
108.495856599087503
 30
0.0
 40
1.517452471284638
 50
288.2594201299287988
 51
288.9031302614557148
  0
ARC
  5
B713
  8
0
 10
660.6859212287500895
 20
107.0485473488201933
 30
0.0
 40
0.0063517217568657
 50
99.5271488606163501
 51
160.7070911663275012
  0
ARC
  5
B714
  8
0
 10
660.6839174286952812
 20
107.0502821096918069
 30
0.0
 40
0.0040077696220892
 50
174.7914135881098048
 51
235.7245323198636129
  0
ARC
  5
B715
  8
0
 10
660.4191394145977938
 20
106.7071827563224957
 30
0.0
 40
0.4293865914992014
 50
50.1838333091860207
 51
52.3102128237549735
  0
ARC
  5
B716
  8
0
 10
660.6900203828237181
 20
107.0350610211627043
 30
0.0
 40
0.0045034365071652
 50
282.9923393449213904
 51
25.4440898414165915
  0
ARC
  5
B717
  8
0
 10
659.8142010515487073
 20
109.0957785121893977
 30
0.0
 40
2.2435452538064058
 50
292.5760755118697034
 51
293.0057937648019788
  0
ARC
  5
B718
  8
0
 10
660.6780864244964278
 20
107.0180816507274955
 30
0.0
 40
0.0065931157055748
 50
112.9079326832520991
 51
164.1369285402234937
  0
ARC
  5
B719
  8
0
 10
660.6756328861318934
 20
107.0199197748599005
 30
0.0
 40
0.003888662552356
 50
180.5299404614692946
 51
247.1580836253847906
  0
ARC
  5
B71A
  8
0
 10
659.7086117052195959
 20
105.4824450415715944
 30
0.0
 40
1.8124663850437519
 50
57.3289147634871128
 51
57.8115315362278324
  0
ARC
  5
B71B
  8
0
 10
660.6838663191385876
 20
107.0046605317747037
 30
0.0
 40
0.0046954943364936
 50
301.836176646802187
 51
47.9823626743345812
  0
ARC
  5
B71C
  8
0
 10
676.3788190423379092
 20
76.6777312386427781
 30
0.0
 40
34.1428543211182784
 50
117.3620929173854961
 51
117.3890666623375978
  0
ARC
  5
B71D
  8
0
 10
660.6740463117962463
 20
106.9886038601011933
 30
0.0
 40
0.0050771657876171
 50
112.9149829329078045
 51
171.5431600226328896
  0
ARC
  5
B71E
  8
0
 10
660.6735335014312795
 20
106.989851258548498
 30
0.0
 40
0.0045368680569031
 50
186.3365710311705925
 51
257.6853609097469757
  0
ARC
  5
B71F
  8
0
 10
661.2007061931850558
 20
107.2791638582988014
 30
0.0
 40
0.0150414369781774
 50
90.7076895387161244
 51
117.8951820159042967
  0
ARC
  5
B720
  8
0
 10
661.2777544057740897
 20
107.145877814855794
 30
0.0
 40
0.1689851474551467
 50
119.8407271547541058
 51
125.0188259119896941
  0
ARC
  5
B721
  8
0
 10
661.1738882517279308
 20
107.2969226215111007
 30
0.0
 40
0.0144088312620484
 50
244.7693051521048062
 51
298.5881693022249124
  0
ARC
  5
B722
  8
0
 10
659.4734363768496905
 20
104.0292989802838974
 30
0.0
 40
3.669201333110093
 50
62.4989211592234994
 51
62.7499189332485514
  0
ARC
  5
B723
  8
0
 10
661.1474863790683685
 20
107.2772381308260066
 30
0.0
 40
0.0152641443192523
 50
66.9101915501309747
 51
120.6930499968374022
  0
ARC
  5
B724
  8
0
 10
661.5424892417503315
 20
106.764373142979295
 30
0.0
 40
0.6625025215956166
 50
127.4442389885513052
 51
128.676432983267091
  0
ARC
  5
B725
  8
0
 10
661.1209105410659959
 20
107.2936149048401973
 30
0.0
 40
0.0142154015621269
 50
247.9600116499335059
 51
302.1596069893114986
  0
ARC
  5
B726
  8
0
 10
661.0311847617524563
 20
107.1013091515769986
 30
0.0
 40
0.1980130603925363
 50
64.7739222740922429
 51
69.6442090770741515
  0
ARC
  5
B727
  8
0
 10
661.0947307563848199
 20
107.2745715501428947
 30
0.0
 40
0.0134841323191928
 50
66.7045729976712636
 51
126.8437502442320977
  0
ARC
  5
B728
  8
0
 10
620.7464803194739034
 20
148.5013094488799084
 30
0.0
 40
57.6722045847164608
 50
314.3711473990741183
 51
314.3847587404711135
  0
ARC
  5
B729
  8
0
 10
661.0692570235487437
 20
107.2839219355819012
 30
0.0
 40
0.0111345812606363
 50
243.511741030988901
 51
313.0133711149860005
  0
ARC
  5
B72A
  8
0
 10
660.4428098958584314
 20
105.4527283975232024
 30
0.0
 40
1.9243464516908499
 50
71.1581603972381345
 51
71.6792895528966909
  0
ARC
  5
B72B
  8
0
 10
661.0431651064941434
 20
107.267339309885898
 30
0.0
 40
0.0130102408418812
 50
69.5980357270768621
 51
130.9656987420543999
  0
ARC
  5
B72C
  8
0
 10
662.3038199217379542
 20
106.2594214833854949
 30
0.0
 40
1.626845919632214
 50
141.27434380566811
 51
141.7259266900859984
  0
ARC
  5
B72D
  8
0
 10
661.0180637431579953
 20
107.2772388854171055
 30
0.0
 40
0.0132665682803114
 50
248.3147394624425033
 51
310.3517615896701045
  0
ARC
  5
B72E
  8
0
 10
660.6451029872365552
 20
106.3194921607078953
 30
0.0
 40
1.014536533787612
 50
68.7286675460505165
 51
69.6973628578032418
  0
ARC
  5
B72F
  8
0
 10
661.1430343834873611
 20
106.6322635815741933
 30
0.0
 40
0.6551882999193936
 50
102.8675117645118036
 51
119.0451241150519053
  0
ARC
  5
B730
  8
0
 10
660.9999505203719536
 20
106.8842121659830013
 30
0.0
 40
0.3654688866472143
 50
118.6110633520936943
 51
142.6347598692869099
  0
ARC
  5
B731
  8
0
 10
661.1959390319196928
 20
106.5823988020008954
 30
0.0
 40
0.6519786873240058
 50
89.5973856367203751
 51
117.2085311516390931
  0
ARC
  5
B732
  8
0
 10
661.0165251547200569
 20
106.9313726313584993
 30
0.0
 40
0.2595859339399078
 50
117.2085311516390931
 51
152.8798224399351966
  0
ARC
  5
B733
  8
0
 10
661.1981767923983853
 20
106.5443900002661053
 30
0.0
 40
0.6491650518158902
 50
89.7931498558740913
 51
107.3275807924134
  0
ARC
  5
B734
  8
0
 10
661.1317410067019864
 20
106.7573296679722006
 30
0.0
 40
0.4261022451809337
 50
107.3275807924134
 51
131.6332435306815114
  0
LINE
  5
B735
  8
0
 10
661.1807830296115753
 20
107.2842704890317975
 30
0.0
 11
661.1807830296115753
 21
107.7438309213828944
 31
0.0
  0
LINE
  5
B736
  8
0
 10
661.167746286111651
 20
107.2838884097318015
 30
0.0
 11
661.167746286111651
 21
107.7434810195509982
 31
0.0
  0
LINE
  5
B737
  8
0
 10
661.1534725719116068
 20
107.2912794839318025
 30
0.0
 11
661.1534725719116068
 21
107.7428832358835962
 31
0.0
  0
LINE
  5
B738
  8
0
 10
661.139694970402843
 20
107.2903639851906945
 30
0.0
 11
661.139694970402843
 21
107.7420929824023972
 31
0.0
  0
LINE
  5
B739
  8
0
 10
661.1284771091114862
 20
107.2815805918317977
 30
0.0
 11
661.1284771091114862
 21
107.741294458271696
 31
0.0
  0
LINE
  5
B73A
  8
0
 10
661.1155761603115479
 20
107.2804383338317962
 30
0.0
 11
661.1155761603115479
 21
107.7402035099617024
 31
0.0
  0
LINE
  5
B73B
  8
0
 10
661.1033401431401444
 20
107.2857075599835071
 30
0.0
 11
661.1033401431401444
 21
107.7389975777873019
 31
0.0
  0
LINE
  5
B73C
  8
0
 10
661.0852066448907181
 20
107.2839546076904043
 30
0.0
 11
661.0852066448907181
 21
107.7369023929033034
 31
0.0
  0
LINE
  5
B73D
  8
0
 10
661.0768526899074686
 20
107.2757803907396976
 30
0.0
 11
661.0768526899074686
 21
107.7358127860897952
 31
0.0
  0
LINE
  5
B73E
  8
0
 10
661.0642908398116333
 20
107.2739561983318026
 30
0.0
 11
661.0642908398116333
 21
107.7340258380654063
 31
0.0
  0
LINE
  5
B73F
  8
0
 10
661.0458981196271679
 20
107.2800592550893981
 30
0.0
 11
661.0458981196271679
 21
107.7310855917322954
 31
0.0
  0
LINE
  5
B740
  8
0
 10
661.0346355003609915
 20
107.2771633714684043
 30
0.0
 11
661.0346355003609915
 21
107.7290937474705999
 31
0.0
  0
LINE
  5
B741
  8
0
 10
661.0266535611244763
 20
107.2671286499480061
 30
0.0
 11
661.0266535611244763
 21
107.7275934292218977
 31
0.0
  0
LINE
  5
B742
  8
0
 10
661.0131616437115554
 20
107.264911223231806
 30
0.0
 11
661.0131616437115554
 21
107.7248890186235002
 31
0.0
  0
LINE
  5
B743
  8
0
 10
660.9971256758115032
 20
107.2709985480317982
 30
0.0
 11
660.9971256758115032
 21
107.7213970541713053
 31
0.0
  0
LINE
  5
B744
  8
0
 10
661.193668974211505
 20
107.2924575551318043
 30
0.0
 11
661.193668974211505
 21
107.7439930360885967
 31
0.0
  0
LINE
  5
B745
  8
0
 10
660.7094820792116252
 20
107.1060129590318013
 30
0.0
 11
660.7094820792116252
 21
107.5673687216916932
 31
0.0
  0
LINE
  5
B746
  8
0
 10
660.6987340377012288
 20
107.0844982075552991
 30
0.0
 11
660.6987340377012288
 21
107.5538329166492986
 31
0.0
  0
LINE
  5
B747
  8
0
 10
660.6933350040114874
 20
107.0796815015325052
 30
0.0
 11
660.6933350040114874
 21
107.5464572148588047
 31
0.0
  0
LINE
  5
B748
  8
0
 10
660.6848699239939151
 20
107.054811463090104
 30
0.0
 11
660.6848699239939151
 21
107.5337237860445043
 31
0.0
  0
LINE
  5
B749
  8
0
 10
660.6799096590733598
 20
107.0502821096918069
 30
0.0
 11
660.6799096590733598
 21
107.5251473063462981
 31
0.0
  0
LINE
  5
B74A
  8
0
 10
660.6755200444116554
 20
107.0241547774319031
 30
0.0
 11
660.6755200444116554
 21
107.5166194318698984
 31
0.0
  0
LINE
  5
B74B
  8
0
 10
660.6717443899116233
 20
107.0198838083320965
 30
0.0
 11
660.6717443899116233
 21
107.5083528325054942
 31
0.0
  0
LINE
  5
B74C
  8
0
 10
660.6720694420115478
 20
106.9932803543318016
 30
0.0
 11
660.6720694420115478
 21
107.0183629953482978
 31
0.0
  0
ARC
  5
B74D
  8
0
 10
661.1967355664764909
 20
105.9285557370474038
 30
0.0
 40
1.2033765211192029
 50
76.0931499670946891
 51
89.8197936313287215
  0
ARC
  5
B74E
  8
0
 10
661.2832199394407553
 20
106.3346886518629049
 30
0.0
 40
0.7884806410572527
 50
53.2273177915544977
 51
75.1003128971036062
  0
ARC
  5
B74F
  8
0
 10
661.5112990524481802
 20
106.6398715425294057
 30
0.0
 40
0.4074863122990545
 50
11.1816837407307297
 51
53.2273177915544977
  0
LINE
  5
B750
  8
0
 10
661.9110476133115526
 20
106.718891460331804
 30
0.0
 11
661.933525941085918
 21
106.5796462494935071
 31
0.0
  0
ARC
  5
B751
  8
0
 10
661.1890791147312711
 20
106.613136740200602
 30
0.0
 40
1.1763808542998659
 50
78.6774667634211937
 51
89.4427413032497896
  0
ARC
  5
B752
  8
0
 10
661.2597632434144543
 20
107.0076567562792036
 30
0.0
 40
0.7757044330215818
 50
55.2643749560367823
 51
78.0755928286394436
  0
ARC
  5
B753
  8
0
 10
661.5283188621258432
 20
107.3949855390581973
 30
0.0
 40
0.3043810765978296
 50
22.0258922929343086
 51
55.2643749560367823
  0
ARC
  5
B754
  8
0
 10
661.6192442679799797
 20
107.431769593434197
 30
0.0
 40
0.2062969490028819
 50
0.8136990802717816
 51
22.0258922929343086
  0
ARC
  5
B755
  8
0
 10
661.5708487920112475
 20
107.4408666372581962
 30
0.0
 40
0.2547462878800649
 50
309.2466166601465147
 51
358.6127422975191053
  0
ARC
  5
B756
  8
0
 10
661.2023728882834348
 20
106.8344314916834037
 30
0.0
 40
0.9095752814941169
 50
76.309858522528998
 51
90.1166907977259086
  0
ARC
  5
B757
  8
0
 10
661.2590927464992774
 20
107.0672798124401055
 30
0.0
 40
0.6699182707574242
 50
58.4845342800041834
 51
76.309858522528998
  0
ARC
  5
B758
  8
0
 10
661.4331523339214982
 20
107.3511472218286968
 30
0.0
 40
0.3369356194277858
 50
34.7852020767247794
 51
58.4845342800046026
  0
ARC
  5
B759
  8
0
 10
661.5463997140477659
 20
107.4298128319406942
 30
0.0
 40
0.199047087200521
 50
338.8322016425698848
 51
34.7852020767247794
  0
LINE
  5
B75A
  8
0
 10
661.7320164764114452
 20
106.989350530232997
 30
0.0
 11
661.7320164764114452
 21
107.501688839430102
 31
0.0
  0
ARC
  5
B75B
  8
0
 10
664.3229547475569916
 20
104.0652416875886956
 30
0.0
 40
4.021260353889355
 50
130.871970038458187
 51
131.078200642499894
  0
ARC
  5
B75C
  8
0
 10
661.6830802466344039
 20
107.093711879917393
 30
0.0
 40
0.0037276425794781
 50
131.0782006424981887
 51
256.9804116243096814
  0
ARC
  5
B75D
  8
0
 10
661.7755339413048432
 20
107.3866032375544961
 30
0.0
 40
0.3108531244295944
 50
252.5351440828472107
 51
256.3748736107024797
  0
ARC
  5
B75E
  8
0
 10
661.6995113554507952
 20
107.0759305783048063
 30
0.0
 40
0.0090121429407417
 50
24.5953937486208005
 51
71.9296060692366126
  0
ARC
  5
B75F
  8
0
 10
661.7039152397270527
 20
107.0798371109429041
 30
0.0
 40
0.0037937757457689
 50
311.6972895741085949
 51
357.6492378680998172
  0
ARC
  5
B760
  8
0
 10
661.3139234182875725
 20
107.468364521286702
 30
0.0
 40
0.5542843047291455
 50
313.6780651225868155
 51
315.0844453029911278
  0
ARC
  5
B761
  8
0
 10
661.7011165840575586
 20
107.0651188889240046
 30
0.0
 40
0.0049987256748315
 50
151.7015907241346895
 51
257.2256594394241915
  0
ARC
  5
B762
  8
0
 10
662.1916190268409537
 20
108.495856599087503
 30
0.0
 40
1.517452471284638
 50
251.0968697385382029
 51
251.7405798700712012
  0
ARC
  5
B763
  8
0
 10
661.7151195980729881
 20
107.0485473488201933
 30
0.0
 40
0.0063517217568657
 50
19.2929088336724917
 51
80.4728511393836357
  0
ARC
  5
B764
  8
0
 10
661.7171233981276828
 20
107.0502821096918069
 30
0.0
 40
0.0040077696220892
 50
304.2754676801365008
 51
5.208586411890229
  0
ARC
  5
B765
  8
0
 10
661.9819014122253975
 20
106.7071827563224957
 30
0.0
 40
0.4293865914992014
 50
127.6897871762450052
 51
129.8161666908139864
  0
ARC
  5
B766
  8
0
 10
661.7110204439994732
 20
107.0350610211627043
 30
0.0
 40
0.0045034365071652
 50
154.5559101585834014
 51
257.0076606550786096
  0
ARC
  5
B767
  8
0
 10
662.5868397752744841
 20
109.0957785121893977
 30
0.0
 40
2.2435452538064058
 50
246.9942062351979075
 51
247.4239244881302966
  0
ARC
  5
B768
  8
0
 10
661.7229544023266499
 20
107.0180816507274955
 30
0.0
 40
0.0065931157055748
 50
15.8630714597765294
 51
67.0920673167479151
  0
ARC
  5
B769
  8
0
 10
661.7254079406912979
 20
107.0199197748599005
 30
0.0
 40
0.003888662552356
 50
292.8419163746152094
 51
359.4700595385306201
  0
ARC
  5
B76A
  8
0
 10
662.6924291216034817
 20
105.4824450415715944
 30
0.0
 40
1.8124663850437519
 50
122.1884684637721961
 51
122.6710852365128943
  0
ARC
  5
B76B
  8
0
 10
661.7171745076846037
 20
107.0046605317747037
 30
0.0
 40
0.0046954943364936
 50
132.0176373256653903
 51
238.163823353197813
  0
ARC
  5
B76C
  8
0
 10
646.0222217844853958
 20
76.6777312386427781
 30
0.0
 40
34.1428543211182784
 50
62.6109333376623525
 51
62.6379070826144186
  0
ARC
  5
B76D
  8
0
 10
661.726994515026945
 20
106.9886038601011933
 30
0.0
 40
0.0050771657876171
 50
8.4568399773670269
 51
67.0850170670922239
  0
ARC
  5
B76E
  8
0
 10
661.7275073253916844
 20
106.989851258548498
 30
0.0
 40
0.0045368680569031
 50
282.3146390902530243
 51
353.6634289688294075
  0
ARC
  5
B76F
  8
0
 10
661.2000526675819856
 20
107.2780577771964943
 30
0.0
 40
0.016153144402421
 50
63.0564715410037593
 51
88.3406569043681458
  0
ARC
  5
B770
  8
0
 10
661.1232864210489879
 20
107.145877814855794
 30
0.0
 40
0.1689851474551467
 50
54.9811740880102704
 51
60.1592728452458516
  0
ARC
  5
B771
  8
0
 10
661.2271525750951469
 20
107.2969226215111007
 30
0.0
 40
0.0144088312620484
 50
241.4118306977750876
 51
295.2306948478952222
  0
ARC
  5
B772
  8
0
 10
662.9276044499732734
 20
104.0292989802838974
 30
0.0
 40
3.669201333110093
 50
117.250081066751406
 51
117.5010788407765006
  0
ARC
  5
B773
  8
0
 10
661.2535544477545955
 20
107.2772381308260066
 30
0.0
 40
0.0152641443192523
 50
59.3069500031626333
 51
113.0898084498689968
  0
ARC
  5
B774
  8
0
 10
660.8585515850728598
 20
106.764373142979295
 30
0.0
 40
0.6625025215956166
 50
51.3235670167329232
 51
52.5557610114486167
  0
ARC
  5
B775
  8
0
 10
661.2801302857571955
 20
107.2936149048401973
 30
0.0
 40
0.0142154015621269
 50
237.8403930106885014
 51
292.0399883500666078
  0
ARC
  5
B776
  8
0
 10
661.3698560650706213
 20
107.1013091515769986
 30
0.0
 40
0.1980130603925363
 50
110.3557909229258058
 51
115.2260777259077003
  0
ARC
  5
B777
  8
0
 10
661.3063100704382578
 20
107.2745715501428947
 30
0.0
 40
0.0134841323191928
 50
53.156249755767881
 51
113.2954270023227963
  0
ARC
  5
B778
  8
0
 10
701.6545605073490606
 20
148.5013094488799084
 30
0.0
 40
57.6722045847164608
 50
225.6152412595288865
 51
225.6288526009259101
  0
ARC
  5
B779
  8
0
 10
661.3317838032743339
 20
107.2839219355819012
 30
0.0
 40
0.0111345812606363
 50
226.9866288850139995
 51
296.488258969011099
  0
ARC
  5
B77A
  8
0
 10
661.9582309309646462
 20
105.4527283975232024
 30
0.0
 40
1.9243464516908499
 50
108.3207104471032949
 51
108.8418396027617945
  0
ARC
  5
B77B
  8
0
 10
661.3578757203290479
 20
107.267339309885898
 30
0.0
 40
0.0130102408418812
 50
49.0343012579455291
 51
110.4019642729230952
  0
ARC
  5
B77C
  8
0
 10
660.0972209050852371
 20
106.2594214833854949
 30
0.0
 40
1.626845919632214
 50
38.2740733099140016
 51
38.7256561943318616
  0
ARC
  5
B77D
  8
0
 10
661.382977083665196
 20
107.2772388854171055
 30
0.0
 40
0.0132665682803114
 50
229.6482384103298955
 51
291.6852605375574967
  0
ARC
  5
B77E
  8
0
 10
661.7559378395866361
 20
106.3194921607078953
 30
0.0
 40
1.014536533787612
 50
110.3026371421967013
 51
111.2713324539494977
  0
ARC
  5
B77F
  8
0
 10
661.2580064433357165
 20
106.6322635815741933
 30
0.0
 40
0.6551882999193936
 50
60.9548758849480308
 51
77.1324882354881538
  0
ARC
  5
B780
  8
0
 10
661.401090306451124
 20
106.8842121659830013
 30
0.0
 40
0.3654688866472143
 50
37.3652401307130688
 51
61.3889366479062488
  0
ARC
  5
B781
  8
0
 10
661.2051017949033849
 20
106.5823988020008954
 30
0.0
 40
0.6519786873240058
 50
62.7914688483608572
 51
90.4026143632796391
  0
ARC
  5
B782
  8
0
 10
661.3845156721031344
 20
106.9313726313584993
 30
0.0
 40
0.2595859339399078
 50
27.1201775600647714
 51
62.7914688483608572
  0
ARC
  5
B783
  8
0
 10
661.2028640344248061
 20
106.5443900002661053
 30
0.0
 40
0.6491650518158902
 50
72.6724192075865716
 51
90.2068501441259372
  0
ARC
  5
B784
  8
0
 10
661.2692998201210912
 20
106.7573296679722006
 30
0.0
 40
0.4261022451809337
 50
48.3667564693185383
 51
72.6724192075865716
  0
LINE
  5
B785
  8
0
 10
661.220257797211616
 20
107.2842704890317975
 30
0.0
 11
661.220257797211616
 21
107.7438309213828944
 31
0.0
  0
LINE
  5
B786
  8
0
 10
661.233294540711654
 20
107.2838884097318015
 30
0.0
 11
661.233294540711654
 21
107.7434810195509982
 31
0.0
  0
LINE
  5
B787
  8
0
 10
661.2475682549114708
 20
107.2912794839318025
 30
0.0
 11
661.2475682549114708
 21
107.7428832358835962
 31
0.0
  0
LINE
  5
B788
  8
0
 10
661.2613458564203484
 20
107.2903639851906945
 30
0.0
 11
661.2613458564203484
 21
107.7420929824023972
 31
0.0
  0
LINE
  5
B789
  8
0
 10
661.2725637177114777
 20
107.2815805918317977
 30
0.0
 11
661.2725637177114777
 21
107.741294458271696
 31
0.0
  0
LINE
  5
B78A
  8
0
 10
661.2854646665116434
 20
107.2804383338317962
 30
0.0
 11
661.2854646665116434
 21
107.7402035099617024
 31
0.0
  0
LINE
  5
B78B
  8
0
 10
661.2977006836829332
 20
107.2857075599835071
 30
0.0
 11
661.2977006836829332
 21
107.7389975777873019
 31
0.0
  0
LINE
  5
B78C
  8
0
 10
661.3158341819324733
 20
107.2839546076904043
 30
0.0
 11
661.3158341819324733
 21
107.7369023929033034
 31
0.0
  0
LINE
  5
B78D
  8
0
 10
661.3241881369154953
 20
107.2757803907396976
 30
0.0
 11
661.3241881369154953
 21
107.7358127860897952
 31
0.0
  0
LINE
  5
B78E
  8
0
 10
661.3367499870114443
 20
107.2739561983318026
 30
0.0
 11
661.3367499870114443
 21
107.7340258380654063
 31
0.0
  0
LINE
  5
B78F
  8
0
 10
661.3551427071960234
 20
107.2800592550893981
 30
0.0
 11
661.3551427071960234
 21
107.7310855917322954
 31
0.0
  0
LINE
  5
B790
  8
0
 10
661.3664053264621998
 20
107.2771633714684043
 30
0.0
 11
661.3664053264621998
 21
107.7290937474705999
 31
0.0
  0
LINE
  5
B791
  8
0
 10
661.3743872656987151
 20
107.2671286499480061
 30
0.0
 11
661.3743872656987151
 21
107.7275934292218977
 31
0.0
  0
LINE
  5
B792
  8
0
 10
661.3878791831116359
 20
107.264911223231806
 30
0.0
 11
661.3878791831116359
 21
107.7248890186235002
 31
0.0
  0
LINE
  5
B793
  8
0
 10
661.4039151510114607
 20
107.2709985480317982
 30
0.0
 11
661.4039151510114607
 21
107.7213970541713053
 31
0.0
  0
LINE
  5
B794
  8
0
 10
661.207371852611459
 20
107.2924575551318043
 30
0.0
 11
661.207371852611459
 21
107.7439930360885967
 31
0.0
  0
LINE
  5
B795
  8
0
 10
661.6915587476114524
 20
107.1060129590318013
 30
0.0
 11
661.6915587476114524
 21
107.5673687216916932
 31
0.0
  0
LINE
  5
B796
  8
0
 10
661.7023067891218489
 20
107.0844982075552991
 30
0.0
 11
661.7023067891218489
 21
107.5538329166492986
 31
0.0
  0
LINE
  5
B797
  8
0
 10
661.7077058228114765
 20
107.0796815015325052
 30
0.0
 11
661.7077058228114765
 21
107.5464572148588047
 31
0.0
  0
LINE
  5
B798
  8
0
 10
661.7161709028292762
 20
107.054811463090104
 30
0.0
 11
661.7161709028292762
 21
107.5337237860445043
 31
0.0
  0
LINE
  5
B799
  8
0
 10
661.7211311677499452
 20
107.0502821096918069
 30
0.0
 11
661.7211311677499452
 21
107.5251473063462981
 31
0.0
  0
LINE
  5
B79A
  8
0
 10
661.7255207824115359
 20
107.0241547774319031
 30
0.0
 11
661.7255207824115359
 21
107.5166194318698984
 31
0.0
  0
LINE
  5
B79B
  8
0
 10
661.729296436911568
 20
107.0198838083320965
 30
0.0
 11
661.729296436911568
 21
107.5083528325054942
 31
0.0
  0
LINE
  5
B79C
  8
0
 10
661.7289713848116435
 20
106.9932803543318016
 30
0.0
 11
661.7289713848116435
 21
107.0183629953482978
 31
0.0
  0
LINE
  5
B79D
  8
0
 10
661.8255204134115957
 20
107.4346992681228983
 30
0.0
 11
661.8255204134115957
 21
108.7915819519817973
 31
0.0
  0
ENDSEC
  0
EOF
