  0
SECTION
  2
HEADER
  9
$ACADVER
  1
AC1009
  9
$INSBASE
 10
11333.6866244171396829
 20
3615.4787152076851271
 30
0.0
  9
$EXTMIN
 10
11300.2227175296102359
 20
3615.4737985655910961
 30
0.0
  9
$EXTMAX
 10
11367.1505313046800438
 20
3643.9022634237849161
 30
0.0
  9
$LIMMIN
 10
0.0
 20
0.0
  9
$LIMMAX
 10
11.6929133858000007
 20
8.2677165353999982
  9
$ORTHOMODE
 70
     0
  9
$REGENMODE
 70
     1
  9
$FILLMODE
 70
     1
  9
$QTEXTMODE
 70
     0
  9
$MIRRTEXT
 70
     0
  9
$DRAGMODE
 70
     2
  9
$LTSCALE
 40
0.6431102362
  9
$OSMODE
 70
  4063
  9
$ATTMODE
 70
     1
  9
$TEXTSIZE
 40
0.2
  9
$TRACEWID
 40
0.05
  9
$TEXTSTYLE
  7
STANDARD
  9
$CLAYER
  8
0
  9
$CELTYPE
  6
BYLAYER
  9
$CECOLOR
 62
   256
  9
$DIMSCALE
 40
1.0
  9
$DIMASZ
 40
0.1875
  9
$DIMEXO
 40
0.0625
  9
$DIMDLI
 40
0.4443307087
  9
$DIMRND
 40
0.0
  9
$DIMDLE
 40
0.0
  9
$DIMEXE
 40
0.125
  9
$DIMTP
 40
0.01
  9
$DIMTM
 40
0.01
  9
$DIMTXT
 40
2.0
  9
$DIMCEN
 40
0.1052362205
  9
$DIMTSZ
 40
0.0
  9
$DIMTOL
 70
     1
  9
$DIMLIM
 70
     0
  9
$DIMTIH
 70
     1
  9
$DIMTOH
 70
     1
  9
$DIMSE1
 70
     0
  9
$DIMSE2
 70
     0
  9
$DIMTAD
 70
     0
  9
$DIMZIN
 70
     0
  9
$DIMBLK
  1

  9
$DIMASO
 70
     1
  9
$DIMSHO
 70
     1
  9
$DIMPOST
  1
\X
  9
$DIMAPOST
  1

  9
$DIMALT
 70
     1
  9
$DIMALTD
 70
     2
  9
$DIMALTF
 40
25.3999999999999986
  9
$DIMLFAC
 40
1.0
  9
$DIMTOFL
 70
     0
  9
$DIMTVP
 40
0.0
  9
$DIMTIX
 70
     0
  9
$DIMSOXD
 70
     0
  9
$DIMSAH
 70
     0
  9
$DIMBLK1
  1

  9
$DIMBLK2
  1

  9
$DIMSTYLE
  2
STANDARD
  9
$DIMCLRD
 70
     0
  9
$DIMCLRE
 70
     0
  9
$DIMCLRT
 70
     0
  9
$DIMTFAC
 40
1.0
  9
$DIMGAP
 40
0.09
  9
$LUNITS
 70
     2
  9
$LUPREC
 70
     4
  9
$SKETCHINC
 40
0.1
  9
$FILLETRAD
 40
0.0
  9
$AUNITS
 70
     0
  9
$AUPREC
 70
     0
  9
$MENU
  1
.
  9
$ELEVATION
 40
0.0
  9
$PELEVATION
 40
0.0
  9
$THICKNESS
 40
0.0
  9
$LIMCHECK
 70
     0
  9
$BLIPMODE
 70
     0
  9
$CHAMFERA
 40
0.0
  9
$CHAMFERB
 40
0.0
  9
$SKPOLY
 70
     0
  9
$TDCREATE
 40
2458060.468368056230247
  9
$TDUPDATE
 40
2459390.6571759260259569
  9
$TDINDWG
 40
0.5915695602
  9
$TDUSRTIMER
 40
0.5915695602
  9
$USRTIMER
 70
     1
  9
$ANGBASE
 50
0.0
  9
$ANGDIR
 70
     0
  9
$PDMODE
 70
     0
  9
$PDSIZE
 40
0.3125
  9
$PLINEWID
 40
0.0
  9
$COORDS
 70
     1
  9
$SPLFRAME
 70
     0
  9
$SPLINETYPE
 70
     6
  9
$SPLINESEGS
 70
     8
  9
$ATTDIA
 70
     1
  9
$ATTREQ
 70
     1
  9
$HANDLING
 70
     1
  9
$HANDSEED
  5
E7F0
  9
$SURFTAB1
 70
     6
  9
$SURFTAB2
 70
     6
  9
$SURFTYPE
 70
     6
  9
$SURFU
 70
     6
  9
$SURFV
 70
     6
  9
$UCSNAME
  2

  9
$UCSORG
 10
0.0
 20
0.0
 30
0.0
  9
$UCSXDIR
 10
1.0
 20
0.0
 30
0.0
  9
$UCSYDIR
 10
0.0
 20
1.0
 30
0.0
  9
$PUCSNAME
  2

  9
$PUCSORG
 10
0.0
 20
0.0
 30
0.0
  9
$PUCSXDIR
 10
1.0
 20
0.0
 30
0.0
  9
$PUCSYDIR
 10
0.0
 20
1.0
 30
0.0
  9
$USERI1
 70
     0
  9
$USERI2
 70
     0
  9
$USERI3
 70
     0
  9
$USERI4
 70
     0
  9
$USERI5
 70
     0
  9
$USERR1
 40
0.0
  9
$USERR2
 40
0.0
  9
$USERR3
 40
0.0
  9
$USERR4
 40
0.0
  9
$USERR5
 40
0.0
  9
$WORLDVIEW
 70
     1
  9
$SHADEDGE
 70
     3
  9
$SHADEDIF
 70
    70
  9
$TILEMODE
 70
     1
  9
$MAXACTVP
 70
    64
  9
$PLIMCHECK
 70
     0
  9
$PEXTMIN
 10
1.0000000000000000E+20
 20
1.0000000000000000E+20
 30
1.0000000000000000E+20
  9
$PEXTMAX
 10
-1.0000000000000000E+20
 20
-1.0000000000000000E+20
 30
-1.0000000000000000E+20
  9
$PLIMMIN
 10
0.0
 20
0.0
  9
$PLIMMAX
 10
12.0
 20
9.0
  9
$UNITMODE
 70
     0
  9
$VISRETAIN
 70
     1
  9
$PLINEGEN
 70
     0
  9
$PSLTSCALE
 70
     1
  0
ENDSEC
  0
SECTION
  2
TABLES
  0
TABLE
  2
VPORT
 70
     1
  0
VPORT
  2
*ACTIVE
 70
     0
 10
0.0
 20
0.0
 11
1.0
 21
1.0
 12
6518.693360513276275
 22
3382.5640936844079079
 13
0.0
 23
0.0
 14
1.0
 24
1.0
 15
0.0
 25
0.0
 16
0.0
 26
0.0
 36
9.5192988075487186
 17
4815.2983398437490905
 27
247.8086242675780966
 37
0.0
 40
31.9453162347549693
 41
2.1302631578947362
 42
50.0
 43
0.0
 44
0.0
 50
0.0
 51
0.0
 71
     0
 72
   100
 73
     1
 74
     1
 75
     0
 76
     0
 77
     0
 78
     0
  0
ENDTAB
  0
TABLE
  2
LTYPE
 70
     2
  0
LTYPE
  2
CONTINUOUS
 70
     0
  3
Solid line
 72
    65
 73
     0
 40
0.0
  0
LTYPE
  2
PHANTOM2
 70
     0
  3
___ _ _ ___ _ _ ___ _ _ ___ _ _
 72
    65
 73
     6
 40
1.25
 49
0.625
 49
-0.125
 49
0.125
 49
-0.125
 49
0.125
 49
-0.125
  0
ENDTAB
  0
TABLE
  2
LAYER
 70
     2
  0
LAYER
  2
0
 70
     0
 62
   255
  6
CONTINUOUS
  0
LAYER
  2
DEFPOINTS
 70
     0
 62
     7
  6
CONTINUOUS
  0
ENDTAB
  0
TABLE
  2
STYLE
 70
     1
  0
STYLE
  2
STANDARD
 70
     0
 40
0.0
 41
0.8
 50
0.0
 71
     0
 42
0.2
  3
txt
  4

  0
ENDTAB
  0
TABLE
  2
VIEW
 70
     0
  0
ENDTAB
  0
TABLE
  2
UCS
 70
     0
  0
ENDTAB
  0
TABLE
  2
APPID
 70
    10
  0
APPID
  2
ACAD
 70
     0
  0
APPID
  2
ACAD_MLEADERVER
 70
     0
  0
APPID
  2
ACAD_EXEMPT_FROM_CAD_STANDARDS
 70
     0
  0
APPID
  2
ACAD_NAV_VCDISPLAY
 70
     0
  0
APPID
  2
ACAECLAYERSTANDARD
 70
     0
  0
APPID
  2
ACCMTRANSPARENCY
 70
     0
  0
APPID
  2
ACAD_DSTYLE_DIMJAG
 70
     0
  0
APPID
  2
ACAD_DSTYLE_DIMTALN
 70
     0
  0
APPID
  2
ACDBATTR
 70
     0
  0
APPID
  2
ACADANNOTATIVE
 70
     0
  0
ENDTAB
  0
TABLE
  2
DIMSTYLE
 70
     2
  0
DIMSTYLE
  2
STANDARD
 70
     0
  3

  4

  5

  6

  7

 40
1.0
 41
0.1875
 42
0.0625
 43
0.38
 44
0.125
 45
0.0
 46
0.0
 47
0.01
 48
0.01
140
0.15625
141
0.09
142
0.0
143
25.3999999999999986
144
1.0
145
0.0
146
1.0
147
0.09
 71
     1
 72
     0
 73
     1
 74
     1
 75
     0
 76
     0
 77
     0
 78
     4
170
     0
171
     2
172
     0
173
     0
174
     0
175
     0
176
     0
177
     0
178
     0
  0
DIMSTYLE
  2
ANNOTATIVE
 70
     0
  3

  4

  5

  6

  7

 40
0.0
 41
0.18
 42
0.0625
 43
0.38
 44
0.18
 45
0.0
 46
0.0
 47
0.0
 48
0.0
140
0.18
141
0.09
142
0.0
143
25.3999999999999986
144
1.0
145
0.0
146
1.0
147
0.09
 71
     0
 72
     0
 73
     1
 74
     1
 75
     0
 76
     0
 77
     0
 78
     0
170
     0
171
     2
172
     0
173
     0
174
     0
175
     0
176
     0
177
     0
178
     0
  0
ENDTAB
  0
ENDSEC
  0
SECTION
  2
BLOCKS
  0
BLOCK
  8
0
  2
$MODEL_SPACE
 70
     0
 10
0.0
 20
0.0
 30
0.0
  3
$MODEL_SPACE
  1

  0
ENDBLK
  5
21
  8
0
  0
BLOCK
 67
     1
  8
0
  2
$PAPER_SPACE
 70
     0
 10
0.0
 20
0.0
 30
0.0
  3
$PAPER_SPACE
  1

  0
ENDBLK
  5
1D
 67
     1
  8
0
  0
BLOCK
  8
0
  2
_FILLED
 70
     0
 10
0.0
 20
0.0
 30
0.0
  3
_FILLED
  1

  0
SOLID
  5
D8EA
  8
0
  6
BYBLOCK
 62
     0
 10
0.0
 20
0.0
 30
0.0
 11
-1.0
 21
0.1666666667
 31
0.0
 12
-1.0
 22
-0.1666666667
 32
0.0
 13
-1.0
 23
-0.1666666667
 33
0.0
  0
ENDBLK
  5
D8EB
  8
0
  6
BYBLOCK
 62
     0
  0
ENDSEC
  0
SECTION
  2
ENTITIES
  0
ATTDEF
  5
3930
  8
DEFPOINTS
 10
11333.6760716774697357
 20
3615.477131898924199
 30
0.0
 40
0.001
  1
K-98154T-58
  3

  2
MODELNUMBER
 70
     0
1001
ACDBATTR
1070
     0
1070
     1
  0
ATTDEF
  5
3931
  8
DEFPOINTS
 10
11333.6760716774697357
 20
3615.4754652322581023
 30
0.0
 40
0.001
  1
COMFORTABLE
  3

  2
TRADENAME
 70
     0
1001
ACDBATTR
1070
     0
1070
     1
  0
ATTDEF
  5
3932
  8
DEFPOINTS
 10
11333.6760716774697357
 20
3615.4737985655910961
 30
0.0
 40
0.001
  1
BATH
  3

  2
PRODUCT
 70
     0
1001
ACDBATTR
1070
     0
1070
     1
  0
LINE
  5
E77F
  8
0
 10
11367.1119662221608451
 20
3639.4884733116368807
 30
0.0
 11
11364.5129129933193326
 21
3615.6946370803061654
 31
0.0
  0
ARC
  5
E780
  8
0
 10
11364.2765650542096409
 20
3615.7160261233871097
 30
0.0
 40
0.2373137996125755
 50
270.2824668155463996
 51
354.8289261058811235
  0
ARC
  5
E781
  8
0
 10
11193.278785970649551
 20
3615.777444296063095
 30
0.0
 40
109.5806372081028002
 50
359.9579625830994019
 51
12.4964857946946601
  0
ARC
  5
E782
  8
0
 10
11303.0961550428291957
 20
3615.7162535446600486
 30
0.0
 40
0.2375392024107642
 50
184.6380451152375883
 51
269.8453365463860791
  0
ARC
  5
E783
  8
0
 10
11363.0321089712197136
 20
3615.6825166567509768
 30
0.0
 40
0.6528148889293709
 50
344.4963538390676945
 51
0.6838476165170362
  0
ARC
  5
E784
  8
0
 10
11363.5960770770507224
 20
3615.5269195844771275
 30
0.0
 40
0.0677814659465763
 50
319.5436397386803264
 51
343.8090447332858162
  0
ARC
  5
E785
  8
0
 10
11363.6381347537699185
 20
3615.4914819542118494
 30
0.0
 40
0.0127895343199724
 50
273.420785975270519
 51
318.0857129433534283
  0
ARC
  5
E786
  8
0
 10
11305.6261609639404924
 20
3615.6788197094510906
 30
0.0
 40
0.8257564146400834
 50
179.8254935513899966
 51
192.1586135419628931
  0
ARC
  5
E787
  8
0
 10
11304.8544718337598169
 20
3615.5082958768398385
 30
0.0
 40
0.0357060094043859
 50
185.457540950329701
 51
235.9399167385840883
  0
ARC
  5
E788
  8
0
 10
-3107.0169977821751672
 20
5572.6871350448645899
 30
0.0
 40
14602.432993857530164
 50
352.298129043989718
 51
352.392345859192119
  0
ARC
  5
E789
  8
0
 10
11030.3645826928295719
 20
3578.3772233201380004
 30
0.0
 40
276.9595984032487195
 50
7.7407828106621626
 51
12.7472377869698708
  0
LINE
  5
E78A
  8
0
 10
11364.2777350007891073
 20
3615.4787152076851271
 30
0.0
 11
11303.0955138334993535
 21
3615.4787152076851271
 31
0.0
  0
LINE
  5
E78B
  8
0
 10
11367.1505313046800438
 20
3639.4884733116368807
 30
0.0
 11
11300.2227175296102359
 21
3639.4884733116368807
 31
0.0
  0
ARC
  5
E78C
  8
0
 10
11307.6912731721204182
 20
3633.9186299569219045
 30
0.0
 40
9.3167847662871281
 50
105.6816339996170058
 51
143.2854369266082983
  0
ARC
  5
E78D
  8
0
 10
11312.6639967230403272
 20
3615.6322456517518731
 30
0.0
 40
28.2670330173959314
 50
93.9094612562545166
 51
105.3673957854892933
  0
ARC
  5
E78E
  8
0
 10
11314.1082716312394041
 20
3561.2110557789710583
 30
0.0
 40
82.6912076448140567
 50
87.3818201628336908
 51
92.3367364487063043
  0
ARC
  5
E78F
  8
0
 10
11211.5297389246807143
 20
2097.1117875438858391
 30
0.0
 40
1550.3565131842110532
 50
84.6693593786064298
 51
86.0663680796591422
  0
ARC
  5
E790
  8
0
 10
11369.4961563683991699
 20
3783.7212755717860091
 30
0.0
 40
143.6354400148402135
 50
264.4331946527425998
 51
267.1222508338998978
  0
ARC
  5
E791
  8
0
 10
11308.542745787430249
 20
3631.6416421786520914
 30
0.0
 40
11.6708060470375408
 50
104.3785163228638027
 51
123.3851323347456059
  0
ARC
  5
E792
  8
0
 10
11307.8186458475593099
 20
3633.6855911453258159
 30
0.0
 40
9.5215467646844978
 50
69.4422887716455079
 51
90.5556577119959343
  0
ARC
  5
E793
  8
0
 10
11323.9226659184005257
 20
3676.2818963880131378
 30
0.0
 40
36.0173216788406805
 50
249.2501560166861054
 51
269.9763274795523103
  0
ARC
  5
E794
  8
0
 10
11327.8196985787908488
 20
-3696.2373431538781006
 30
0.0
 40
7336.5029638775476997
 50
89.7213119422912939
 51
90.0305508164514663
  0
ARC
  5
E795
  8
0
 10
11366.3635654919598892
 20
3639.4847746213849859
 30
0.0
 40
0.7869745044860228
 50
0.2692846084776459
 51
90.6582783169877189
  0
ARC
  5
E796
  8
0
 10
11496.7455276378896087
 20
589.8260677763860258
 30
0.0
 40
3053.2614002127579624
 50
92.4632151332585153
 51
92.5011204274583605
  0
ARC
  5
E797
  8
0
 10
11363.9653762100806489
 20
3945.3227083343940649
 30
0.0
 40
305.0603668619419864
 50
269.6843800869501138
 51
270.4487291754065268
  0
ARC
  5
E798
  8
0
 10
11307.8424492141803057
 20
3633.8063719046990627
 30
0.0
 40
9.401035698722179
 50
90.7078623995431457
 51
103.5203577538323998
  0
ENDSEC
  0
EOF
