  0
SECTION
  2
HEADER
  9
$ACADVER
  1
AC1009
  9
$INSBASE
 10
676.2109983476577781
 20
105.7885347597111974
 30
0.0
  9
$EXTMIN
 10
673.5889088274498135
 20
104.5408043828086022
 30
-0.0000000000000058
  9
$EXTMAX
 10
678.863483633595024
 20
112.967761905025597
 30
0.0000000000000104
  9
$LIMMIN
 10
0.0
 20
0.0
  9
$LIMMAX
 10
11.6929133858000007
 20
8.2677165353999982
  9
$ORTHOMODE
 70
     0
  9
$REGENMODE
 70
     1
  9
$FILLMODE
 70
     1
  9
$QTEXTMODE
 70
     0
  9
$MIRRTEXT
 70
     0
  9
$DRAGMODE
 70
     2
  9
$LTSCALE
 40
0.6431102362
  9
$OSMODE
 70
  4095
  9
$ATTMODE
 70
     1
  9
$TEXTSIZE
 40
0.2
  9
$TRACEWID
 40
0.05
  9
$TEXTSTYLE
  7
STANDARD
  9
$CLAYER
  8
0
  9
$CELTYPE
  6
BYLAYER
  9
$CECOLOR
 62
   256
  9
$DIMSCALE
 40
1.0
  9
$DIMASZ
 40
0.1875
  9
$DIMEXO
 40
0.0625
  9
$DIMDLI
 40
0.4443307087
  9
$DIMRND
 40
0.0
  9
$DIMDLE
 40
0.0
  9
$DIMEXE
 40
0.125
  9
$DIMTP
 40
0.01
  9
$DIMTM
 40
0.01
  9
$DIMTXT
 40
1.0
  9
$DIMCEN
 40
0.1052362205
  9
$DIMTSZ
 40
0.0
  9
$DIMTOL
 70
     1
  9
$DIMLIM
 70
     0
  9
$DIMTIH
 70
     0
  9
$DIMTOH
 70
     1
  9
$DIMSE1
 70
     0
  9
$DIMSE2
 70
     0
  9
$DIMTAD
 70
     0
  9
$DIMZIN
 70
     0
  9
$DIMBLK
  1

  9
$DIMASO
 70
     1
  9
$DIMSHO
 70
     1
  9
$DIMPOST
  1
\X
  9
$DIMAPOST
  1

  9
$DIMALT
 70
     1
  9
$DIMALTD
 70
     2
  9
$DIMALTF
 40
25.3999999999999986
  9
$DIMLFAC
 40
1.0
  9
$DIMTOFL
 70
     0
  9
$DIMTVP
 40
0.0
  9
$DIMTIX
 70
     0
  9
$DIMSOXD
 70
     0
  9
$DIMSAH
 70
     0
  9
$DIMBLK1
  1

  9
$DIMBLK2
  1

  9
$DIMSTYLE
  2
STANDARD
  9
$DIMCLRD
 70
     0
  9
$DIMCLRE
 70
     0
  9
$DIMCLRT
 70
     0
  9
$DIMTFAC
 40
1.0
  9
$DIMGAP
 40
0.09
  9
$LUNITS
 70
     2
  9
$LUPREC
 70
     4
  9
$SKETCHINC
 40
0.1
  9
$FILLETRAD
 40
0.0
  9
$AUNITS
 70
     0
  9
$AUPREC
 70
     0
  9
$MENU
  1
.
  9
$ELEVATION
 40
0.0
  9
$PELEVATION
 40
0.0
  9
$THICKNESS
 40
0.0
  9
$LIMCHECK
 70
     0
  9
$BLIPMODE
 70
     0
  9
$CHAMFERA
 40
0.0
  9
$CHAMFERB
 40
0.0
  9
$SKPOLY
 70
     0
  9
$TDCREATE
 40
2458172.5207638889551163
  9
$TDUPDATE
 40
2459104.3818749999627471
  9
$TDINDWG
 40
0.3818525694
  9
$TDUSRTIMER
 40
0.3818525694
  9
$USRTIMER
 70
     1
  9
$ANGBASE
 50
0.0
  9
$ANGDIR
 70
     0
  9
$PDMODE
 70
     0
  9
$PDSIZE
 40
0.3125
  9
$PLINEWID
 40
0.0
  9
$COORDS
 70
     1
  9
$SPLFRAME
 70
     0
  9
$SPLINETYPE
 70
     6
  9
$SPLINESEGS
 70
     8
  9
$ATTDIA
 70
     1
  9
$ATTREQ
 70
     1
  9
$HANDLING
 70
     1
  9
$HANDSEED
  5
BA0C
  9
$SURFTAB1
 70
     6
  9
$SURFTAB2
 70
     6
  9
$SURFTYPE
 70
     6
  9
$SURFU
 70
     6
  9
$SURFV
 70
     6
  9
$UCSNAME
  2

  9
$UCSORG
 10
0.0
 20
0.0
 30
0.0
  9
$UCSXDIR
 10
1.0
 20
0.0
 30
0.0
  9
$UCSYDIR
 10
0.0
 20
1.0
 30
0.0
  9
$PUCSNAME
  2

  9
$PUCSORG
 10
0.0
 20
0.0
 30
0.0
  9
$PUCSXDIR
 10
1.0
 20
0.0
 30
0.0
  9
$PUCSYDIR
 10
0.0
 20
1.0
 30
0.0
  9
$USERI1
 70
     0
  9
$USERI2
 70
     0
  9
$USERI3
 70
     0
  9
$USERI4
 70
     0
  9
$USERI5
 70
     0
  9
$USERR1
 40
0.0
  9
$USERR2
 40
0.0
  9
$USERR3
 40
0.0
  9
$USERR4
 40
0.0
  9
$USERR5
 40
0.0
  9
$WORLDVIEW
 70
     1
  9
$SHADEDGE
 70
     3
  9
$SHADEDIF
 70
    70
  9
$TILEMODE
 70
     1
  9
$MAXACTVP
 70
    64
  9
$PLIMCHECK
 70
     0
  9
$PEXTMIN
 10
1.0000000000000000E+20
 20
1.0000000000000000E+20
 30
1.0000000000000000E+20
  9
$PEXTMAX
 10
-1.0000000000000000E+20
 20
-1.0000000000000000E+20
 30
-1.0000000000000000E+20
  9
$PLIMMIN
 10
0.0
 20
0.0
  9
$PLIMMAX
 10
12.0
 20
9.0
  9
$UNITMODE
 70
     0
  9
$VISRETAIN
 70
     1
  9
$PLINEGEN
 70
     0
  9
$PSLTSCALE
 70
     1
  0
ENDSEC
  0
SECTION
  2
TABLES
  0
TABLE
  2
VPORT
 70
     1
  0
VPORT
  2
*ACTIVE
 70
     0
 10
0.0
 20
0.0
 11
1.0
 21
1.0
 12
209.4839945226923135
 22
19.6211360239873613
 13
0.0
 23
0.0
 14
1.0
 24
1.0
 15
0.0
 25
0.0
 16
0.0
 26
0.0
 36
24.1179433675886514
 17
466.74220170783002
 27
89.133147119929788
 37
0.0
 40
8.4797359618133878
 41
2.005224660397074
 42
50.0
 43
0.0
 44
0.0
 50
0.0
 51
0.0
 71
     0
 72
   100
 73
     1
 74
     1
 75
     0
 76
     0
 77
     0
 78
     0
  0
ENDTAB
  0
TABLE
  2
LTYPE
 70
     2
  0
LTYPE
  2
CONTINUOUS
 70
     0
  3
Solid line
 72
    65
 73
     0
 40
0.0
  0
LTYPE
  2
PHANTOM2
 70
     0
  3
___ _ _ ___ _ _ ___ _ _ ___ _ _
 72
    65
 73
     6
 40
1.25
 49
0.625
 49
-0.125
 49
0.125
 49
-0.125
 49
0.125
 49
-0.125
  0
ENDTAB
  0
TABLE
  2
LAYER
 70
     2
  0
LAYER
  2
0
 70
     0
 62
   255
  6
CONTINUOUS
  0
LAYER
  2
DEFPOINTS
 70
     0
 62
     7
  6
CONTINUOUS
  0
ENDTAB
  0
TABLE
  2
STYLE
 70
     1
  0
STYLE
  2
STANDARD
 70
     0
 40
0.0
 41
0.8
 50
0.0
 71
     0
 42
0.2
  3
txt
  4

  0
ENDTAB
  0
TABLE
  2
VIEW
 70
     0
  0
ENDTAB
  0
TABLE
  2
UCS
 70
     0
  0
ENDTAB
  0
TABLE
  2
APPID
 70
    11
  0
APPID
  2
ACAD
 70
     0
  0
APPID
  2
ACAD_MLEADERVER
 70
     0
  0
APPID
  2
ACAD_EXEMPT_FROM_CAD_STANDARDS
 70
     0
  0
APPID
  2
ACAD_DSTYLE_DIMJAG
 70
     0
  0
APPID
  2
ACAD_DSTYLE_DIMTALN
 70
     0
  0
APPID
  2
ACAD_NAV_VCDISPLAY
 70
     0
  0
APPID
  2
ACAECLAYERSTANDARD
 70
     0
  0
APPID
  2
ACCMTRANSPARENCY
 70
     0
  0
APPID
  2
DCO15
 70
     0
  0
APPID
  2
ACDBATTR
 70
     0
  0
APPID
  2
ACADANNOTATIVE
 70
     0
  0
ENDTAB
  0
TABLE
  2
DIMSTYLE
 70
     1
  0
DIMSTYLE
  2
STANDARD
 70
     0
  3

  4

  5

  6

  7

 40
1.0
 41
0.1875
 42
0.0625
 43
0.38
 44
0.125
 45
0.0
 46
0.0
 47
0.01
 48
0.01
140
0.15625
141
0.09
142
0.0
143
25.3999999999999986
144
1.0
145
0.0
146
1.0
147
0.09
 71
     1
 72
     0
 73
     1
 74
     1
 75
     0
 76
     0
 77
     0
 78
     4
170
     0
171
     2
172
     0
173
     0
174
     0
175
     0
176
     0
177
     0
178
     0
  0
ENDTAB
  0
ENDSEC
  0
SECTION
  2
BLOCKS
  0
BLOCK
  8
0
  2
$MODEL_SPACE
 70
     0
 10
0.0
 20
0.0
 30
0.0
  3
$MODEL_SPACE
  1

  0
ENDBLK
  5
21
  8
0
  0
BLOCK
 67
     1
  8
0
  2
$PAPER_SPACE
 70
     0
 10
0.0
 20
0.0
 30
0.0
  3
$PAPER_SPACE
  1

  0
ENDBLK
  5
1D
 67
     1
  8
0
  0
ENDSEC
  0
SECTION
  2
ENTITIES
  0
ATTDEF
  5
829
  8
DEFPOINTS
 10
676.2073145433447507
 20
105.7935139483440992
 30
0.0
 40
0.001
  1
K-98254T
  3

  2
MODELNUMBER
 70
     0
1001
ACDBATTR
1070
     0
1070
     1
  0
ATTDEF
  5
82A
  8
DEFPOINTS
 10
676.2073145433447507
 20
105.7918472816775051
 30
0.0
 40
0.001
  1
FAIRFAX
  3

  2
TRADENAME
 70
     0
1001
ACDBATTR
1070
     0
1070
     1
  0
ATTDEF
  5
82B
  8
DEFPOINTS
 10
676.2073145433447507
 20
105.7901806150107973
 30
0.0
 40
0.001
  1
TOILET TISSUE HOLDER
  3

  2
PRODUCT
 70
     0
1001
ACDBATTR
1070
     0
1070
     1
  0
LINE
  5
B945
  8
0
 10
678.7306867463079243
 20
112.9604062698112017
 30
0.0
 11
673.6913099490078594
 21
112.9604062698112017
 31
0.0
  0
LINE
  5
B946
  8
0
 10
678.7306867463079243
 20
112.7635554390111992
 30
0.0
 11
673.6913099490078594
 21
112.7635554390111992
 31
0.0
  0
LINE
  5
B947
  8
0
 10
678.2130279842568825
 20
107.2217538278111988
 30
0.0
 11
674.2089687110590148
 21
107.2217538278111988
 31
0.0
  0
LINE
  5
B948
  8
0
 10
678.6125581902077784
 20
107.8422955964112049
 30
0.0
 11
673.8094385051078916
 21
107.8422955964112049
 31
0.0
  0
LINE
  5
B949
  8
0
 10
677.1135304513909432
 20
106.8803935214111931
 30
0.0
 11
675.3084662439249541
 21
106.8803935214111931
 31
0.0
  0
LINE
  5
B94A
  8
0
 10
677.7008023580233385
 20
107.1705605274010935
 30
0.0
 11
674.7211943372924452
 21
107.1705605274010935
 31
0.0
  0
ARC
  5
B94B
  8
0
 10
678.7306867463079243
 20
112.8619808544112004
 30
0.0
 40
0.0984254153999995
 50
270.0
 51
90.0
  0
ARC
  5
B94C
  8
0
 10
673.6913099490078594
 20
112.8619808544112004
 30
0.0
 40
0.0984254153999995
 50
90.0
 51
270.0
  0
LINE
  5
B94D
  8
0
 10
678.6322581902079492
 20
107.8619955964112052
 30
0.0
 11
678.6322581902079492
 21
108.2255654889543024
 31
0.0
  0
LINE
  5
B94E
  8
0
 10
678.4448671242093951
 20
107.7357433955262991
 30
0.0
 11
678.4120680611780472
 21
107.4021822213586006
 31
0.0
  0
LINE
  5
B94F
  8
0
 10
677.8487051276083548
 20
107.2162533999113947
 30
0.0
 11
677.7628053860755699
 21
107.1823528111286947
 31
0.0
  0
ARC
  5
B950
  8
0
 10
678.5624104768079405
 20
107.7241853602111945
 30
0.0
 40
0.1181102361999986
 50
90.0
 51
174.3841602531009016
  0
ARC
  5
B951
  8
0
 10
678.2130279842568825
 20
107.4217538278112016
 30
0.0
 40
0.2
 50
270.0
 51
354.3841602581102848
  0
ARC
  5
B952
  8
0
 10
677.8774926392513862
 20
107.143680309476494
 30
0.0
 40
0.0780741588611252
 50
90.2320880611293035
 51
111.6367041588727034
  0
ARC
  5
B953
  8
0
 10
677.7008023580233385
 20
107.3394605274012008
 30
0.0
 40
0.1689
 50
270.0
 51
291.5368185032451152
  0
ARC
  5
B954
  8
0
 10
678.6125581902077784
 20
107.8619955964112052
 30
0.0
 40
0.0197
 50
270.0
 51
0.0000000000024427
  0
LINE
  5
B955
  8
0
 10
678.6322581902079492
 20
108.2255654889543024
 30
0.0
 11
678.5735113086329875
 21
112.7236712166453003
 31
0.0
  0
ARC
  5
B956
  8
0
 10
678.6128780300078915
 20
112.7241853602111945
 30
0.0
 40
0.0393700786999997
 50
90.0
 51
180.7482609829895068
  0
LINE
  5
B957
  8
0
 10
673.7897385051079482
 20
107.8619955964112052
 30
0.0
 11
673.7897385051079482
 21
108.2255654889543024
 31
0.0
  0
LINE
  5
B958
  8
0
 10
673.9771295711065022
 20
107.7357433955262991
 30
0.0
 11
674.0099286341376228
 21
107.4021822213586006
 31
0.0
  0
LINE
  5
B959
  8
0
 10
674.5732915677074288
 20
107.2162533999113947
 30
0.0
 11
674.6591913092402137
 21
107.1823528111286947
 31
0.0
  0
ARC
  5
B95A
  8
0
 10
673.8595862185079568
 20
107.7241853602111945
 30
0.0
 40
0.1181102361999986
 50
5.6158397468990771
 51
90.0
  0
ARC
  5
B95B
  8
0
 10
674.2089687110590148
 20
107.4217538278112016
 30
0.0
 40
0.2
 50
185.6158397418896868
 51
270.0
  0
ARC
  5
B95C
  8
0
 10
674.5445040560641701
 20
107.143680309476494
 30
0.0
 40
0.0780741588611252
 50
68.363295841127254
 51
89.767911938870725
  0
ARC
  5
B95D
  8
0
 10
674.7211943372924452
 20
107.3394605274012008
 30
0.0
 40
0.1689
 50
248.4631814967549985
 51
270.0
  0
ARC
  5
B95E
  8
0
 10
673.8094385051078916
 20
107.8619955964112052
 30
0.0
 40
0.0197
 50
179.9999999999974989
 51
270.0
  0
LINE
  5
B95F
  8
0
 10
673.7897385051079482
 20
108.2255654889543024
 30
0.0
 11
673.8484853866827962
 21
112.7236712166453003
 31
0.0
  0
ARC
  5
B960
  8
0
 10
673.8091186653078921
 20
112.7241853602111945
 30
0.0
 40
0.0393700786999997
 50
359.2517390170104932
 51
90.0
  0
ARC
  5
B961
  8
0
 10
677.5784546184802366
 20
106.3012040056070049
 30
0.0
 40
0.8695339815064101
 50
91.157581623027724
 51
100.2182246203767022
  0
ARC
  5
B962
  8
0
 10
677.457731902907426
 20
106.9773603037471048
 30
0.0
 40
0.1826896609741215
 50
100.5759674137143946
 51
112.8351061770969039
  0
ARC
  5
B963
  8
0
 10
677.424054003868946
 20
107.057339646724202
 30
0.0
 40
0.0959089247092147
 50
112.8351061770969039
 51
127.877668129201794
  0
ARC
  5
B964
  8
0
 10
677.3920411981284815
 20
107.098494989315796
 30
0.0
 40
0.0437689021237201
 50
127.877668129201794
 51
180.4422457057034137
  0
ARC
  5
B965
  8
0
 10
677.1135304513909432
 20
107.1157986350054045
 30
0.0
 40
0.2354051136046557
 50
270.0
 51
355.7021715245999189
  0
ARC
  5
B966
  8
0
 10
674.843542076835547
 20
106.3012040056070049
 30
0.0
 40
0.8695339815064101
 50
79.7817753796232836
 51
88.842418376972276
  0
ARC
  5
B967
  8
0
 10
674.9642647924083576
 20
106.9773603037471048
 30
0.0
 40
0.1826896609741215
 50
67.1648938229030676
 51
79.4240325862856054
  0
ARC
  5
B968
  8
0
 10
674.9979426914468377
 20
107.057339646724202
 30
0.0
 40
0.0959089247092147
 50
52.122331870798142
 51
67.1648938229030676
  0
ARC
  5
B969
  8
0
 10
675.0299554971871885
 20
107.098494989315796
 30
0.0
 40
0.0437689021237201
 50
359.557754294296501
 51
52.122331870798142
  0
ARC
  5
B96A
  8
0
 10
675.3084662439249541
 20
107.1157986350054045
 30
0.0
 40
0.2354051136046557
 50
184.2978284754001095
 51
270.0
  0
LINE
  5
B96B
  8
0
 10
676.4749631189953334
 20
106.6842027972111993
 30
0.0
 11
675.9470335763204503
 21
106.6842027972111993
 31
0.0
  0
ARC
  5
B96C
  8
0
 10
676.6942562461788384
 20
106.739005319247795
 30
0.0
 40
0.1414049539313817
 50
90.8819418070284684
 51
173.7313623649673957
  0
ARC
  5
B96D
  8
0
 10
676.4753148834009835
 20
106.7630553739871999
 30
0.0
 40
0.078853361389361
 50
269.744402999051772
 51
353.7313623649674241
  0
ARC
  5
B96E
  8
0
 10
675.7277404491369452
 20
106.739005319247795
 30
0.0
 40
0.1414049539313817
 50
6.2686376350326354
 51
89.1180581929715174
  0
ARC
  5
B96F
  8
0
 10
675.9466818119146865
 20
106.7630553739871999
 30
0.0
 40
0.078853361389361
 50
186.2686376350326043
 51
270.255597000948228
  0
LINE
  5
B970
  8
0
 10
676.4611216468383645
 20
105.7774974745227041
 30
0.0
 11
676.4611216468383645
 21
106.6842027972111993
 31
0.0
  0
LINE
  5
B971
  8
0
 10
675.9612990268688009
 20
105.7702663277936068
 30
0.0
 11
675.9612990268688009
 21
106.6842027972111993
 31
0.0
  0
ARC
  5
B972
  8
0
 10
676.210998347707914
 20
105.7885347597111974
 30
0.0
 40
0.2503667039209284
 50
184.1844025695774008
 51
357.473326670707479
  0
ARC
  5
B973
  8
0
 10
676.210998347707914
 20
105.7885347597111974
 30
0.0
 40
0.2559055118000003
 50
167.3557809453947982
 51
12.2029826458641004
  0
ARC
  5
B974
  8
0
 10
676.2109983476577781
 20
105.7885347597111974
 30
0.0
 40
1.24015748035
 50
118.3069976099733935
 51
61.6930023900266065
  0
ARC
  5
B975
  8
0
 10
676.2109983476577781
 20
105.7885347597111974
 30
0.0
 40
1.193249769179104
 50
113.7900805904171051
 51
66.2099194095828807
  0
ARC
  5
B976
  8
0
 10
676.2109983476577781
 20
105.7885347597111974
 30
0.0
 40
0.749634355761049
 50
109.4567265042001054
 51
70.5089018478604999
  0
ARC
  5
B977
  8
0
 10
676.2109983476577781
 20
105.7885347597111974
 30
0.0
 40
0.6350393701204258
 50
113.1539404650634992
 51
66.8044489083904409
  0
LINE
  5
B978
  8
0
 10
675.019401341828825
 20
108.2359990016556992
 30
0.0
 11
677.4405619558674516
 21
108.2359990016556992
 31
0.0
  0
LINE
  5
B979
  8
0
 10
677.4405619558674516
 20
108.2359990016556992
 30
0.0
 11
677.4111182944078564
 21
112.6651324976102018
 31
0.0
  0
LINE
  5
B97A
  8
0
 10
677.3609547591079263
 20
112.6651324034109933
 30
0.0
 11
677.3805832433151863
 21
108.2359990016556992
 31
0.0
  0
LINE
  5
B97B
  8
0
 10
675.0965504188079649
 20
112.665132426150393
 30
0.0
 11
675.07752802501102
 21
108.2359990016556992
 31
0.0
  0
LINE
  5
B97C
  8
0
 10
675.0479358388106448
 20
112.6651325218529962
 30
0.0
 11
675.019401341828825
 21
108.2359990016556992
 31
0.0
  0
ARC
  5
B97D
  8
0
 10
677.3009948292798299
 20
112.6670599060193041
 30
0.0
 40
0.0599909030711656
 50
358.1587745972178141
 51
72.2276823493727562
  0
ARC
  5
B97E
  8
0
 10
677.3491164101745881
 20
112.6661741170605069
 30
0.0
 40
0.0620106331169515
 50
359.0375327235557279
 51
69.3163910683205842
  0
ARC
  5
B97F
  8
0
 10
675.1575104838257175
 20
112.6668692964917966
 30
0.0
 40
0.0609848033982751
 50
109.9681230374259968
 51
181.6320262228668128
  0
ARC
  5
B980
  8
0
 10
675.1072693268356488
 20
112.6671087950275023
 30
0.0
 40
0.0593663916441441
 50
105.9564246798319971
 51
181.9076961403139023
  0
LINE
  5
B981
  8
0
 10
677.3710190134622735
 20
112.7241878618869038
 30
0.0
 11
675.0909491373971605
 21
112.7241878618869038
 31
0.0
  0
LINE
  5
B982
  8
0
 10
676.9393448501025432
 20
108.2359990016556992
 30
0.0
 11
676.9462168772079167
 21
108.6296971712112054
 31
0.0
  0
LINE
  5
B983
  8
0
 10
675.4757798182079114
 20
108.6296971712112054
 30
0.0
 11
676.9462168772079167
 21
108.6296971712112054
 31
0.0
  0
LINE
  5
B984
  8
0
 10
675.4826518453132849
 20
108.2359990016556992
 30
0.0
 11
675.4757798182079114
 21
108.6296971712112054
 31
0.0
  0
LINE
  5
B985
  8
0
 10
676.8440669564831751
 20
108.6296971712112054
 30
0.0
 11
676.9155365573703875
 21
112.7241878618869038
 31
0.0
  0
LINE
  5
B986
  8
0
 10
675.5779297388343139
 20
108.6296971712112054
 30
0.0
 11
675.5064601380455542
 21
112.7241878618869038
 31
0.0
  0
ENDSEC
  0
EOF
