  0
SECTION
  2
HEADER
  9
$ACADVER
  1
AC1009
  9
$INSBASE
 10
689.3814886835460811
 20
104.1608759051324
 30
0.0
  9
$EXTMIN
 10
682.8592752346405632
 20
102.9174580384568998
 30
-0.000000000000013
  9
$EXTMAX
 10
689.4009672240813416
 20
111.3391154527829059
 30
0.0000000000000023
  9
$LIMMIN
 10
0.0
 20
0.0
  9
$LIMMAX
 10
11.6929133858000007
 20
8.2677165353999982
  9
$ORTHOMODE
 70
     0
  9
$REGENMODE
 70
     1
  9
$FILLMODE
 70
     1
  9
$QTEXTMODE
 70
     0
  9
$MIRRTEXT
 70
     0
  9
$DRAGMODE
 70
     2
  9
$LTSCALE
 40
0.6431102362
  9
$OSMODE
 70
  4095
  9
$ATTMODE
 70
     1
  9
$TEXTSIZE
 40
0.2
  9
$TRACEWID
 40
0.05
  9
$TEXTSTYLE
  7
STANDARD
  9
$CLAYER
  8
0
  9
$CELTYPE
  6
BYLAYER
  9
$CECOLOR
 62
   256
  9
$DIMSCALE
 40
1.0
  9
$DIMASZ
 40
0.1875
  9
$DIMEXO
 40
0.0625
  9
$DIMDLI
 40
0.4443307087
  9
$DIMRND
 40
0.0
  9
$DIMDLE
 40
0.0
  9
$DIMEXE
 40
0.125
  9
$DIMTP
 40
0.01
  9
$DIMTM
 40
0.01
  9
$DIMTXT
 40
1.0
  9
$DIMCEN
 40
0.1052362205
  9
$DIMTSZ
 40
0.0
  9
$DIMTOL
 70
     1
  9
$DIMLIM
 70
     0
  9
$DIMTIH
 70
     0
  9
$DIMTOH
 70
     1
  9
$DIMSE1
 70
     0
  9
$DIMSE2
 70
     0
  9
$DIMTAD
 70
     0
  9
$DIMZIN
 70
     0
  9
$DIMBLK
  1

  9
$DIMASO
 70
     1
  9
$DIMSHO
 70
     1
  9
$DIMPOST
  1
\X
  9
$DIMAPOST
  1

  9
$DIMALT
 70
     1
  9
$DIMALTD
 70
     2
  9
$DIMALTF
 40
25.3999999999999986
  9
$DIMLFAC
 40
1.0
  9
$DIMTOFL
 70
     0
  9
$DIMTVP
 40
0.0
  9
$DIMTIX
 70
     0
  9
$DIMSOXD
 70
     0
  9
$DIMSAH
 70
     0
  9
$DIMBLK1
  1

  9
$DIMBLK2
  1

  9
$DIMSTYLE
  2
STANDARD
  9
$DIMCLRD
 70
     0
  9
$DIMCLRE
 70
     0
  9
$DIMCLRT
 70
     0
  9
$DIMTFAC
 40
1.0
  9
$DIMGAP
 40
0.09
  9
$LUNITS
 70
     2
  9
$LUPREC
 70
     4
  9
$SKETCHINC
 40
0.1
  9
$FILLETRAD
 40
0.0
  9
$AUNITS
 70
     0
  9
$AUPREC
 70
     0
  9
$MENU
  1
.
  9
$ELEVATION
 40
0.0
  9
$PELEVATION
 40
0.0
  9
$THICKNESS
 40
0.0
  9
$LIMCHECK
 70
     0
  9
$BLIPMODE
 70
     0
  9
$CHAMFERA
 40
0.0
  9
$CHAMFERB
 40
0.0
  9
$SKPOLY
 70
     0
  9
$TDCREATE
 40
2458172.5207638889551163
  9
$TDUPDATE
 40
2459104.3824999998323619
  9
$TDINDWG
 40
0.3857414583
  9
$TDUSRTIMER
 40
0.3857414583
  9
$USRTIMER
 70
     1
  9
$ANGBASE
 50
0.0
  9
$ANGDIR
 70
     0
  9
$PDMODE
 70
     0
  9
$PDSIZE
 40
0.3125
  9
$PLINEWID
 40
0.0
  9
$COORDS
 70
     1
  9
$SPLFRAME
 70
     0
  9
$SPLINETYPE
 70
     6
  9
$SPLINESEGS
 70
     8
  9
$ATTDIA
 70
     1
  9
$ATTREQ
 70
     1
  9
$HANDLING
 70
     1
  9
$HANDSEED
  5
BCA0
  9
$SURFTAB1
 70
     6
  9
$SURFTAB2
 70
     6
  9
$SURFTYPE
 70
     6
  9
$SURFU
 70
     6
  9
$SURFV
 70
     6
  9
$UCSNAME
  2

  9
$UCSORG
 10
0.0
 20
0.0
 30
0.0
  9
$UCSXDIR
 10
1.0
 20
0.0
 30
0.0
  9
$UCSYDIR
 10
0.0
 20
1.0
 30
0.0
  9
$PUCSNAME
  2

  9
$PUCSORG
 10
0.0
 20
0.0
 30
0.0
  9
$PUCSXDIR
 10
1.0
 20
0.0
 30
0.0
  9
$PUCSYDIR
 10
0.0
 20
1.0
 30
0.0
  9
$USERI1
 70
     0
  9
$USERI2
 70
     0
  9
$USERI3
 70
     0
  9
$USERI4
 70
     0
  9
$USERI5
 70
     0
  9
$USERR1
 40
0.0
  9
$USERR2
 40
0.0
  9
$USERR3
 40
0.0
  9
$USERR4
 40
0.0
  9
$USERR5
 40
0.0
  9
$WORLDVIEW
 70
     1
  9
$SHADEDGE
 70
     3
  9
$SHADEDIF
 70
    70
  9
$TILEMODE
 70
     1
  9
$MAXACTVP
 70
    64
  9
$PLIMCHECK
 70
     0
  9
$PEXTMIN
 10
1.0000000000000000E+20
 20
1.0000000000000000E+20
 30
1.0000000000000000E+20
  9
$PEXTMAX
 10
-1.0000000000000000E+20
 20
-1.0000000000000000E+20
 30
-1.0000000000000000E+20
  9
$PLIMMIN
 10
0.0
 20
0.0
  9
$PLIMMAX
 10
12.0
 20
9.0
  9
$UNITMODE
 70
     0
  9
$VISRETAIN
 70
     1
  9
$PLINEGEN
 70
     0
  9
$PSLTSCALE
 70
     1
  0
ENDSEC
  0
SECTION
  2
TABLES
  0
TABLE
  2
VPORT
 70
     1
  0
VPORT
  2
*ACTIVE
 70
     0
 10
0.0
 20
0.0
 11
1.0
 21
1.0
 12
219.3879195215309039
 22
17.9951396256901113
 13
0.0
 23
0.0
 14
1.0
 24
1.0
 15
0.0
 25
0.0
 16
0.0
 26
0.0
 36
24.1179433675886514
 17
466.74220170783002
 27
89.133147119929788
 37
0.0
 40
8.4744026590921102
 41
2.005224660397074
 42
50.0
 43
0.0
 44
0.0
 50
0.0
 51
0.0
 71
     0
 72
   100
 73
     1
 74
     1
 75
     0
 76
     0
 77
     0
 78
     0
  0
ENDTAB
  0
TABLE
  2
LTYPE
 70
     2
  0
LTYPE
  2
CONTINUOUS
 70
     0
  3
Solid line
 72
    65
 73
     0
 40
0.0
  0
LTYPE
  2
PHANTOM2
 70
     0
  3
___ _ _ ___ _ _ ___ _ _ ___ _ _
 72
    65
 73
     6
 40
1.25
 49
0.625
 49
-0.125
 49
0.125
 49
-0.125
 49
0.125
 49
-0.125
  0
ENDTAB
  0
TABLE
  2
LAYER
 70
     2
  0
LAYER
  2
0
 70
     0
 62
   255
  6
CONTINUOUS
  0
LAYER
  2
DEFPOINTS
 70
     0
 62
     7
  6
CONTINUOUS
  0
ENDTAB
  0
TABLE
  2
STYLE
 70
     1
  0
STYLE
  2
STANDARD
 70
     0
 40
0.0
 41
0.8
 50
0.0
 71
     0
 42
0.2
  3
txt
  4

  0
ENDTAB
  0
TABLE
  2
VIEW
 70
     0
  0
ENDTAB
  0
TABLE
  2
UCS
 70
     0
  0
ENDTAB
  0
TABLE
  2
APPID
 70
    11
  0
APPID
  2
ACAD
 70
     0
  0
APPID
  2
ACAD_MLEADERVER
 70
     0
  0
APPID
  2
ACAD_EXEMPT_FROM_CAD_STANDARDS
 70
     0
  0
APPID
  2
ACAD_DSTYLE_DIMJAG
 70
     0
  0
APPID
  2
ACAD_DSTYLE_DIMTALN
 70
     0
  0
APPID
  2
ACAD_NAV_VCDISPLAY
 70
     0
  0
APPID
  2
ACAECLAYERSTANDARD
 70
     0
  0
APPID
  2
ACCMTRANSPARENCY
 70
     0
  0
APPID
  2
DCO15
 70
     0
  0
APPID
  2
ACDBATTR
 70
     0
  0
APPID
  2
ACADANNOTATIVE
 70
     0
  0
ENDTAB
  0
TABLE
  2
DIMSTYLE
 70
     1
  0
DIMSTYLE
  2
STANDARD
 70
     0
  3

  4

  5

  6

  7

 40
1.0
 41
0.1875
 42
0.0625
 43
0.38
 44
0.125
 45
0.0
 46
0.0
 47
0.01
 48
0.01
140
0.15625
141
0.09
142
0.0
143
25.3999999999999986
144
1.0
145
0.0
146
1.0
147
0.09
 71
     1
 72
     0
 73
     1
 74
     1
 75
     0
 76
     0
 77
     0
 78
     4
170
     0
171
     2
172
     0
173
     0
174
     0
175
     0
176
     0
177
     0
178
     0
  0
ENDTAB
  0
ENDSEC
  0
SECTION
  2
BLOCKS
  0
BLOCK
  8
0
  2
$MODEL_SPACE
 70
     0
 10
0.0
 20
0.0
 30
0.0
  3
$MODEL_SPACE
  1

  0
ENDBLK
  5
21
  8
0
  0
BLOCK
 67
     1
  8
0
  2
$PAPER_SPACE
 70
     0
 10
0.0
 20
0.0
 30
0.0
  3
$PAPER_SPACE
  1

  0
ENDBLK
  5
1D
 67
     1
  8
0
  0
ENDSEC
  0
SECTION
  2
ENTITIES
  0
ATTDEF
  5
829
  8
DEFPOINTS
 10
689.382863082745871
 20
104.1612101341309966
 30
0.0
 40
0.001
  1
K-98254T
  3

  2
MODELNUMBER
 70
     0
1001
ACDBATTR
1070
     0
1070
     1
  0
ATTDEF
  5
82A
  8
DEFPOINTS
 10
689.382863082745871
 20
104.159543467464303
 30
0.0
 40
0.001
  1
FAIRFAX
  3

  2
TRADENAME
 70
     0
1001
ACDBATTR
1070
     0
1070
     1
  0
ATTDEF
  5
82B
  8
DEFPOINTS
 10
689.382863082745871
 20
104.1578768007976947
 30
0.0
 40
0.001
  1
TOILET TISSUE HOLDER
  3

  2
PRODUCT
 70
     0
1001
ACDBATTR
1070
     0
1070
     1
  0
LINE
  5
BB27
  8
0
 10
683.5050370714989185
 20
105.5940949732324015
 30
0.0
 11
687.5090963446016303
 21
105.5940949732324015
 31
0.0
  0
LINE
  5
BB28
  8
0
 10
683.1055071351596553
 20
106.2146367418323933
 30
0.0
 11
687.9086269600104515
 21
106.2146367418323933
 31
0.0
  0
LINE
  5
BB29
  8
0
 10
684.0146610170346548
 20
105.5429016728223957
 30
0.0
 11
686.9994803902560534
 21
105.5429016728223957
 31
0.0
  0
LINE
  5
BB2A
  8
0
 10
689.1814886835461493
 20
105.3010333854324045
 30
0.0
 11
689.1814886835461493
 21
103.0207184248323955
 31
0.0
  0
LINE
  5
BB2B
  8
0
 10
689.3814886835460811
 20
102.9207184248324012
 30
0.0
 11
689.3814886835460811
 21
105.4010333854323989
 31
0.0
  0
LINE
  5
BB2C
  8
0
 10
689.3814886835460811
 20
105.4010333854323989
 30
0.0
 11
689.2814886835460584
 21
105.4010333854323989
 31
0.0
  0
ARC
  5
BB2D
  8
0
 10
689.2814886835460584
 20
105.3010333854324045
 30
0.0
 40
0.1
 50
90.0
 51
179.9999999999974989
  0
ARC
  5
BB2E
  8
0
 10
689.2814886835460584
 20
103.0207184248323955
 30
0.0
 40
0.1
 50
180.0000000000015916
 51
270.0
  0
LINE
  5
BB2F
  8
0
 10
688.9385752977460697
 20
103.0754840709774953
 30
0.0
 11
688.9385752977460697
 21
105.246267739387406
 31
0.0
  0
ARC
  5
BB30
  8
0
 10
688.557952323629479
 20
103.554609886754406
 30
0.0
 40
0.6119112646203846
 50
303.1194266735018914
 51
308.4640268054401986
  0
ARC
  5
BB31
  8
0
 10
688.68523960612265
 20
103.2447916006477016
 30
0.0
 40
0.2771654646443227
 50
225.7348158321275093
 51
256.5968284567757109
  0
ARC
  5
BB32
  8
0
 10
689.0946924929344277
 20
103.6437949569098009
 30
0.0
 40
0.8488162234022539
 50
206.9306191363540961
 51
224.7411742601628077
  0
ARC
  5
BB33
  8
0
 10
686.9024789399734345
 20
102.4905521348972997
 30
0.0
 40
1.6283634161638001
 50
28.1728563163438501
 51
33.5430504669122698
  0
ARC
  5
BB34
  8
0
 10
687.9786796093253542
 20
103.2204598614781048
 30
0.0
 40
0.3283466381663454
 50
31.1538763020630505
 51
58.1751668152518135
  0
ARC
  5
BB35
  8
0
 10
688.0839451628278312
 20
103.3577806870494982
 30
0.0
 40
0.1570865940803976
 50
64.3981129788305253
 51
133.8793570705481102
  0
ARC
  5
BB36
  8
0
 10
688.8413312032461135
 20
103.0431593697323933
 30
0.0
 40
0.340157480299978
 50
0.0
 51
73.3885645529540227
  0
ARC
  5
BB37
  8
0
 10
688.557952323629479
 20
104.7671419236104953
 30
0.0
 40
0.6119112646203846
 50
51.5359731945598298
 51
69.0009391548203439
  0
ARC
  5
BB38
  8
0
 10
688.68523960612265
 20
105.0769602097171997
 30
0.0
 40
0.2771654646443227
 50
70.6155282648141593
 51
134.2651841678724907
  0
ARC
  5
BB39
  8
0
 10
689.0946924929344277
 20
104.6779568534551004
 30
0.0
 40
0.8488162234022539
 50
135.2588257398371923
 51
153.0693808636459039
  0
ARC
  5
BB3A
  8
0
 10
686.9024789399734345
 20
105.8311996754676017
 30
0.0
 40
1.6283634161638001
 50
326.4569495330877089
 51
331.8271436836553789
  0
ARC
  5
BB3B
  8
0
 10
687.9786796093253542
 20
105.101291948886697
 30
0.0
 40
0.3283466381663454
 50
301.8248331847481722
 51
328.8461236979368891
  0
ARC
  5
BB3C
  8
0
 10
688.0839451625635093
 20
104.9639711242742948
 30
0.0
 40
0.1570865950593887
 50
226.1206506290330935
 51
295.6018869569579124
  0
ARC
  5
BB3D
  8
0
 10
688.8413312032461135
 20
105.2785924406323943
 30
0.0
 40
0.340157480299978
 50
286.6114354470460057
 51
0.0
  0
LINE
  5
BB3E
  8
0
 10
687.9750618331427177
 20
104.8507429523311032
 30
0.0
 11
687.9316919586027552
 21
104.8923742421343945
 31
0.0
  0
LINE
  5
BB3F
  8
0
 10
687.9750618188696762
 20
103.4710088436549995
 30
0.0
 11
687.9316919811656135
 21
103.4293775903763049
 31
0.0
  0
LINE
  5
BB40
  8
0
 10
687.8244796678460489
 20
104.8466608002416933
 30
0.0
 11
687.8244796678460489
 21
103.4750910100232062
 31
0.0
  0
ARC
  5
BB41
  8
0
 10
687.8874659708453692
 20
104.8475181235369007
 30
0.0
 40
0.0629921373565661
 50
45.4052804431409598
 51
180.7798199131972012
  0
ARC
  5
BB42
  8
0
 10
687.8047946283978717
 20
104.7762302357908055
 30
0.0
 40
0.0196850394620811
 50
0.0
 51
107.4703016046307056
  0
ARC
  5
BB43
  8
0
 10
687.9166625475219234
 20
104.420788211686201
 30
0.0
 40
0.392315504975403
 50
107.4703016046307056
 51
181.4898595136197059
  0
ARC
  5
BB44
  8
0
 10
687.8880526753165441
 20
103.4748143422618938
 30
0.0
 40
0.0635736094922525
 50
179.7506521147689114
 51
269.7095945238457944
  0
ARC
  5
BB45
  8
0
 10
687.8874638597665125
 20
103.4742368754702966
 30
0.0
 40
0.0629958901964219
 50
270.2424705196872878
 51
314.5940794296238892
  0
ARC
  5
BB46
  8
0
 10
687.8047946283978717
 20
103.545521574474094
 30
0.0
 40
0.0196850394620811
 50
252.5296983953693086
 51
0.0
  0
ARC
  5
BB47
  8
0
 10
687.9166625475219234
 20
103.9009635985785991
 30
0.0
 40
0.392315504975403
 50
178.5101404863802941
 51
252.5296983953693086
  0
LINE
  5
BB48
  8
0
 10
687.524479667846208
 20
104.4105879992698931
 30
0.0
 11
687.524479667846208
 21
103.911163810994907
 31
0.0
  0
ARC
  5
BB49
  8
0
 10
688.6663488595969511
 20
103.3189543688451977
 30
0.0
 40
0.3467582626510486
 50
262.4840575658193984
 51
279.1996579228746782
  0
ARC
  5
BB4A
  8
0
 10
688.6664194062069555
 20
103.3185187844428015
 30
0.0
 40
0.3463170024151369
 50
279.1996579228746782
 51
288.6614402204692738
  0
ARC
  5
BB4B
  8
0
 10
688.5069491816298068
 20
103.7266328551607018
 30
0.0
 40
0.7842693363884666
 50
290.1592440690541821
 51
294.5831536196109823
  0
ARC
  5
BB4C
  8
0
 10
688.5459584396576247
 20
103.6807225860978008
 30
0.0
 40
0.7264766211140695
 50
293.2916504443016947
 51
298.4720869918862718
  0
LINE
  5
BB4D
  8
0
 10
688.8416910218461453
 20
102.9404034641324017
 30
0.0
 11
688.6635459650460689
 21
102.9404034641324017
 31
0.0
  0
LINE
  5
BB4E
  8
0
 10
688.6580634867461868
 20
102.9435828825801025
 30
0.0
 11
688.6580634867461868
 21
102.9518727807942042
 31
0.0
  0
LINE
  5
BB4F
  8
0
 10
688.8490083686461958
 20
102.9676189632500041
 30
0.0
 11
688.8490083686461958
 21
102.9593320349977006
 31
0.0
  0
LINE
  5
BB50
  8
0
 10
688.8490083686461958
 20
102.9908242739514037
 30
0.0
 11
688.8490083686461958
 21
102.9991194541335062
 31
0.0
  0
LINE
  5
BB51
  8
0
 10
688.8332157632461303
 20
102.9816611722663993
 30
0.0
 11
688.8332157632461303
 21
102.9767898045585071
 31
0.0
  0
LINE
  5
BB52
  8
0
 10
688.8332157632461303
 20
102.9501684055830992
 30
0.0
 11
688.8332157632461303
 21
102.9453222869926066
 31
0.0
  0
LINE
  5
BB53
  8
0
 10
688.8332157632461303
 20
103.0082851536937056
 30
0.0
 11
688.8332157632461303
 21
103.0134508940037961
 31
0.0
  0
LINE
  5
BB54
  8
0
 10
688.6738820112460644
 20
102.961054465696904
 30
0.0
 11
688.6738820112460644
 21
102.9659000521804018
 31
0.0
  0
LINE
  5
BB55
  8
0
 10
688.6738820112460644
 20
102.9659000521804018
 30
0.0
 11
688.6630060966504061
 21
102.972212218750002
 31
0.0
  0
LINE
  5
BB56
  8
0
 10
688.6580634867461868
 20
102.9518727807942042
 30
0.0
 11
688.6738820112460644
 21
102.961054465696904
 31
0.0
  0
LINE
  5
BB57
  8
0
 10
688.6635459650460689
 20
102.9404034641324017
 30
0.0
 11
688.6580634867461868
 21
102.9435828825801025
 31
0.0
  0
LINE
  5
BB58
  8
0
 10
688.8332157632461303
 20
102.9453222869926066
 30
0.0
 11
688.8416910218461453
 21
102.9404034641324017
 31
0.0
  0
LINE
  5
BB59
  8
0
 10
688.8332157632461303
 20
102.9501684055830992
 30
0.0
 11
688.8490083686461958
 21
102.9593320349977006
 31
0.0
  0
LINE
  5
BB5A
  8
0
 10
688.8490083686461958
 20
102.9676189632500041
 30
0.0
 11
688.8332157632461303
 21
102.9767898045585071
 31
0.0
  0
LINE
  5
BB5B
  8
0
 10
688.8332157632461303
 20
102.9816611722663993
 30
0.0
 11
688.8490083686461958
 21
102.9908242739514037
 31
0.0
  0
LINE
  5
BB5C
  8
0
 10
688.8490083686461958
 20
102.9991194541335062
 30
0.0
 11
688.8332157632461303
 21
103.0082851536937056
 31
0.0
  0
LINE
  5
BB5D
  8
0
 10
688.6580634867461868
 20
102.9518727807942042
 30
0.0
 11
688.8490083686461958
 21
102.9676189632500041
 31
0.0
  0
LINE
  5
BB5E
  8
0
 10
688.8490083686461958
 20
102.9593320349977006
 30
0.0
 11
688.6580634867461868
 21
102.9435828825801025
 31
0.0
  0
LINE
  5
BB5F
  8
0
 10
688.8332157632461303
 20
102.9767898045585071
 30
0.0
 11
688.6738820112460644
 21
102.961054465696904
 31
0.0
  0
LINE
  5
BB60
  8
0
 10
688.8332157632461303
 20
102.9816611722663993
 30
0.0
 11
688.6738820112460644
 21
102.9659000521804018
 31
0.0
  0
LINE
  5
BB61
  8
0
 10
688.8490083686461958
 20
102.9908242739514037
 30
0.0
 11
688.7394265801998472
 21
102.9799845635619988
 31
0.0
  0
LINE
  5
BB62
  8
0
 10
688.8490083686461958
 20
102.9991194541335062
 30
0.0
 11
688.7831360951932993
 21
102.9926034410527933
 31
0.0
  0
LINE
  5
BB63
  8
0
 10
688.8332157632461303
 20
103.0082851536937056
 30
0.0
 11
688.8182868600526945
 21
103.0068084029549027
 31
0.0
  0
LINE
  5
BB64
  8
0
 10
688.8332157632461303
 20
102.9501684055830992
 30
0.0
 11
688.714824275080673
 21
102.9404034641324017
 31
0.0
  0
LINE
  5
BB65
  8
0
 10
688.8332157632461303
 20
102.9453222869926066
 30
0.0
 11
688.7735792809005488
 21
102.9404034641324017
 31
0.0
  0
LINE
  5
BB66
  8
0
 10
686.4474385553285174
 20
103.9105092012114966
 30
0.0
 11
687.5244631888858748
 21
103.9105092012114966
 31
0.0
  0
LINE
  5
BB67
  8
0
 10
685.7710304441335438
 20
105.0565439426324019
 30
0.0
 11
685.2431009014586607
 21
105.0565439426324019
 31
0.0
  0
ARC
  5
BB68
  8
0
 10
685.9903235713170488
 20
105.1113464646689977
 30
0.0
 40
0.1414049539313817
 50
90.8819418080512662
 51
173.7313623649673957
  0
ARC
  5
BB69
  8
0
 10
685.7713822085393076
 20
105.1353965194084026
 30
0.0
 40
0.078853361389361
 50
269.744402999051772
 51
353.7313623649674241
  0
ARC
  5
BB6A
  8
0
 10
685.0238077742751557
 20
105.1113464646689977
 30
0.0
 40
0.1414049539313817
 50
6.2686376350326354
 51
89.1180581919487338
  0
ARC
  5
BB6B
  8
0
 10
685.2427491370530106
 20
105.1353965194084026
 30
0.0
 40
0.078853361389361
 50
186.2686376350326043
 51
270.255597000948228
  0
LINE
  5
BB6C
  8
0
 10
686.4095979939291965
 20
105.2527346668323958
 30
0.0
 11
684.6045337864632074
 21
105.2527346668323958
 31
0.0
  0
ARC
  5
BB6D
  8
0
 10
686.8745221610183762
 20
104.6735451510281933
 30
0.0
 40
0.8695339815064101
 50
91.157581623027724
 51
100.2182246203767022
  0
ARC
  5
BB6E
  8
0
 10
686.7537994454456793
 20
105.3497014491682933
 30
0.0
 40
0.1826896609741215
 50
100.5759674137143946
 51
112.8351061770969039
  0
ARC
  5
BB6F
  8
0
 10
686.7201215464071993
 20
105.4296807921454047
 30
0.0
 40
0.0959089247092147
 50
112.8351061770969039
 51
127.877668129201794
  0
ARC
  5
BB70
  8
0
 10
686.6881087406668485
 20
105.4708361347370982
 30
0.0
 40
0.0437689021237201
 50
127.877668129201794
 51
180.4422457057034137
  0
ARC
  5
BB71
  8
0
 10
686.4095979939291965
 20
105.488139780426593
 30
0.0
 40
0.2354051136046557
 50
270.0
 51
355.7021715245999189
  0
ARC
  5
BB72
  8
0
 10
684.139609619373914
 20
104.6735451510281933
 30
0.0
 40
0.8695339815064101
 50
79.7817753796232836
 51
88.8424183769788272
  0
ARC
  5
BB73
  8
0
 10
684.2603323349467246
 20
105.3497014491682933
 30
0.0
 40
0.1826896609741215
 50
67.1648938229030676
 51
79.4240325862856054
  0
ARC
  5
BB74
  8
0
 10
684.2940102339849773
 20
105.4296807921454047
 30
0.0
 40
0.0959089247092147
 50
52.122331870798142
 51
67.1648938229030676
  0
ARC
  5
BB75
  8
0
 10
684.3260230397255555
 20
105.4708361347370982
 30
0.0
 40
0.0437689021237201
 50
359.557754294296501
 51
52.122331870798142
  0
ARC
  5
BB76
  8
0
 10
684.6045337864632074
 20
105.488139780426593
 30
0.0
 40
0.2354051136046557
 50
184.2978284754001095
 51
270.0
  0
LINE
  5
BB77
  8
0
 10
683.8693558100953851
 20
105.5885978061165957
 30
0.0
 11
683.9576871130223026
 21
105.553737500460997
 31
0.0
  0
LINE
  5
BB78
  8
0
 10
687.144697770893913
 20
105.588563028038493
 30
0.0
 11
687.0564541285503992
 21
105.5537374350598014
 31
0.0
  0
ARC
  5
BB79
  8
0
 10
687.1744631277400686
 20
105.5132528015200961
 30
0.0
 40
0.0809790509108881
 50
93.3318175307963287
 51
111.5657448428279963
  0
ARC
  5
BB7A
  8
0
 10
683.8403883154510368
 20
105.5154311691943008
 30
0.0
 40
0.0786922645785357
 50
68.4008301154152321
 51
88.4589871164097161
  0
ARC
  5
BB7B
  8
0
 10
686.9994803902560534
 20
105.6981016728224034
 30
0.0
 40
0.1552
 50
270.0
 51
291.5368054481007789
  0
ARC
  5
BB7C
  8
0
 10
684.0146610170346548
 20
105.6981016728224034
 30
0.0
 40
0.1552
 50
248.4631287811048139
 51
270.0
  0
LINE
  5
BB7D
  8
0
 10
683.3059969728984697
 20
105.7745235872531993
 30
0.0
 11
683.2731974093826466
 21
106.1080936452531063
 31
0.0
  0
LINE
  5
BB7E
  8
0
 10
687.7081363998378265
 20
105.7745231462471054
 30
0.0
 11
687.7409367785503491
 21
106.1080939056673031
 31
0.0
  0
ARC
  5
BB7F
  8
0
 10
687.5090963446016303
 20
105.7940949732324043
 30
0.0
 40
0.2
 50
270.0
 51
354.3840967754484836
  0
ARC
  5
BB80
  8
0
 10
683.5050370714989185
 20
105.7940949732324043
 30
0.0
 40
0.2
 50
185.6157762763043024
 51
270.0
  0
ARC
  5
BB81
  8
0
 10
683.1556642311592213
 20
106.096536741832395
 30
0.0
 40
0.1181
 50
5.6157762763059971
 51
90.0
  0
ARC
  5
BB82
  8
0
 10
687.8584699311675195
 20
106.096536741832395
 30
0.0
 40
0.1181
 50
90.0
 51
174.384096775446892
  0
LINE
  5
BB83
  8
0
 10
683.0858075495432331
 20
106.6083375473302937
 30
0.0
 11
683.4212407785871619
 21
106.6083375473302937
 31
0.0
  0
LINE
  5
BB84
  8
0
 10
683.0858071351598255
 20
106.2343367636594991
 30
0.0
 11
683.0858075495432331
 21
106.6083375473302937
 31
0.0
  0
LINE
  5
BB85
  8
0
 10
687.9283269600103949
 20
106.2343367418323936
 30
0.0
 11
687.9283269600103949
 21
106.6084152913677059
 31
0.0
  0
ARC
  5
BB86
  8
0
 10
687.9086269600104515
 20
106.2343367418323936
 30
0.0
 40
0.0197
 50
270.0
 51
0.0000000000081422
  0
ARC
  5
BB87
  8
0
 10
683.1055071351596553
 20
106.2343367418323936
 30
0.0
 40
0.0197
 50
179.9999365177251889
 51
269.9999999999935199
  0
LINE
  5
BB88
  8
0
 10
688.0267588931960745
 20
111.3327474152324044
 30
0.0
 11
682.9873820958962369
 21
111.3327474152324044
 31
0.0
  0
LINE
  5
BB89
  8
0
 10
688.0267588931960745
 20
111.1358965844324018
 30
0.0
 11
682.9873820958962369
 21
111.1358965844324018
 31
0.0
  0
ARC
  5
BB8A
  8
0
 10
688.0267588931960745
 20
111.2343219998324031
 30
0.0
 40
0.0984254153999995
 50
270.0
 51
90.0
  0
ARC
  5
BB8B
  8
0
 10
682.9873820958962369
 20
111.2343219998324031
 30
0.0
 40
0.0984254153999995
 50
90.0
 51
270.0
  0
ARC
  5
BB8C
  8
0
 10
687.9089501768961554
 20
111.0965267241823966
 30
0.0
 40
0.0393700786999997
 50
90.190866909034014
 51
180.7482609829895068
  0
ARC
  5
BB8D
  8
0
 10
683.105190812196156
 20
111.0965267241823966
 30
0.0
 40
0.0393700786999997
 50
0.0033226620838911
 51
89.809133090965986
  0
LINE
  5
BB8E
  8
0
 10
683.1445608908298937
 20
111.0965290073081064
 30
0.0
 11
683.4495168107251857
 21
111.0965290073081064
 31
0.0
  0
LINE
  5
BB8F
  8
0
 10
687.8695834555030615
 20
111.0960125806163035
 30
0.0
 11
687.9283269600103949
 21
106.6084152913677059
 31
0.0
  0
LINE
  5
BB90
  8
0
 10
683.39932074983858
 20
106.6083375473302937
 30
0.0
 11
683.4497986978451536
 21
111.037473666740695
 31
0.0
  0
LINE
  5
BB91
  8
0
 10
683.4212407785871619
 20
106.6083375473302937
 30
0.0
 11
683.4711938195462153
 21
111.0374736430329961
 31
0.0
  0
ARC
  5
BB92
  8
0
 10
683.3700016507027613
 20
111.042648642763794
 30
0.0
 40
0.079964674134818
 50
356.2894659928605279
 51
42.3611945510327814
  0
ARC
  5
BB93
  8
0
 10
683.397576678972996
 20
111.0439576429147053
 30
0.0
 40
0.0739021355621468
 50
354.9665308181128012
 51
45.3460530925578666
  0
LINE
  5
BB94
  8
0
 10
686.4465316791839768
 20
104.4107777294677959
 30
0.0
 11
687.5244747791126656
 21
104.4107777294677959
 31
0.0
  0
ARC
  5
BB95
  8
0
 10
686.441210204008371
 20
105.0961445974750035
 30
0.0
 40
0.6853875267760026
 50
183.312308185489286
 51
270.4448594698055786
  0
ARC
  5
BB96
  8
0
 10
686.4403909651912272
 20
105.0957812554731987
 30
0.0
 40
1.185293006450536
 50
181.8970357661916069
 51
270.3406748776035897
  0
LINE
  5
BB98
  8
0
 10
689.3814886835460811
 20
102.9207184247823932
 30
0.0
 11
689.2814886835460584
 21
102.9207184247823932
 31
0.0
  0
LINE
  5
BB99
  8
0
 10
687.9316919811658408
 20
104.8923742204759009
 30
0.0
 11
687.9316919811658408
 21
103.4293775903765038
 31
0.0
  0
ENDSEC
  0
EOF
