  0
SECTION
  2
HEADER
  9
$ACADVER
  1
AC1009
  9
$INSBASE
 10
367.8064067724963024
 20
67.508330745131417
 30
0.0
  9
$EXTMIN
 10
359.315952971488116
 20
59.038316982708352
 30
-0.0015258207003583
  9
$EXTMAX
 10
376.2818799968516146
 20
75.9749688054536705
 30
0.0000000349246037
  9
$LIMMIN
 10
0.0
 20
0.0
  9
$LIMMAX
 10
11.6929133858000007
 20
8.2677165353999982
  9
$ORTHOMODE
 70
     0
  9
$REGENMODE
 70
     1
  9
$FILLMODE
 70
     1
  9
$QTEXTMODE
 70
     0
  9
$MIRRTEXT
 70
     0
  9
$DRAGMODE
 70
     2
  9
$LTSCALE
 40
0.6431102362
  9
$OSMODE
 70
  4095
  9
$ATTMODE
 70
     1
  9
$TEXTSIZE
 40
0.2
  9
$TRACEWID
 40
0.05
  9
$TEXTSTYLE
  7
STANDARD
  9
$CLAYER
  8
0
  9
$CELTYPE
  6
BYLAYER
  9
$CECOLOR
 62
   256
  9
$DIMSCALE
 40
1.0
  9
$DIMASZ
 40
0.1875
  9
$DIMEXO
 40
0.0625
  9
$DIMDLI
 40
0.4443307087
  9
$DIMRND
 40
0.0
  9
$DIMDLE
 40
0.0
  9
$DIMEXE
 40
0.125
  9
$DIMTP
 40
0.01
  9
$DIMTM
 40
0.01
  9
$DIMTXT
 40
1.0
  9
$DIMCEN
 40
0.1052362205
  9
$DIMTSZ
 40
0.0
  9
$DIMTOL
 70
     1
  9
$DIMLIM
 70
     0
  9
$DIMTIH
 70
     0
  9
$DIMTOH
 70
     1
  9
$DIMSE1
 70
     0
  9
$DIMSE2
 70
     0
  9
$DIMTAD
 70
     0
  9
$DIMZIN
 70
     0
  9
$DIMBLK
  1

  9
$DIMASO
 70
     1
  9
$DIMSHO
 70
     1
  9
$DIMPOST
  1
\X
  9
$DIMAPOST
  1

  9
$DIMALT
 70
     1
  9
$DIMALTD
 70
     2
  9
$DIMALTF
 40
25.3999999999999986
  9
$DIMLFAC
 40
1.0
  9
$DIMTOFL
 70
     0
  9
$DIMTVP
 40
0.0
  9
$DIMTIX
 70
     0
  9
$DIMSOXD
 70
     0
  9
$DIMSAH
 70
     0
  9
$DIMBLK1
  1

  9
$DIMBLK2
  1

  9
$DIMSTYLE
  2
STANDARD
  9
$DIMCLRD
 70
     0
  9
$DIMCLRE
 70
     0
  9
$DIMCLRT
 70
     0
  9
$DIMTFAC
 40
1.0
  9
$DIMGAP
 40
0.09
  9
$LUNITS
 70
     2
  9
$LUPREC
 70
     4
  9
$SKETCHINC
 40
0.1
  9
$FILLETRAD
 40
0.0
  9
$AUNITS
 70
     0
  9
$AUPREC
 70
     0
  9
$MENU
  1
.
  9
$ELEVATION
 40
0.0
  9
$PELEVATION
 40
0.0
  9
$THICKNESS
 40
0.0
  9
$LIMCHECK
 70
     0
  9
$BLIPMODE
 70
     0
  9
$CHAMFERA
 40
0.0
  9
$CHAMFERB
 40
0.0
  9
$SKPOLY
 70
     0
  9
$TDCREATE
 40
2458172.5207638889551163
  9
$TDUPDATE
 40
2459082.726944443769753
  9
$TDINDWG
 40
0.2786893287
  9
$TDUSRTIMER
 40
0.2786893287
  9
$USRTIMER
 70
     1
  9
$ANGBASE
 50
0.0
  9
$ANGDIR
 70
     0
  9
$PDMODE
 70
     0
  9
$PDSIZE
 40
0.3125
  9
$PLINEWID
 40
0.0
  9
$COORDS
 70
     1
  9
$SPLFRAME
 70
     0
  9
$SPLINETYPE
 70
     6
  9
$SPLINESEGS
 70
     8
  9
$ATTDIA
 70
     1
  9
$ATTREQ
 70
     1
  9
$HANDLING
 70
     1
  9
$HANDSEED
  5
109C4
  9
$SURFTAB1
 70
     6
  9
$SURFTAB2
 70
     6
  9
$SURFTYPE
 70
     6
  9
$SURFU
 70
     6
  9
$SURFV
 70
     6
  9
$UCSNAME
  2

  9
$UCSORG
 10
0.0
 20
0.0
 30
0.0
  9
$UCSXDIR
 10
1.0
 20
0.0
 30
0.0
  9
$UCSYDIR
 10
0.0
 20
1.0
 30
0.0
  9
$PUCSNAME
  2

  9
$PUCSORG
 10
0.0
 20
0.0
 30
0.0
  9
$PUCSXDIR
 10
1.0
 20
0.0
 30
0.0
  9
$PUCSYDIR
 10
0.0
 20
1.0
 30
0.0
  9
$USERI1
 70
     0
  9
$USERI2
 70
     0
  9
$USERI3
 70
     0
  9
$USERI4
 70
     0
  9
$USERI5
 70
     0
  9
$USERR1
 40
0.0
  9
$USERR2
 40
0.0
  9
$USERR3
 40
0.0
  9
$USERR4
 40
0.0
  9
$USERR5
 40
0.0
  9
$WORLDVIEW
 70
     1
  9
$SHADEDGE
 70
     3
  9
$SHADEDIF
 70
    70
  9
$TILEMODE
 70
     1
  9
$MAXACTVP
 70
    64
  9
$PLIMCHECK
 70
     0
  9
$PEXTMIN
 10
1.0000000000000000E+20
 20
1.0000000000000000E+20
 30
1.0000000000000000E+20
  9
$PEXTMAX
 10
-1.0000000000000000E+20
 20
-1.0000000000000000E+20
 30
-1.0000000000000000E+20
  9
$PLIMMIN
 10
0.0
 20
0.0
  9
$PLIMMAX
 10
12.0
 20
9.0
  9
$UNITMODE
 70
     0
  9
$VISRETAIN
 70
     1
  9
$PLINEGEN
 70
     0
  9
$PSLTSCALE
 70
     1
  0
ENDSEC
  0
SECTION
  2
TABLES
  0
TABLE
  2
VPORT
 70
     1
  0
VPORT
  2
*ACTIVE
 70
     0
 10
0.0
 20
0.0
 11
1.0
 21
1.0
 12
-61.8303726238839175
 22
-2.195898618137675
 13
0.0
 23
0.0
 14
1.0
 24
1.0
 15
0.0
 25
0.0
 16
0.0
 26
0.0
 36
14.6338572656650907
 17
429.6292891080536833
 27
69.7025415122186871
 37
0.0
 40
17.0775948337529115
 41
2.6486111111111108
 42
50.0
 43
0.0
 44
0.0
 50
0.0
 51
0.0
 71
     0
 72
   100
 73
     1
 74
     1
 75
     0
 76
     0
 77
     0
 78
     0
  0
ENDTAB
  0
TABLE
  2
LTYPE
 70
     2
  0
LTYPE
  2
CONTINUOUS
 70
     0
  3
Solid line
 72
    65
 73
     0
 40
0.0
  0
LTYPE
  2
PHANTOM2
 70
     0
  3
___ _ _ ___ _ _ ___ _ _ ___ _ _
 72
    65
 73
     6
 40
1.25
 49
0.625
 49
-0.125
 49
0.125
 49
-0.125
 49
0.125
 49
-0.125
  0
ENDTAB
  0
TABLE
  2
LAYER
 70
     2
  0
LAYER
  2
0
 70
     0
 62
   255
  6
CONTINUOUS
  0
LAYER
  2
DEFPOINTS
 70
     0
 62
     7
  6
CONTINUOUS
  0
ENDTAB
  0
TABLE
  2
STYLE
 70
     1
  0
STYLE
  2
STANDARD
 70
     0
 40
0.0
 41
0.8
 50
0.0
 71
     0
 42
0.2
  3
txt
  4

  0
ENDTAB
  0
TABLE
  2
VIEW
 70
     0
  0
ENDTAB
  0
TABLE
  2
UCS
 70
     0
  0
ENDTAB
  0
TABLE
  2
APPID
 70
    10
  0
APPID
  2
ACAD
 70
     0
  0
APPID
  2
ACAD_MLEADERVER
 70
     0
  0
APPID
  2
ACAD_EXEMPT_FROM_CAD_STANDARDS
 70
     0
  0
APPID
  2
ACAD_DSTYLE_DIMJAG
 70
     0
  0
APPID
  2
ACAD_DSTYLE_DIMTALN
 70
     0
  0
APPID
  2
ACAD_NAV_VCDISPLAY
 70
     0
  0
APPID
  2
ACAECLAYERSTANDARD
 70
     0
  0
APPID
  2
ACCMTRANSPARENCY
 70
     0
  0
APPID
  2
DCO15
 70
     0
  0
APPID
  2
ACDBATTR
 70
     0
  0
ENDTAB
  0
TABLE
  2
DIMSTYLE
 70
     1
  0
DIMSTYLE
  2
STANDARD
 70
     0
  3

  4

  5

  6

  7

 40
1.0
 41
0.1875
 42
0.0625
 43
0.38
 44
0.125
 45
0.0
 46
0.0
 47
0.01
 48
0.01
140
0.15625
141
0.09
142
0.0
143
25.3999999999999986
144
1.0
145
0.0
146
1.0
147
0.09
 71
     1
 72
     0
 73
     1
 74
     1
 75
     0
 76
     0
 77
     0
 78
     4
170
     0
171
     2
172
     0
173
     0
174
     0
175
     0
176
     0
177
     0
178
     0
  0
ENDTAB
  0
ENDSEC
  0
SECTION
  2
BLOCKS
  0
BLOCK
  8
0
  2
$MODEL_SPACE
 70
     0
 10
0.0
 20
0.0
 30
0.0
  3
$MODEL_SPACE
  1

  0
ENDBLK
  5
21
  8
0
  0
BLOCK
 67
     1
  8
0
  2
$PAPER_SPACE
 70
     0
 10
0.0
 20
0.0
 30
0.0
  3
$PAPER_SPACE
  1

  0
ENDBLK
  5
1D
 67
     1
  8
0
  0
BLOCK
  8
0
  2
_FILLED
 70
     0
 10
0.0
 20
0.0
 30
0.0
  3
_FILLED
  1

  0
SOLID
  5
87E2
  8
0
  6
BYBLOCK
 62
     0
 10
0.0
 20
0.0
 30
0.0
 11
-1.0
 21
0.1666666667
 31
0.0
 12
-1.0
 22
-0.1666666667
 32
0.0
 13
-1.0
 23
-0.1666666667
 33
0.0
  0
ENDBLK
  5
87E3
  8
0
  6
BYBLOCK
 62
     0
  0
ENDSEC
  0
SECTION
  2
ENTITIES
  0
ATTDEF
  5
C848
  8
DEFPOINTS
 10
367.806605249779011
 20
67.5124507452077438
 30
0.0
 40
0.001
  1
K-98275T-CL
  3

  2
MODELNUMBER
 70
     0
1001
ACDBATTR
1070
     0
1070
     1
  0
ATTDEF
  5
C849
  8
DEFPOINTS
 10
367.806605249779011
 20
67.5107840785410787
 30
0.0
 40
0.001
  1
KATALYST
  3

  2
TRADENAME
 70
     0
1001
ACDBATTR
1070
     0
1070
     1
  0
ATTDEF
  5
C84A
  8
DEFPOINTS
 10
367.806605249779011
 20
67.5091174118744135
 30
0.0
 40
0.001
  1
SHOWERHEAD
  3

  2
PRODUCT
 70
     0
1001
ACDBATTR
1070
     0
1070
     1
  0
LINE
  5
105F6
  8
0
 10
359.4993201582963138
 20
75.9728976741282906
 30
0.0
 11
376.1134933865963035
 21
75.9728976741282906
 31
0.0
  0
ARC
  5
105F7
  8
0
 10
376.1134933865963035
 20
75.8154173591282756
 30
0.0
 40
0.1574803150000008
 50
0.0
 51
90.0
  0
LINE
  5
105F8
  8
0
 10
376.2709737015962901
 20
75.8154173591282756
 30
0.0
 11
376.2709737015962901
 21
59.2012441308282789
 31
0.0
  0
ARC
  5
105F9
  8
0
 10
376.1134933865963035
 20
59.2012441308282789
 30
0.0
 40
0.1574803149999973
 50
270.0
 51
0.0
  0
LINE
  5
105FA
  8
0
 10
376.1134933865963035
 20
59.043763815828278
 30
0.0
 11
359.4993201582963138
 21
59.0437638158282923
 31
0.0
  0
ARC
  5
105FB
  8
0
 10
359.4993201582963138
 20
59.2012441308282789
 30
0.0
 40
0.157480314999999
 50
180.0
 51
270.0
  0
LINE
  5
105FC
  8
0
 10
359.3418398432963272
 20
59.2012441308282789
 30
0.0
 11
359.3418398432962135
 21
75.8154173591282756
 31
0.0
  0
ARC
  5
105FD
  8
0
 10
359.4993201582962001
 20
75.8154173591282756
 30
0.0
 40
0.1574803150000004
 50
89.9999999999674287
 51
180.0000000000007958
  0
ARC
  5
105FE
  8
0
 10
360.9953831503963215
 20
74.3193543670282821
 30
0.0
 40
0.1181102362000019
 50
90.0
 51
180.0000000020974085
  0
LINE
  5
105FF
  8
0
 10
360.9953831503963215
 20
74.4374646032282925
 30
0.0
 11
374.6174303944962958
 21
74.4374646032285199
 31
0.0
  0
ARC
  5
10600
  8
0
 10
374.6174303944962958
 20
74.3193543670285237
 30
0.0
 40
0.1181102361999997
 50
359.9999999998893259
 51
90.0000000000032543
  0
LINE
  5
10601
  8
0
 10
374.7355406306962777
 20
74.3193543670282963
 30
0.0
 11
374.7355406306700729
 21
60.6973071229282866
 31
0.0
  0
ARC
  5
10602
  8
0
 10
374.6174303944699204
 20
60.697307122928521
 30
0.0
 40
0.1181102362002235
 50
270.0000000128288775
 51
359.9999999998884732
  0
LINE
  5
10603
  8
0
 10
374.6174303944962958
 20
60.5791968867282904
 30
0.0
 11
360.9953831503963215
 21
60.5791968836783496
 31
0.0
  0
ARC
  5
10604
  8
0
 10
360.9953831503697756
 20
60.6973071198518994
 30
0.0
 40
0.1181102361735533
 50
179.9999985076320002
 51
270.0000000128288775
  0
LINE
  5
10605
  8
0
 10
360.8772729141962827
 20
60.6973071229282866
 30
0.0
 11
360.8772729141962827
 21
74.319354367023962
 31
0.0
  0
CIRCLE
  5
10606
  8
0
 10
374.5386902369962741
 20
59.9886457056282865
 30
0.0
 40
0.4330708660999996
  0
LINE
  5
10607
  8
0
 10
367.4599500795962967
 20
68.492582713528293
 30
0.0
 11
368.1528634653963081
 21
68.492582713528293
 31
0.0
  0
LINE
  5
10608
  8
0
 10
368.1528634653963081
 20
68.492582713528293
 30
0.0
 11
368.172548504796282
 21
68.4728976741282906
 31
0.0
  0
LINE
  5
10609
  8
0
 10
368.172548504796282
 20
68.4728976741282906
 30
0.0
 11
368.172548504796282
 21
68.4252942081282924
 31
0.0
  0
LINE
  5
1060A
  8
0
 10
368.172548504796282
 20
68.4252942081282924
 30
0.0
 11
368.2073455198963075
 21
68.4071476950282999
 31
0.0
  0
ARC
  5
1060B
  8
0
 10
368.2064398043156075
 20
68.4054109316862196
 30
0.0
 40
0.0019587413355363
 50
43.3251284315769496
 51
62.4581276852460618
  0
ARC
  5
1060C
  8
0
 10
368.2075769041078956
 20
68.4065257973334298
 30
0.0
 40
0.0003678759454328
 50
333.3808107144183737
 51
38.518314280704999
  0
ARC
  5
1060D
  8
0
 10
368.205357911565784
 20
68.4090790866803218
 30
0.0
 40
0.0037255658002305
 50
281.2870470287591047
 51
313.1483321153157817
  0
ARC
  5
1060E
  8
0
 10
367.3835508074143945
 20
82.4726201566051174
 30
0.0
 40
14.09122170990765
 50
271.0437638240634897
 51
273.346385657155281
  0
ARC
  5
1060F
  8
0
 10
367.7634429479002733
 20
63.0963115202263793
 30
0.0
 40
5.2888602763473216
 50
91.3348359750646352
 51
93.6638712033971359
  0
ARC
  5
10610
  8
0
 10
367.4328448847113009
 20
68.2591698193607641
 30
0.0
 40
0.1154280600787881
 50
93.6638712033971359
 51
103.7159613256955026
  0
ARC
  5
10611
  8
0
 10
368.1085418518990195
 20
68.7166206413178173
 30
0.0
 40
0.298274944120423
 50
270.9183670831212112
 51
282.3914417099364869
  0
ARC
  5
10612
  8
0
 10
367.261060328615315
 20
87.1506231660290069
 30
0.0
 40
18.7516168538497112
 50
271.556914428654693
 51
272.6049943568665981
  0
ARC
  5
10613
  8
0
 10
368.1457299340423219
 20
54.8670166247730435
 30
0.0
 40
13.5441098507926103
 50
91.5873700814891549
 51
92.7398117202025816
  0
ARC
  5
10614
  8
0
 10
367.4894863380084757
 20
68.2033397219113624
 30
0.0
 40
0.1925070431069321
 50
87.3715481531162936
 51
104.8142198062417947
  0
LINE
  5
10615
  8
0
 10
368.207943124296321
 20
68.4064909335287865
 30
0.0
 11
368.207943124296321
 21
68.3882986773282937
 31
0.0
  0
ARC
  5
10616
  8
0
 10
368.207499173842109
 20
68.3882986773282937
 30
0.0
 40
0.0004439504542697
 50
305.8480254785952184
 51
359.9999999999935199
  0
ARC
  5
10617
  8
0
 10
368.2044712715627952
 20
68.3930750127527602
 30
0.0
 40
0.0060984184011474
 50
281.5622163907705726
 51
302.6250575364441033
  0
ARC
  5
10618
  8
0
 10
367.9070662005207737
 20
71.9669822857891717
 30
0.0
 40
3.5923158299929252
 50
271.049062510625788
 51
274.7684719109407752
  0
ARC
  5
10619
  8
0
 10
369.8659233929744801
 20
-0.5015587750230424
 30
0.0
 40
68.9028382991467083
 50
91.5743843057602334
 51
91.9499286413975057
  0
ARC
  5
1061A
  8
0
 10
367.5382636585342198
 20
67.357348761584106
 30
0.0
 40
1.00417332733641
 50
90.9606409477062812
 51
97.6335811247275132
  0
ARC
  5
1061B
  8
0
 10
367.4882874262581254
 20
68.1463841543734929
 30
0.0
 40
0.1933580724279016
 50
90.9639972908672121
 51
104.3804790471075989
  0
ARC
  5
1061C
  8
0
 10
368.1345620767085052
 20
55.3899987943349714
 30
0.0
 40
12.9659952355879096
 50
91.5261490686437753
 51
92.871417102848369
  0
ARC
  5
1061D
  8
0
 10
367.5483959352895909
 20
78.6830503521307065
 30
0.0
 40
10.3344624241091907
 50
271.3353760532629053
 51
273.3780360458159748
  0
ARC
  5
1061E
  8
0
 10
368.1524123133535227
 20
68.4349833552616644
 30
0.0
 40
0.0686164083995238
 50
274.1188316465501202
 51
286.5056321060619098
  0
LINE
  5
1061F
  8
0
 10
368.1719068932962955
 20
68.3691945047282843
 30
0.0
 11
368.2073419839289272
 21
68.3876945185833875
 31
0.0
  0
LINE
  5
10620
  8
0
 10
368.1725483975158113
 20
68.3695294223688705
 30
0.0
 11
368.172548504796282
 21
68.3536471090282873
 31
0.0
  0
ARC
  5
10621
  8
0
 10
368.1712466168092988
 20
68.3536471002344115
 30
0.0
 40
0.0013018879870894
 50
324.2294384650631969
 51
0.000387016695654
  0
ARC
  5
10622
  8
0
 10
368.1683727733798719
 20
68.3592828888398145
 30
0.0
 40
0.0075076667771823
 50
281.5990975091032169
 51
301.5662910272034765
  0
ARC
  5
10623
  8
0
 10
368.1096414476772907
 20
68.7314142390306415
 30
0.0
 40
0.384237366343147
 50
272.6742946841682738
 51
279.0200603703548268
  0
ARC
  5
10624
  8
0
 10
367.2082022457544781
 20
87.9867281435793274
 30
0.0
 40
19.6606401976900784
 50
271.5301907628776235
 51
272.6802315919645139
  0
ARC
  5
10625
  8
0
 10
367.8014270667972028
 20
64.2167592588159977
 30
0.0
 40
4.1169049640802307
 50
90.949379112129364
 51
95.0328327977755549
  0
LINE
  5
10626
  8
0
 10
367.4599500795962967
 20
68.492582713528293
 30
0.0
 11
367.4402650401963228
 21
68.4728976741282906
 31
0.0
  0
LINE
  5
10627
  8
0
 10
367.4402650401963228
 20
68.4728976741282906
 30
0.0
 11
367.4402650401963228
 21
68.4596895122282945
 31
0.0
  0
LINE
  5
10628
  8
0
 10
367.4402650401963228
 20
68.4595350679315686
 30
0.0
 11
367.4402650401963228
 21
68.4728976741282906
 31
0.0
  0
LINE
  5
10629
  8
0
 10
367.4402650401963228
 20
68.4728976741282906
 30
0.0
 11
368.172548504796282
 21
68.4728976741282906
 31
0.0
  0
ARC
  5
1062A
  8
0
 10
367.4425393838919263
 20
68.4554652874458043
 30
0.0
 40
0.0046621617783846
 50
107.5862004261586975
 51
119.1980718044851955
  0
ARC
  5
1062B
  8
0
 10
367.4554711272165264
 20
68.3847698272942353
 30
0.0
 40
0.0764959151959119
 50
92.7175449400075422
 51
100.8049298010793962
  0
ARC
  5
1062C
  8
0
 10
367.5144865359629875
 20
67.2252427057343738
 30
0.0
 40
1.2375234722793971
 50
88.7715507453167589
 51
92.9014976972086686
  0
ARC
  5
1062D
  8
0
 10
368.26802423098178
 20
100.9210270032608037
 30
0.0
 40
32.4666859834091781
 50
268.7169034384336896
 51
269.0851008115997161
  0
LINE
  5
1062E
  8
0
 10
367.7496181174963112
 20
68.4584800630282899
 30
0.0
 11
367.7496180982963097
 21
68.4402526557189645
 31
0.0
  0
ARC
  5
1062F
  8
0
 10
368.2483829460351217
 20
61.7939095836807013
 30
0.0
 40
6.6650313280880811
 50
94.2916317555728511
 51
96.0923205234397244
  0
ARC
  5
10630
  8
0
 10
367.5823307707551066
 20
67.7814456214347558
 30
0.0
 40
0.6411847040153664
 50
93.6942496942806855
 51
102.822318819729901
  0
LINE
  5
10631
  8
0
 10
367.4402650401963228
 20
68.3894478235282861
 30
0.0
 11
367.4400337153962823
 21
68.4066410890282839
 31
0.0
  0
LINE
  5
10632
  8
0
 10
367.4400337153962823
 20
68.4066410890282839
 30
0.0
 11
367.4080670316963051
 21
68.4233265857282902
 31
0.0
  0
ARC
  5
10633
  8
0
 10
367.4089174268875126
 20
68.4249558038802519
 30
0.0
 40
0.0018378040613644
 50
223.3543293093817965
 51
242.4370076668824936
  0
ARC
  5
10634
  8
0
 10
367.4078298073446263
 20
68.4239289341902008
 30
0.0
 40
0.000342017435375
 50
140.3896917108419018
 51
223.354329308930204
  0
ARC
  5
10635
  8
0
 10
367.415693597385598
 20
68.4077436115729682
 30
0.0
 40
0.0183063802192821
 50
95.0484670156688054
 51
116.3567464468193009
  0
ARC
  5
10636
  8
0
 10
367.5733284497782734
 20
66.7371379594867022
 30
0.0
 40
1.696332276784988
 50
91.6316489911608585
 51
95.3866606286520522
  0
ARC
  5
10637
  8
0
 10
368.679531546246892
 20
37.1027006017503993
 30
0.0
 40
31.3513461872994483
 50
91.6997015399909259
 51
92.1103774093471088
  0
LINE
  5
10638
  8
0
 10
367.4074894648962868
 20
68.423929091228274
 30
0.0
 11
367.4074929113962753
 21
68.4421566534282846
 31
0.0
  0
ARC
  5
10639
  8
0
 10
367.4082370089989809
 20
68.4419871760340044
 30
0.0
 40
0.000763153870177
 50
113.1783754549611984
 51
167.1690630890977047
  0
ARC
  5
1063A
  8
0
 10
367.428467491785284
 20
68.3698360329545665
 30
0.0
 40
0.075690367250062
 50
93.6209958617983204
 51
105.7385401458223981
  0
ARC
  5
1063B
  8
0
 10
367.5984802390559025
 20
66.215775660333108
 30
0.0
 40
2.236440732700876
 50
91.8821364118747255
 51
94.4826267691874619
  0
ARC
  5
1063C
  8
0
 10
368.6854109175833969
 20
36.9441988511898103
 30
0.0
 40
31.5281719810002805
 50
91.7008551463996469
 51
92.1092275556608939
  0
LINE
  5
1063D
  8
0
 10
367.4402650401963228
 20
68.4595350679315686
 30
0.0
 11
367.407936635451108
 21
68.4426887311336714
 31
0.0
  0
LINE
  5
1063E
  8
0
 10
367.4402650401963228
 20
68.3894478235282861
 30
0.0
 11
367.4054703775291273
 21
68.3713039621877527
 31
0.0
  0
ARC
  5
1063F
  8
0
 10
367.4066036237758794
 20
68.3691307246318445
 30
0.0
 40
0.0024509607361638
 50
117.5400275053309969
 51
127.3271328456052061
  0
ARC
  5
10640
  8
0
 10
367.4055117321411785
 20
68.3705626300876048
 30
0.0
 40
0.0006502440521497
 50
127.3271328452969016
 51
169.7009615076005957
  0
LINE
  5
10641
  8
0
 10
367.4048719647963139
 20
68.3706788844282869
 30
0.0
 11
367.4048719647963139
 21
68.3526229586653074
 31
0.0
  0
ARC
  5
10642
  8
0
 10
367.4051975147535245
 20
68.3524775314823501
 30
0.0
 40
0.0003565555218791
 50
155.929095136777903
 51
193.8202021806683035
  0
ARC
  5
10643
  8
0
 10
367.4056597886573741
 20
68.3527251595880188
 30
0.0
 40
0.0008743226602692
 50
202.3732204546435014
 51
242.47400784707159
  0
LINE
  5
10644
  8
0
 10
367.4052557196031898
 20
68.3519498091422548
 30
0.0
 11
367.4402650401963228
 21
68.3336838997282854
 31
0.0
  0
LINE
  5
10645
  8
0
 10
367.4402650401963228
 20
68.3336838997282854
 30
0.0
 11
367.4402650401963228
 21
68.317791818028283
 31
0.0
  0
LINE
  5
10646
  8
0
 10
368.1725485046542872
 20
68.3536681218346871
 30
0.0
 11
368.2073639315963192
 21
68.3355120070280577
 31
0.0
  0
ARC
  5
10647
  8
0
 10
368.2064582160156192
 20
68.3337752436859631
 30
0.0
 40
0.0019587413355363
 50
43.3251284315769496
 51
62.4581276852460618
  0
ARC
  5
10648
  8
0
 10
368.207595315808021
 20
68.3348901093331875
 30
0.0
 40
0.0003678759454328
 50
333.3808107144183737
 51
38.518314280704999
  0
ARC
  5
10649
  8
0
 10
368.2053763232659094
 20
68.3374433986800796
 30
0.0
 40
0.0037255658002305
 50
281.2870470287591047
 51
313.1483321153157817
  0
ARC
  5
1064A
  8
0
 10
367.3835692191145199
 20
82.4009844686048751
 30
0.0
 40
14.09122170990765
 50
271.0437638240634897
 51
273.346385657155281
  0
ARC
  5
1064B
  8
0
 10
367.7634613596003987
 20
63.0246758322261371
 30
0.0
 40
5.2888602763473216
 50
91.3348359750646352
 51
93.6638712033971359
  0
ARC
  5
1064C
  8
0
 10
367.4328632964113126
 20
68.1875341313605219
 30
0.0
 40
0.1154280600787881
 50
93.6638712033971359
 51
103.7159613256955026
  0
LINE
  5
1064D
  8
0
 10
368.2079615359962759
 20
68.3348552455285443
 30
0.0
 11
368.2079615359962759
 21
68.3166629893280515
 31
0.0
  0
ARC
  5
1064E
  8
0
 10
368.2075175855420071
 20
68.3166629893280515
 30
0.0
 40
0.0004439504542697
 50
305.8480254785952184
 51
359.9999999999935199
  0
ARC
  5
1064F
  8
0
 10
368.2044896832628069
 20
68.3214393247525038
 30
0.0
 40
0.0060984184011474
 50
281.5622163907705726
 51
302.6250575364441033
  0
ARC
  5
10650
  8
0
 10
367.9070846122208991
 20
71.8953465977889152
 30
0.0
 40
3.5923158299929252
 50
271.049062510625788
 51
274.7684719109407752
  0
ARC
  5
10651
  8
0
 10
369.8659418046743781
 20
-0.5731944630232846
 30
0.0
 40
68.9028382991467083
 50
91.5743843057602334
 51
91.9499286413975057
  0
ARC
  5
10652
  8
0
 10
367.5382820702341746
 20
67.2857130735838638
 30
0.0
 40
1.00417332733641
 50
90.9606409477062812
 51
97.6335811247275132
  0
ARC
  5
10653
  8
0
 10
367.4883058379580234
 20
68.0747484663732507
 30
0.0
 40
0.1933580724279016
 50
90.9639972908672121
 51
104.3804790471075989
  0
ARC
  5
10654
  8
0
 10
368.1345804884085169
 20
55.3183631063347221
 30
0.0
 40
12.9659952355879096
 50
91.5261490686437753
 51
92.871417102848369
  0
ARC
  5
10655
  8
0
 10
367.5484143469894889
 20
78.6114146641304643
 30
0.0
 40
10.3344624241091907
 50
271.3353760532629053
 51
273.3780360458159748
  0
ARC
  5
10656
  8
0
 10
368.1524307250534775
 20
68.3633476672614222
 30
0.0
 40
0.0686164083995238
 50
274.1188316465501202
 51
286.5056321060619098
  0
LINE
  5
10657
  8
0
 10
368.1719253049963072
 20
68.2975588167280421
 30
0.0
 11
368.2073603956288821
 21
68.3160588305831453
 31
0.0
  0
LINE
  5
10658
  8
0
 10
368.172566809215823
 20
68.2978937343686283
 30
0.0
 11
368.1725669164962937
 21
68.2820114210280451
 31
0.0
  0
ARC
  5
10659
  8
0
 10
368.1712650285091968
 20
68.282011412234155
 30
0.0
 40
0.0013018879870894
 50
324.2294384650631969
 51
0.000387016695654
  0
ARC
  5
1065A
  8
0
 10
368.1683911850798268
 20
68.2876472008395723
 30
0.0
 40
0.0075076667771823
 50
281.5990975091032169
 51
301.5662910272034765
  0
ARC
  5
1065B
  8
0
 10
368.1096598593771887
 20
68.6597785510303851
 30
0.0
 40
0.384237366343147
 50
272.6742946841682738
 51
279.0200603703548268
  0
ARC
  5
1065C
  8
0
 10
367.2082206574544898
 20
87.9150924555790851
 30
0.0
 40
19.6606401976900784
 50
271.5301907628776235
 51
272.6802315919645139
  0
ARC
  5
1065D
  8
0
 10
367.8014454784972145
 20
64.1451235708157554
 30
0.0
 40
4.1169049640802307
 50
90.949379112129364
 51
95.0328327977755549
  0
LINE
  5
1065E
  8
0
 10
367.4402650401963228
 20
68.317791818028283
 30
0.0
 11
367.4054887892291958
 21
68.2996682741875105
 31
0.0
  0
ARC
  5
1065F
  8
0
 10
367.4066220354758912
 20
68.2974950366316023
 30
0.0
 40
0.0024509607361638
 50
117.5400275053309969
 51
127.3271328456052061
  0
ARC
  5
10660
  8
0
 10
367.4055301438411902
 20
68.2989269420873768
 30
0.0
 40
0.0006502440521497
 50
127.3271328452969016
 51
169.7009615076005957
  0
LINE
  5
10661
  8
0
 10
367.4048903764963256
 20
68.2990431964280447
 30
0.0
 11
367.4048903764963256
 21
68.2809872706650651
 31
0.0
  0
ARC
  5
10662
  8
0
 10
367.4052159264534794
 20
68.2808418434820936
 30
0.0
 40
0.0003565555218791
 50
155.929095136777903
 51
193.8202021806683035
  0
ARC
  5
10663
  8
0
 10
367.4056782003573858
 20
68.2810894715877765
 30
0.0
 40
0.0008743226602692
 50
202.3732204546435014
 51
242.47400784707159
  0
LINE
  5
10664
  8
0
 10
367.4052741313033152
 20
68.2803141211420126
 30
0.0
 11
367.4402834518962777
 21
68.2620482117280432
 31
0.0
  0
LINE
  5
10665
  8
0
 10
367.4402834518962777
 20
68.2620482117280432
 30
0.0
 11
367.4402834518962777
 21
68.246156130028055
 31
0.0
  0
LINE
  5
10666
  8
0
 10
368.172566916513972
 20
68.2820087960284496
 30
0.0
 11
368.2073798510962774
 21
68.2638539809780553
 31
0.0
  0
ARC
  5
10667
  8
0
 10
368.2064741355155775
 20
68.262117217635975
 30
0.0
 40
0.0019587413355363
 50
43.3251284315769496
 51
62.4581276852460618
  0
ARC
  5
10668
  8
0
 10
368.2076112353079793
 20
68.2632320832831851
 30
0.0
 40
0.0003678759454328
 50
333.3808107144183737
 51
38.518314280704999
  0
ARC
  5
10669
  8
0
 10
368.2053922427659245
 20
68.265785372630063
 30
0.0
 40
0.0037255658002305
 50
281.2870470287591047
 51
313.1483321153157817
  0
ARC
  5
1066A
  8
0
 10
367.3835851386144782
 20
82.3293264425548728
 30
0.0
 40
14.09122170990765
 50
271.0437638240634897
 51
273.346385657155281
  0
ARC
  5
1066B
  8
0
 10
367.7634772791003002
 20
62.9530178061761276
 30
0.0
 40
5.2888602763473216
 50
91.3348359750646352
 51
93.6638712033971359
  0
ARC
  5
1066C
  8
0
 10
367.4328792159113277
 20
68.1158761053105195
 30
0.0
 40
0.1154280600787881
 50
93.6638712033971359
 51
103.7159613256955026
  0
LINE
  5
1066D
  8
0
 10
368.207977455496291
 20
68.2631972194785419
 30
0.0
 11
368.207977455496291
 21
68.2450049632780491
 31
0.0
  0
ARC
  5
1066E
  8
0
 10
368.2075335050420222
 20
68.2450049632780491
 30
0.0
 40
0.0004439504542697
 50
305.8480254785952184
 51
359.9999999999935199
  0
ARC
  5
1066F
  8
0
 10
368.204505602762822
 20
68.2497812987025156
 30
0.0
 40
0.0060984184011474
 50
281.5622163907705726
 51
302.6250575364441033
  0
ARC
  5
10670
  8
0
 10
367.9071005317208005
 20
71.8236885717389271
 30
0.0
 40
3.5923158299929252
 50
271.049062510625788
 51
274.7684719109407752
  0
ARC
  5
10671
  8
0
 10
369.8659577241745069
 20
-0.644852489073287
 30
0.0
 40
68.9028382991467083
 50
91.5743843057602334
 51
91.9499286413975057
  0
ARC
  5
10672
  8
0
 10
367.5382979897341897
 20
67.2140550475338614
 30
0.0
 40
1.00417332733641
 50
90.9606409477062812
 51
97.6335811247275132
  0
ARC
  5
10673
  8
0
 10
367.4883217574579817
 20
68.0030904403232341
 30
0.0
 40
0.1933580724279016
 50
90.9639972908672121
 51
104.3804790471075989
  0
ARC
  5
10674
  8
0
 10
368.1345964079084752
 20
55.2467050802847197
 30
0.0
 40
12.9659952355879096
 50
91.5261490686437753
 51
92.871417102848369
  0
ARC
  5
10675
  8
0
 10
367.548430266489504
 20
78.5397566380804619
 30
0.0
 40
10.3344624241091907
 50
271.3353760532629053
 51
273.3780360458159748
  0
ARC
  5
10676
  8
0
 10
368.1524466445534927
 20
68.2916896412114198
 30
0.0
 40
0.0686164083995238
 50
274.1188316465501202
 51
286.5056321060619098
  0
LINE
  5
10677
  8
0
 10
368.1719412244963223
 20
68.2259007906780397
 30
0.0
 11
368.2073763151288972
 21
68.2444008045331429
 31
0.0
  0
LINE
  5
10678
  8
0
 10
368.1725827287157813
 20
68.2262357083186259
 30
0.0
 11
368.1725828359963089
 21
68.2103533949780427
 31
0.0
  0
ARC
  5
10679
  8
0
 10
368.1712809480093256
 20
68.2103533861841669
 30
0.0
 40
0.0013018879870894
 50
324.2294384650631969
 51
0.000387016695654
  0
ARC
  5
1067A
  8
0
 10
368.168407104579785
 20
68.2159891747895699
 30
0.0
 40
0.0075076667771823
 50
281.5990975091032169
 51
301.5662910272034765
  0
ARC
  5
1067B
  8
0
 10
368.1096757788773175
 20
68.5881205249803969
 30
0.0
 40
0.384237366343147
 50
272.6742946841682738
 51
279.0200603703548268
  0
ARC
  5
1067C
  8
0
 10
367.2082365769543912
 20
87.8434344295291112
 30
0.0
 40
19.6606401976900784
 50
271.5301907628776235
 51
272.6802315919645139
  0
ARC
  5
1067D
  8
0
 10
367.8014613979971728
 20
64.0734655447657531
 30
0.0
 40
4.1169049640802307
 50
90.949379112129364
 51
95.0328327977755549
  0
LINE
  5
1067E
  8
0
 10
367.4402834518962777
 20
68.246156130028055
 30
0.0
 11
367.4055047087290973
 21
68.2280102481375081
 31
0.0
  0
ARC
  5
1067F
  8
0
 10
367.4066379549759063
 20
68.2258370105815999
 30
0.0
 40
0.0024509607361638
 50
117.5400275053309969
 51
127.3271328456052061
  0
ARC
  5
10680
  8
0
 10
367.4055460633412054
 20
68.2272689160373744
 30
0.0
 40
0.0006502440521497
 50
127.3271328452969016
 51
169.7009615076005957
  0
LINE
  5
10681
  8
0
 10
367.4049062959962839
 20
68.2273851703780423
 30
0.0
 11
367.4049062959962839
 21
68.2093292446150627
 31
0.0
  0
ARC
  5
10682
  8
0
 10
367.4052318459534945
 20
68.2091838174321055
 30
0.0
 40
0.0003565555218791
 50
155.929095136777903
 51
193.8202021806683035
  0
ARC
  5
10683
  8
0
 10
367.4056941198574009
 20
68.2094314455377742
 30
0.0
 40
0.0008743226602692
 50
202.3732204546435014
 51
242.47400784707159
  0
LINE
  5
10684
  8
0
 10
367.4052900508032735
 20
68.2086560950920102
 30
0.0
 11
367.4402993713962928
 21
68.1903901856780408
 31
0.0
  0
LINE
  5
10685
  8
0
 10
367.4402993713962928
 20
68.1903901856780408
 30
0.0
 11
367.4402993713962928
 21
68.1744981039780527
 31
0.0
  0
LINE
  5
10686
  8
0
 10
368.1725827664905069
 20
68.2103399335673686
 30
0.0
 11
368.207357058396326
 21
68.1922052705280493
 31
0.0
  0
ARC
  5
10687
  8
0
 10
368.2064513428155124
 20
68.1904685071859689
 30
0.0
 40
0.0019587413355363
 50
43.3251284315769496
 51
62.4581276852460618
  0
ARC
  5
10688
  8
0
 10
368.2075884426080279
 20
68.1915833728331933
 30
0.0
 40
0.0003678759454328
 50
333.3808107144183737
 51
38.518314280704999
  0
ARC
  5
10689
  8
0
 10
368.2053694500659162
 20
68.1941366621800853
 30
0.0
 40
0.0037255658002305
 50
281.2870470287591047
 51
313.1483321153157817
  0
ARC
  5
1068A
  8
0
 10
367.3835623459145268
 20
82.2576777321048809
 30
0.0
 40
14.09122170990765
 50
271.0437638240634897
 51
273.346385657155281
  0
ARC
  5
1068B
  8
0
 10
367.7634544864002919
 20
62.8813690957261429
 30
0.0
 40
5.2888602763473216
 50
91.3348359750646352
 51
93.6638712033971359
  0
ARC
  5
1068C
  8
0
 10
367.4328564232113195
 20
68.0442273948605276
 30
0.0
 40
0.1154280600787881
 50
93.6638712033971359
 51
103.7159613256955026
  0
LINE
  5
1068D
  8
0
 10
368.2079546627962827
 20
68.1915485090285358
 30
0.0
 11
368.2079546627962827
 21
68.173356252828043
 31
0.0
  0
ARC
  5
1068E
  8
0
 10
368.2075107123420139
 20
68.173356252828043
 30
0.0
 40
0.0004439504542697
 50
305.8480254785952184
 51
359.9999999999935199
  0
ARC
  5
1068F
  8
0
 10
368.2044828100628138
 20
68.1781325882525095
 30
0.0
 40
0.0060984184011474
 50
281.5622163907705726
 51
302.6250575364441033
  0
ARC
  5
10690
  8
0
 10
367.9070777390207923
 20
71.7520398612889352
 30
0.0
 40
3.5923158299929252
 50
271.049062510625788
 51
274.7684719109407752
  0
ARC
  5
10691
  8
0
 10
369.8659349314743849
 20
-0.716501199523279
 30
0.0
 40
68.9028382991467083
 50
91.5743843057602334
 51
91.9499286413975057
  0
ARC
  5
10692
  8
0
 10
367.5382751970341815
 20
67.1424063370838695
 30
0.0
 40
1.00417332733641
 50
90.9606409477062812
 51
97.6335811247275132
  0
ARC
  5
10693
  8
0
 10
367.4882989647579734
 20
67.9314417298732565
 30
0.0
 40
0.1933580724279016
 50
90.9639972908672121
 51
104.3804790471075989
  0
ARC
  5
10694
  8
0
 10
368.1345736152085237
 20
55.1750563698347207
 30
0.0
 40
12.9659952355879096
 50
91.5261490686437753
 51
92.871417102848369
  0
ARC
  5
10695
  8
0
 10
367.5484074737894957
 20
78.46810792763047
 30
0.0
 40
10.3344624241091907
 50
271.3353760532629053
 51
273.3780360458159748
  0
ARC
  5
10696
  8
0
 10
368.1524238518534844
 20
68.2200409307614137
 30
0.0
 40
0.0686164083995238
 50
274.1188316465501202
 51
286.5056321060619098
  0
LINE
  5
10697
  8
0
 10
368.1719184317963141
 20
68.1542520802280478
 30
0.0
 11
368.2073535224288889
 21
68.1727520940831511
 31
0.0
  0
LINE
  5
10698
  8
0
 10
368.172559936015773
 20
68.1545869978686341
 30
0.0
 11
368.1725600432963006
 21
68.1387046845280508
 31
0.0
  0
ARC
  5
10699
  8
0
 10
368.1712581553093173
 20
68.1387046757341608
 30
0.0
 40
0.0013018879870894
 50
324.2294384650631969
 51
0.000387016695654
  0
ARC
  5
1069A
  8
0
 10
368.1683843118797768
 20
68.144340464339578
 30
0.0
 40
0.0075076667771823
 50
281.5990975091032169
 51
301.5662910272034765
  0
ARC
  5
1069B
  8
0
 10
368.1096529861771955
 20
68.516471814530405
 30
0.0
 40
0.384237366343147
 50
272.6742946841682738
 51
279.0200603703548268
  0
ARC
  5
1069C
  8
0
 10
367.2082137842544967
 20
87.7717857190791051
 30
0.0
 40
19.6606401976900784
 50
271.5301907628776235
 51
272.6802315919645139
  0
ARC
  5
1069D
  8
0
 10
367.8014386052972213
 20
64.0018168343157612
 30
0.0
 40
4.1169049640802307
 50
90.949379112129364
 51
95.0328327977755549
  0
LINE
  5
1069E
  8
0
 10
367.4402993713962928
 20
68.1744981039780527
 30
0.0
 11
367.405481916029089
 21
68.1563615376875163
 31
0.0
  0
ARC
  5
1069F
  8
0
 10
367.406615162275898
 20
68.1541883001315938
 30
0.0
 40
0.0024509607361638
 50
117.5400275053309969
 51
127.3271328456052061
  0
ARC
  5
106A0
  8
0
 10
367.4055232706411971
 20
68.1556202055873825
 30
0.0
 40
0.0006502440521497
 50
127.3271328452969016
 51
169.7009615076005957
  0
LINE
  5
106A1
  8
0
 10
367.4048835032962756
 20
68.1557364599280504
 30
0.0
 11
367.4048835032962756
 21
68.1376805341650567
 31
0.0
  0
ARC
  5
106A2
  8
0
 10
367.4052090532534862
 20
68.1375351069820994
 30
0.0
 40
0.0003565555218791
 50
155.929095136777903
 51
193.8202021806683035
  0
ARC
  5
106A3
  8
0
 10
367.4056713271573926
 20
68.1377827350877681
 30
0.0
 40
0.0008743226602692
 50
202.3732204546435014
 51
242.47400784707159
  0
LINE
  5
106A4
  8
0
 10
367.4052672581033221
 20
68.1370073846420183
 30
0.0
 11
367.4402765786962846
 21
68.1187414752280489
 31
0.0
  0
LINE
  5
106A5
  8
0
 10
367.4402765786962846
 20
68.1187414752280489
 30
0.0
 11
367.4402765786962846
 21
68.1028493935280466
 31
0.0
  0
LINE
  5
106A6
  8
0
 10
368.1725600432943111
 20
68.1387049829906033
 30
0.0
 11
368.2073743665962979
 21
68.1205494437280521
 31
0.0
  0
ARC
  5
106A7
  8
0
 10
368.206468651015598
 20
68.1188126803859717
 30
0.0
 40
0.0019587413355363
 50
43.3251284315769496
 51
62.4581276852460618
  0
ARC
  5
106A8
  8
0
 10
368.2076057508078861
 20
68.1199275460331819
 30
0.0
 40
0.0003678759454328
 50
333.3808107144183737
 51
38.518314280704999
  0
ARC
  5
106A9
  8
0
 10
368.2053867582657745
 20
68.1224808353800739
 30
0.0
 40
0.0037255658002305
 50
281.2870470287591047
 51
313.1483321153157817
  0
ARC
  5
106AA
  8
0
 10
367.3835796541144987
 20
82.1860219053048837
 30
0.0
 40
14.09122170990765
 50
271.0437638240634897
 51
273.346385657155281
  0
ARC
  5
106AB
  8
0
 10
367.7634717946003207
 20
62.8097132689261386
 30
0.0
 40
5.2888602763473216
 50
91.3348359750646352
 51
93.6638712033971359
  0
ARC
  5
106AC
  8
0
 10
367.4328737314112914
 20
67.9725715680605305
 30
0.0
 40
0.1154280600787881
 50
93.6638712033971359
 51
103.7159613256955026
  0
LINE
  5
106AD
  8
0
 10
368.2079719709963115
 20
68.1198926822285387
 30
0.0
 11
368.2079719709963115
 21
68.1017004260280459
 31
0.0
  0
ARC
  5
106AE
  8
0
 10
368.2075280205419858
 20
68.1017004260280459
 30
0.0
 40
0.0004439504542697
 50
305.8480254785952184
 51
359.9999999999935199
  0
ARC
  5
106AF
  8
0
 10
368.2045001182627857
 20
68.1064767614525124
 30
0.0
 40
0.0060984184011474
 50
281.5622163907705726
 51
302.6250575364441033
  0
ARC
  5
106B0
  8
0
 10
367.907095047220821
 20
71.6803840344889238
 30
0.0
 40
3.5923158299929252
 50
271.049062510625788
 51
274.7684719109407752
  0
ARC
  5
106B1
  8
0
 10
369.8659522396745274
 20
-0.7881570263232902
 30
0.0
 40
68.9028382991467083
 50
91.5743843057602334
 51
91.9499286413975057
  0
ARC
  5
106B2
  8
0
 10
367.5382925052342102
 20
67.0707505102838724
 30
0.0
 40
1.00417332733641
 50
90.9606409477062812
 51
97.6335811247275132
  0
ARC
  5
106B3
  8
0
 10
367.4883162729581159
 20
67.8597859030732593
 30
0.0
 40
0.1933580724279016
 50
90.9639972908672121
 51
104.3804790471075989
  0
ARC
  5
106B4
  8
0
 10
368.1345909234084957
 20
55.1034005430347165
 30
0.0
 40
12.9659952355879096
 50
91.5261490686437753
 51
92.871417102848369
  0
ARC
  5
106B5
  8
0
 10
367.5484247819895245
 20
78.3964521008304587
 30
0.0
 40
10.3344624241091907
 50
271.3353760532629053
 51
273.3780360458159748
  0
ARC
  5
106B6
  8
0
 10
368.1524411600535132
 20
68.1483851039614308
 30
0.0
 40
0.0686164083995238
 50
274.1188316465501202
 51
286.5056321060619098
  0
LINE
  5
106B7
  8
0
 10
368.171935739996286
 20
68.0825962534280507
 30
0.0
 11
368.2073708306289177
 21
68.1010962672831397
 31
0.0
  0
LINE
  5
106B8
  8
0
 10
367.4402765786962846
 20
68.1028495722280525
 30
0.0
 11
367.4054992242291178
 21
68.0847057108875191
 31
0.0
  0
ARC
  5
106B9
  8
0
 10
367.4066324704759268
 20
68.0825324733315966
 30
0.0
 40
0.0024509607361638
 50
117.5400275053309969
 51
127.3271328456052061
  0
ARC
  5
106BA
  8
0
 10
367.4055405788412259
 20
68.0839643787873712
 30
0.0
 40
0.0006502440521497
 50
127.3271328452969016
 51
169.7009615076005957
  0
LINE
  5
106BB
  8
0
 10
367.4049008114963044
 20
68.0840806331280248
 30
0.0
 11
367.4049008114963044
 21
68.0660247073650595
 31
0.0
  0
ARC
  5
106BC
  8
0
 10
367.405226361453515
 20
68.0658792801821022
 30
0.0
 40
0.0003565555218791
 50
155.929095136777903
 51
193.8202021806683035
  0
ARC
  5
106BD
  8
0
 10
367.4056886353574214
 20
68.0661269082877709
 30
0.0
 40
0.0008743226602692
 50
202.3732204546435014
 51
242.47400784707159
  0
LINE
  5
106BE
  8
0
 10
367.405284566303294
 20
68.065351557842007
 30
0.0
 11
367.4402938868963133
 21
68.0470856484280517
 31
0.0
  0
CIRCLE
  5
106BF
  8
0
 10
367.8064067724963024
 20
67.5083307450282746
 30
0.0
 40
0.3368516559999986
  0
CIRCLE
  5
106C0
  8
0
 10
367.8064067724963024
 20
67.5083307450282746
 30
0.0
 40
0.3740157479999997
  0
ARC
  5
106C1
  8
0
 10
367.8064067724963024
 20
67.5083307450282746
 30
0.0
 40
0.6023622047000003
 50
127.4337106134840951
 51
52.5663509763620098
  0
ARC
  5
106C2
  8
0
 10
367.8064067724963024
 20
67.5083307450282746
 30
0.0
 40
0.5216535432999992
 50
134.5785783236520956
 51
45.4215009593990402
  0
LINE
  5
106C3
  8
0
 10
367.4402650401963228
 20
68.0471006990260037
 30
0.0
 11
367.4402650401963228
 21
67.5846721598720848
 31
0.0
  0
LINE
  5
106C4
  8
0
 10
368.1725479906388045
 20
68.0829158983102047
 30
0.0
 11
368.1725479906388045
 21
67.5846746257855813
 31
0.0
  0
LINE
  5
106C5
  8
0
 10
367.2749107094962824
 20
67.7917953118907946
 30
0.0
 11
367.2749107094962824
 21
67.224866178165783
 31
0.0
  0
LINE
  5
106C6
  8
0
 10
368.3379028354963225
 20
67.7917953118907946
 30
0.0
 11
368.3379028354963225
 21
67.224866178165783
 31
0.0
  0
CIRCLE
  5
106C7
  8
0
 10
361.1922335440963252
 20
64.201244130828286
 30
0.0
 40
0.152480315
  0
CIRCLE
  5
106C8
  8
0
 10
361.1922335440963252
 20
64.201244130828286
 30
0.0
 40
0.1030271454254183
  0
CIRCLE
  5
106C9
  8
0
 10
361.1922335440963252
 20
67.5083307450282746
 30
0.0
 40
0.152480315
  0
CIRCLE
  5
106CA
  8
0
 10
361.1922335440963252
 20
67.5083307450282746
 30
0.0
 40
0.1030271454254183
  0
CIRCLE
  5
106CB
  8
0
 10
361.1922335440963252
 20
70.8154173591282756
 30
0.0
 40
0.152480315
  0
CIRCLE
  5
106CC
  8
0
 10
361.1922335440963252
 20
70.8154173591282756
 30
0.0
 40
0.1030271454254183
  0
CIRCLE
  5
106CD
  8
0
 10
361.1922335440963252
 20
74.1225039733282927
 30
0.0
 40
0.152480315
  0
CIRCLE
  5
106CE
  8
0
 10
361.1922335440963252
 20
74.1225039733282927
 30
0.0
 40
0.1030271454254183
  0
CIRCLE
  5
106CF
  8
0
 10
361.1922335440963252
 20
60.8941575166282902
 30
0.0
 40
0.152480315
  0
CIRCLE
  5
106D0
  8
0
 10
361.1922335440963252
 20
60.8941575166282902
 30
0.0
 40
0.1030271454254183
  0
CIRCLE
  5
106D1
  8
0
 10
364.4993201582963138
 20
60.8941575166282902
 30
0.0
 40
0.152480315
  0
CIRCLE
  5
106D2
  8
0
 10
364.4993201582963138
 20
60.8941575166282902
 30
0.0
 40
0.1030271454254183
  0
CIRCLE
  5
106D3
  8
0
 10
367.8064067724963024
 20
60.8941575166282902
 30
0.0
 40
0.152480315
  0
CIRCLE
  5
106D4
  8
0
 10
367.8064067724963024
 20
60.8941575166282902
 30
0.0
 40
0.1030271454254183
  0
CIRCLE
  5
106D5
  8
0
 10
371.1134933865963035
 20
60.8941575166282902
 30
0.0
 40
0.152480315
  0
CIRCLE
  5
106D6
  8
0
 10
371.1134933865963035
 20
60.8941575166282902
 30
0.0
 40
0.1030271454254183
  0
CIRCLE
  5
106D7
  8
0
 10
371.1134933865963035
 20
74.1225039733282927
 30
0.0
 40
0.152480315
  0
CIRCLE
  5
106D8
  8
0
 10
371.1134933865963035
 20
74.1225039733282927
 30
0.0
 40
0.1030271454254183
  0
CIRCLE
  5
106D9
  8
0
 10
367.8064067724963024
 20
74.1225039733282927
 30
0.0
 40
0.152480315
  0
CIRCLE
  5
106DA
  8
0
 10
367.8064067724963024
 20
74.1225039733282927
 30
0.0
 40
0.1030271454254183
  0
CIRCLE
  5
106DB
  8
0
 10
364.4993201582963138
 20
74.1225039733282927
 30
0.0
 40
0.152480315
  0
CIRCLE
  5
106DC
  8
0
 10
364.4993201582963138
 20
74.1225039733282927
 30
0.0
 40
0.1030271454254183
  0
CIRCLE
  5
106DD
  8
0
 10
374.4205800007962921
 20
64.201244130828286
 30
0.0
 40
0.152480315
  0
CIRCLE
  5
106DE
  8
0
 10
374.4205800007962921
 20
64.201244130828286
 30
0.0
 40
0.1030271454254183
  0
CIRCLE
  5
106DF
  8
0
 10
374.4205800007962921
 20
67.5083307450282746
 30
0.0
 40
0.152480315
  0
CIRCLE
  5
106E0
  8
0
 10
374.4205800007962921
 20
67.5083307450282746
 30
0.0
 40
0.1030271454254183
  0
CIRCLE
  5
106E1
  8
0
 10
374.4205800007962921
 20
70.8154173591282756
 30
0.0
 40
0.152480315
  0
CIRCLE
  5
106E2
  8
0
 10
374.4205800007962921
 20
70.8154173591282756
 30
0.0
 40
0.1030271454254183
  0
CIRCLE
  5
106E3
  8
0
 10
374.4205800007962921
 20
74.1225039733282927
 30
0.0
 40
0.152480315
  0
CIRCLE
  5
106E4
  8
0
 10
374.4205800007962921
 20
74.1225039733282927
 30
0.0
 40
0.1030271454254183
  0
CIRCLE
  5
106E5
  8
0
 10
374.4205800007962921
 20
60.8941575166282902
 30
0.0
 40
0.152480315
  0
CIRCLE
  5
106E6
  8
0
 10
374.4205800007962921
 20
60.8941575166282902
 30
0.0
 40
0.1030271454254183
  0
CIRCLE
  5
106E9
  8
0
 10
374.5386902369962741
 20
59.9886457056282865
 30
0.0
 40
0.4015748030999994
  0
CIRCLE
  5
106EA
  8
0
 10
374.5386902369962741
 20
59.9886457056282865
 30
0.0
 40
0.3495000000000008
  0
CIRCLE
  5
106EB
  8
0
 10
361.074123307996274
 20
59.9886457056282865
 30
0.0
 40
0.4330708660999996
  0
CIRCLE
  5
106EC
  8
0
 10
361.074123307996274
 20
59.9886457056282865
 30
0.0
 40
0.4015748030999994
  0
CIRCLE
  5
106ED
  8
0
 10
361.074123307996274
 20
59.9886457056282865
 30
0.0
 40
0.3495000000000008
  0
CIRCLE
  5
106EE
  8
0
 10
374.5386902369962741
 20
75.0280157843282893
 30
0.0
 40
0.4330708660999996
  0
CIRCLE
  5
106EF
  8
0
 10
374.5386902369962741
 20
75.0280157843282893
 30
0.0
 40
0.4015748030999994
  0
CIRCLE
  5
106F0
  8
0
 10
374.5386902369962741
 20
75.0280157843282893
 30
0.0
 40
0.3495000000000008
  0
CIRCLE
  5
106F1
  8
0
 10
361.074123307996274
 20
75.0280157843282893
 30
0.0
 40
0.4330708660999996
  0
CIRCLE
  5
106F2
  8
0
 10
361.074123307996274
 20
75.0280157843282893
 30
0.0
 40
0.4015748030999994
  0
CIRCLE
  5
106F3
  8
0
 10
361.074123307996274
 20
75.0280157843282893
 30
0.0
 40
0.3495000000000008
  0
ENDSEC
  0
EOF
