  0
SECTION
  2
HEADER
  9
$ACADVER
  1
AC1009
  9
$INSBASE
 10
735.7195666024540515
 20
126.965109298009196
 30
0.0
  9
$EXTMIN
 10
728.1055337031630188
 20
100.998581056311707
 30
-0.0000000000000129
  9
$EXTMAX
 10
748.1235404818453389
 20
126.9811458582252044
 30
0.0000000000000023
  9
$LIMMIN
 10
0.0
 20
0.0
  9
$LIMMAX
 10
11.6929133858000007
 20
8.2677165353999982
  9
$ORTHOMODE
 70
     0
  9
$REGENMODE
 70
     1
  9
$FILLMODE
 70
     1
  9
$QTEXTMODE
 70
     0
  9
$MIRRTEXT
 70
     0
  9
$DRAGMODE
 70
     2
  9
$LTSCALE
 40
0.6431102362
  9
$OSMODE
 70
  4095
  9
$ATTMODE
 70
     1
  9
$TEXTSIZE
 40
0.2
  9
$TRACEWID
 40
0.05
  9
$TEXTSTYLE
  7
STANDARD
  9
$CLAYER
  8
0
  9
$CELTYPE
  6
BYLAYER
  9
$CECOLOR
 62
   256
  9
$DIMSCALE
 40
1.0
  9
$DIMASZ
 40
0.1875
  9
$DIMEXO
 40
0.0625
  9
$DIMDLI
 40
0.4443307087
  9
$DIMRND
 40
0.0
  9
$DIMDLE
 40
0.0
  9
$DIMEXE
 40
0.125
  9
$DIMTP
 40
0.01
  9
$DIMTM
 40
0.01
  9
$DIMTXT
 40
1.0
  9
$DIMCEN
 40
0.1052362205
  9
$DIMTSZ
 40
0.0
  9
$DIMTOL
 70
     1
  9
$DIMLIM
 70
     0
  9
$DIMTIH
 70
     0
  9
$DIMTOH
 70
     1
  9
$DIMSE1
 70
     0
  9
$DIMSE2
 70
     0
  9
$DIMTAD
 70
     0
  9
$DIMZIN
 70
     0
  9
$DIMBLK
  1

  9
$DIMASO
 70
     1
  9
$DIMSHO
 70
     1
  9
$DIMPOST
  1
\X
  9
$DIMAPOST
  1

  9
$DIMALT
 70
     1
  9
$DIMALTD
 70
     2
  9
$DIMALTF
 40
25.3999999999999986
  9
$DIMLFAC
 40
1.0
  9
$DIMTOFL
 70
     0
  9
$DIMTVP
 40
0.0
  9
$DIMTIX
 70
     0
  9
$DIMSOXD
 70
     0
  9
$DIMSAH
 70
     0
  9
$DIMBLK1
  1

  9
$DIMBLK2
  1

  9
$DIMSTYLE
  2
STANDARD
  9
$DIMCLRD
 70
     0
  9
$DIMCLRE
 70
     0
  9
$DIMCLRT
 70
     0
  9
$DIMTFAC
 40
1.0
  9
$DIMGAP
 40
0.09
  9
$LUNITS
 70
     2
  9
$LUPREC
 70
     4
  9
$SKETCHINC
 40
0.1
  9
$FILLETRAD
 40
0.02
  9
$AUNITS
 70
     0
  9
$AUPREC
 70
     0
  9
$MENU
  1
.
  9
$ELEVATION
 40
0.0
  9
$PELEVATION
 40
0.0
  9
$THICKNESS
 40
0.0
  9
$LIMCHECK
 70
     0
  9
$BLIPMODE
 70
     0
  9
$CHAMFERA
 40
0.0
  9
$CHAMFERB
 40
0.0
  9
$SKPOLY
 70
     0
  9
$TDCREATE
 40
2458172.5207638889551163
  9
$TDUPDATE
 40
2459102.6282523148693144
  9
$TDINDWG
 40
0.3895840509
  9
$TDUSRTIMER
 40
0.3895840509
  9
$USRTIMER
 70
     1
  9
$ANGBASE
 50
0.0
  9
$ANGDIR
 70
     0
  9
$PDMODE
 70
     0
  9
$PDSIZE
 40
0.3125
  9
$PLINEWID
 40
0.0
  9
$COORDS
 70
     1
  9
$SPLFRAME
 70
     0
  9
$SPLINETYPE
 70
     6
  9
$SPLINESEGS
 70
     8
  9
$ATTDIA
 70
     1
  9
$ATTREQ
 70
     1
  9
$HANDLING
 70
     1
  9
$HANDSEED
  5
C4F2
  9
$SURFTAB1
 70
     6
  9
$SURFTAB2
 70
     6
  9
$SURFTYPE
 70
     6
  9
$SURFU
 70
     6
  9
$SURFV
 70
     6
  9
$UCSNAME
  2

  9
$UCSORG
 10
0.0
 20
0.0
 30
0.0
  9
$UCSXDIR
 10
1.0
 20
0.0
 30
0.0
  9
$UCSYDIR
 10
0.0
 20
1.0
 30
0.0
  9
$PUCSNAME
  2

  9
$PUCSORG
 10
0.0
 20
0.0
 30
0.0
  9
$PUCSXDIR
 10
1.0
 20
0.0
 30
0.0
  9
$PUCSYDIR
 10
0.0
 20
1.0
 30
0.0
  9
$USERI1
 70
     0
  9
$USERI2
 70
     0
  9
$USERI3
 70
     0
  9
$USERI4
 70
     0
  9
$USERI5
 70
     0
  9
$USERR1
 40
0.0
  9
$USERR2
 40
0.0
  9
$USERR3
 40
0.0
  9
$USERR4
 40
0.0
  9
$USERR5
 40
0.0
  9
$WORLDVIEW
 70
     1
  9
$SHADEDGE
 70
     3
  9
$SHADEDIF
 70
    70
  9
$TILEMODE
 70
     1
  9
$MAXACTVP
 70
    64
  9
$PLIMCHECK
 70
     0
  9
$PEXTMIN
 10
1.0000000000000000E+20
 20
1.0000000000000000E+20
 30
1.0000000000000000E+20
  9
$PEXTMAX
 10
-1.0000000000000000E+20
 20
-1.0000000000000000E+20
 30
-1.0000000000000000E+20
  9
$PLIMMIN
 10
0.0
 20
0.0
  9
$PLIMMAX
 10
12.0
 20
9.0
  9
$UNITMODE
 70
     0
  9
$VISRETAIN
 70
     1
  9
$PLINEGEN
 70
     0
  9
$PSLTSCALE
 70
     1
  0
ENDSEC
  0
SECTION
  2
TABLES
  0
TABLE
  2
VPORT
 70
     1
  0
VPORT
  2
*ACTIVE
 70
     0
 10
0.0
 20
0.0
 11
1.0
 21
1.0
 12
271.372335384674102
 22
24.856716337338721
 13
0.0
 23
0.0
 14
1.0
 24
1.0
 15
0.0
 25
0.0
 16
0.0
 26
0.0
 36
24.1179433675886514
 17
466.74220170783002
 27
89.133147119929788
 37
0.0
 40
26.1452948528649394
 41
2.005224660397074
 42
50.0
 43
0.0
 44
0.0
 50
0.0
 51
0.0
 71
     0
 72
   100
 73
     1
 74
     1
 75
     0
 76
     0
 77
     0
 78
     0
  0
ENDTAB
  0
TABLE
  2
LTYPE
 70
     2
  0
LTYPE
  2
CONTINUOUS
 70
     0
  3
Solid line
 72
    65
 73
     0
 40
0.0
  0
LTYPE
  2
PHANTOM2
 70
     0
  3
___ _ _ ___ _ _ ___ _ _ ___ _ _
 72
    65
 73
     6
 40
1.25
 49
0.625
 49
-0.125
 49
0.125
 49
-0.125
 49
0.125
 49
-0.125
  0
ENDTAB
  0
TABLE
  2
LAYER
 70
     2
  0
LAYER
  2
0
 70
     0
 62
   255
  6
CONTINUOUS
  0
LAYER
  2
DEFPOINTS
 70
     0
 62
     7
  6
CONTINUOUS
  0
ENDTAB
  0
TABLE
  2
STYLE
 70
     1
  0
STYLE
  2
STANDARD
 70
     0
 40
0.0
 41
0.8
 50
0.0
 71
     0
 42
0.2
  3
txt
  4

  0
ENDTAB
  0
TABLE
  2
VIEW
 70
     0
  0
ENDTAB
  0
TABLE
  2
UCS
 70
     0
  0
ENDTAB
  0
TABLE
  2
APPID
 70
    11
  0
APPID
  2
ACAD
 70
     0
  0
APPID
  2
ACAD_MLEADERVER
 70
     0
  0
APPID
  2
ACAD_EXEMPT_FROM_CAD_STANDARDS
 70
     0
  0
APPID
  2
ACAD_DSTYLE_DIMJAG
 70
     0
  0
APPID
  2
ACAD_DSTYLE_DIMTALN
 70
     0
  0
APPID
  2
ACAD_NAV_VCDISPLAY
 70
     0
  0
APPID
  2
ACAECLAYERSTANDARD
 70
     0
  0
APPID
  2
ACCMTRANSPARENCY
 70
     0
  0
APPID
  2
DCO15
 70
     0
  0
APPID
  2
ACDBATTR
 70
     0
  0
APPID
  2
ACADANNOTATIVE
 70
     0
  0
ENDTAB
  0
TABLE
  2
DIMSTYLE
 70
     1
  0
DIMSTYLE
  2
STANDARD
 70
     0
  3

  4

  5

  6

  7

 40
1.0
 41
0.1875
 42
0.0625
 43
0.38
 44
0.125
 45
0.0
 46
0.0
 47
0.01
 48
0.01
140
0.15625
141
0.09
142
0.0
143
25.3999999999999986
144
1.0
145
0.0
146
1.0
147
0.09
 71
     1
 72
     0
 73
     1
 74
     1
 75
     0
 76
     0
 77
     0
 78
     4
170
     0
171
     2
172
     0
173
     0
174
     0
175
     0
176
     0
177
     0
178
     0
  0
ENDTAB
  0
ENDSEC
  0
SECTION
  2
BLOCKS
  0
BLOCK
  8
0
  2
$MODEL_SPACE
 70
     0
 10
0.0
 20
0.0
 30
0.0
  3
$MODEL_SPACE
  1

  0
ENDBLK
  5
21
  8
0
  0
BLOCK
 67
     1
  8
0
  2
$PAPER_SPACE
 70
     0
 10
0.0
 20
0.0
 30
0.0
  3
$PAPER_SPACE
  1

  0
ENDBLK
  5
1D
 67
     1
  8
0
  0
ENDSEC
  0
SECTION
  2
ENTITIES
  0
ATTDEF
  5
829
  8
DEFPOINTS
 10
735.7148732903349355
 20
126.971863175375006
 30
0.0
 40
0.001
  1
K-98336T-C4
  3

  2
MODELNUMBER
 70
     0
1001
ACDBATTR
1070
     0
1070
     1
  0
ATTDEF
  5
82A
  8
DEFPOINTS
 10
735.7148732903349355
 20
126.9701965087083977
 30
0.0
 40
0.001
  1
STRAYT
  3

  2
TRADENAME
 70
     0
1001
ACDBATTR
1070
     0
1070
     1
  0
ATTDEF
  5
82B
  8
DEFPOINTS
 10
735.7148732903349355
 20
126.9685298420417041
 30
0.0
 40
0.001
  1
SHOWER COLUMN
  3

  2
PRODUCT
 70
     0
1001
ACDBATTR
1070
     0
1070
     1
  0
LINE
  5
C324
  8
0
 10
736.6250784134540481
 20
107.4021321325250966
 30
0.0
 11
736.6250784134540481
 21
124.3115659908251018
 31
0.0
  0
LINE
  5
C325
  8
0
 10
734.8140547914540548
 20
107.4021321325250966
 30
0.0
 11
734.8140547914540548
 21
124.3115659908251018
 31
0.0
  0
LINE
  5
C326
  8
0
 10
731.3888579410538568
 20
122.9729833136250932
 30
0.0
 11
731.3888579410538568
 21
124.7840069357251025
 31
0.0
  0
LINE
  5
C327
  8
0
 10
730.0817713268538682
 20
121.8696056987390932
 30
0.0
 11
730.0817713268538682
 21
124.7456535901366976
 31
0.0
  0
LINE
  5
C328
  8
0
 10
731.3416138465538552
 20
122.9981294160453018
 30
0.0
 11
731.3416138465538552
 21
124.7561639742957027
 31
0.0
  0
LINE
  5
C329
  8
0
 10
737.865054791453872
 20
124.0992071465527999
 30
0.0
 11
737.865054791453872
 21
124.2617088631250937
 31
0.0
  0
LINE
  5
C32A
  8
0
 10
737.8179917992539458
 20
124.088034776437695
 30
0.0
 11
737.8179917992539458
 21
124.2816768689251035
 31
0.0
  0
ARC
  5
C32B
  8
0
 10
735.5839717198509788
 20
133.6034323170761979
 30
0.0
 40
9.7741309624725439
 50
281.1942631197085802
 51
286.0493019606421967
  0
ARC
  5
C32C
  8
0
 10
738.5828642874781735
 20
118.3283956684283993
 30
0.0
 40
5.7925334514293159
 50
100.9608366788787066
 51
107.4267177947912018
  0
ARC
  5
C32D
  8
0
 10
737.3811506310803452
 20
122.1994330421862003
 30
0.0
 40
1.739324422678709
 50
107.8472033077441949
 51
115.7657630299195972
  0
ARC
  5
C32E
  8
0
 10
738.2080038169607406
 20
150.5042546556504135
 30
0.0
 40
28.1573562924368304
 50
266.777297430190572
 51
269.9867808238670932
  0
ARC
  5
C32F
  8
0
 10
738.6894488272572517
 20
176.7288211473585022
 30
0.0
 40
54.384111016210241
 50
269.4859278053239109
 51
270.1061786037822117
  0
ARC
  5
C330
  8
0
 10
736.9229334439515924
 20
123.473407372009703
 30
0.0
 40
1.6153290036886201
 50
259.3742668857390186
 51
266.0573611236920897
  0
ARC
  5
C331
  8
0
 10
737.8234329926272039
 20
136.5391138744732871
 30
0.0
 40
14.7120303382111395
 50
266.0573611236920897
 51
268.5976342461048034
  0
ARC
  5
C332
  8
0
 10
739.3216630422965636
 20
197.7393505683936041
 30
0.0
 40
75.93060321175669
 50
268.5976342461048034
 51
269.5989910728409882
  0
ARC
  5
C333
  8
0
 10
738.6360509834547656
 20
123.9520163642139039
 30
0.0
 40
0.4348607703535745
 50
113.4438221305534995
 51
143.5696503366077081
  0
ARC
  5
C334
  8
0
 10
738.7923943392709134
 20
123.591484981922207
 30
0.0
 40
0.8278316630733517
 50
90.1473161292842349
 51
113.4438221305534995
  0
ARC
  5
C335
  8
0
 10
737.7667246615110344
 20
122.0725191649586066
 30
0.0
 40
0.2513393897200868
 50
259.1754758264364114
 51
277.3430705489905108
  0
ARC
  5
C336
  8
0
 10
737.7953357390364317
 20
121.8504991118582979
 30
0.0
 40
0.027483414289779
 50
277.3430705489971047
 51
284.9614978752831007
  0
ARC
  5
C337
  8
0
 10
738.2338895039138151
 20
121.8341005871264997
 30
0.0
 40
0.0291952540144705
 50
216.1436896940392955
 51
266.8293476399401243
  0
ARC
  5
C338
  8
0
 10
738.2804700677510255
 20
122.2600275116225959
 30
0.0
 40
0.4576224553531432
 50
263.954578018876191
 51
274.2731847296001888
  0
ARC
  5
C339
  8
0
 10
738.3139660752207192
 20
121.828352423427404
 30
0.0
 40
0.0246825809016856
 50
271.398415108533527
 51
327.6921059121801818
  0
ARC
  5
C33A
  8
0
 10
738.784815295612475
 20
122.1160453066906939
 30
0.0
 40
0.3194442837781637
 50
262.2632104086549134
 51
270.726221982883601
  0
ARC
  5
C33B
  8
0
 10
738.7472103853414183
 20
121.8244993113540033
 30
0.0
 40
0.0255670316303486
 50
211.6377495341878046
 51
257.8079794359546781
  0
ARC
  5
C33C
  8
0
 10
741.9965286498741079
 20
133.6034323170761979
 30
0.0
 40
9.7741309624725439
 50
253.9506980393578033
 51
258.8057368802914198
  0
ARC
  5
C33D
  8
0
 10
738.9976360822466859
 20
118.3283956684283993
 30
0.0
 40
5.7925334514293159
 50
72.5732822052087698
 51
79.0391633211212365
  0
ARC
  5
C33E
  8
0
 10
740.1993497386447416
 20
122.1994330421862003
 30
0.0
 40
1.739324422678709
 50
60.5067587753502707
 51
72.1527966922558193
  0
ARC
  5
C33F
  8
0
 10
740.8674481519891515
 20
123.3087274075102044
 30
0.0
 40
0.4462662507743679
 50
12.0658311025810505
 51
65.0556517182248228
  0
ARC
  5
C340
  8
0
 10
738.2431026226677204
 20
122.8813560387202983
 30
0.0
 40
3.1047208932590502
 50
0.9183347401395304
 51
9.6540277945479662
  0
ARC
  5
C341
  8
0
 10
740.5716380860344543
 20
122.9328242237562989
 30
0.0
 40
0.7757885238756418
 50
330.2123296477990948
 51
359.8738588195370198
  0
ARC
  5
C342
  8
0
 10
740.8449213812608605
 20
122.9249272266230975
 30
0.0
 40
0.550010544440548
 50
284.783445792601924
 51
316.6574020821548743
  0
ARC
  5
C343
  8
0
 10
739.3724965527644599
 20
150.5042546556504135
 30
0.0
 40
28.1573562924368304
 50
270.0132191761327931
 51
273.2835276872938834
  0
ARC
  5
C344
  8
0
 10
738.8910515424679488
 20
176.7288211473585022
 30
0.0
 40
54.384111016210241
 50
269.8938213962111945
 51
270.5140721946762028
  0
ARC
  5
C345
  8
0
 10
740.96259778295655
 20
122.2157201143785983
 30
0.0
 40
0.3211802248221485
 50
283.6328885041926924
 51
325.311818780289002
  0
ARC
  5
C346
  8
0
 10
740.657566925773267
 20
123.473407372009703
 30
0.0
 40
1.6153290036886201
 50
273.9426388763079103
 51
283.6328885041926924
  0
ARC
  5
C347
  8
0
 10
739.7570673770977692
 20
136.5391138744732871
 30
0.0
 40
14.7120303382111395
 50
271.4023657538953103
 51
273.9426388763079103
  0
ARC
  5
C348
  8
0
 10
738.2588373274285232
 20
197.7393505683936041
 30
0.0
 40
75.93060321175669
 50
270.4010089271590118
 51
271.4023657538953103
  0
ARC
  5
C349
  8
0
 10
740.8024746818362019
 20
122.3121186464912995
 30
0.0
 40
0.5078432123259961
 50
326.6503283207106847
 51
342.014235034093474
  0
ARC
  5
C34A
  8
0
 10
740.4767695544708204
 20
122.4178572008566022
 30
0.0
 40
0.8502822169259241
 50
342.014235034093474
 51
355.3806435563619743
  0
ARC
  5
C34B
  8
0
 10
735.5259042137970482
 20
122.817877810334096
 30
0.0
 40
5.8172817246259543
 50
355.3806435563619743
 51
0.3255425406679384
  0
ARC
  5
C34C
  8
0
 10
738.9444493862703212
 20
123.9520163642139039
 30
0.0
 40
0.4348607703535745
 50
36.430349663392299
 51
66.5561778694464437
  0
ARC
  5
C34D
  8
0
 10
738.7881060304540597
 20
123.591484981922207
 30
0.0
 40
0.8278316630733517
 50
66.5561778694464437
 51
89.8526838707157651
  0
ARC
  5
C34E
  8
0
 10
739.811020979155046
 20
122.0725191649586066
 30
0.0
 40
0.2513393897200868
 50
262.6569294510094892
 51
280.744958162957289
  0
ARC
  5
C34F
  8
0
 10
739.7824099016296486
 20
121.8504991118582979
 30
0.0
 40
0.027483414289779
 50
255.4576387185358897
 51
262.656929451003009
  0
ARC
  5
C350
  8
0
 10
739.3438561367522652
 20
121.8341005871264997
 30
0.0
 40
0.0291952540144705
 50
273.1706523600598189
 51
323.7573169386010932
  0
ARC
  5
C351
  8
0
 10
739.2972755729150549
 20
122.2600275116225959
 30
0.0
 40
0.4576224553531432
 50
265.7268152703998112
 51
276.045421981123809
  0
ARC
  5
C352
  8
0
 10
739.2637795654453612
 20
121.828352423427404
 30
0.0
 40
0.0246825809016856
 50
212.4053475972040133
 51
268.6015848914598791
  0
ARC
  5
C353
  8
0
 10
738.7929303450536054
 20
122.1160453066906939
 30
0.0
 40
0.3194442837781637
 50
269.2737780171165127
 51
277.7367895913450866
  0
ARC
  5
C354
  8
0
 10
738.8305352553246621
 20
121.8244993113540033
 30
0.0
 40
0.0255670316303486
 50
282.1920205640453219
 51
328.3051515689679718
  0
LINE
  5
C355
  8
0
 10
731.2940879547736586
 20
121.8316657823708056
 30
0.0
 11
730.1091304744735453
 21
121.8420067496625023
 31
0.0
  0
LINE
  5
C356
  8
0
 10
731.321928807153995
 20
121.859264731447297
 30
0.0
 11
731.321928807153995
 21
122.6776228486124012
 31
0.0
  0
ARC
  5
C357
  8
0
 10
731.2943288071538745
 20
121.859264731447297
 30
0.0
 40
0.0276
 50
269.4999999988945092
 51
0.0
  0
ARC
  5
C358
  8
0
 10
730.1093713268539886
 20
121.8696056987390932
 30
0.0
 40
0.0276
 50
180.0
 51
269.4999999988879722
  0
LINE
  5
C359
  8
0
 10
730.1091305288101694
 20
124.7732525396874053
 30
0.0
 11
731.3137730485102566
 21
124.7837629238463961
 31
0.0
  0
ARC
  5
C35A
  8
0
 10
730.1093713268539886
 20
124.7456535901366976
 30
0.0
 40
0.0276
 50
90.4998871977459203
 51
180.0
  0
ARC
  5
C35B
  8
0
 10
731.3140138465539621
 20
124.7561639742957027
 30
0.0
 40
0.0276
 50
0.000000000029312
 51
90.4998871977524146
  0
ARC
  5
C35C
  8
0
 10
733.5456004410530113
 20
122.6777255472898958
 30
0.0
 40
2.2236716362703839
 50
172.9685373864980136
 51
180.0026461644295068
  0
ARC
  5
C35D
  8
0
 10
730.9479138465538881
 20
122.9981294160453018
 30
0.0
 40
0.3937
 50
352.968537386498781
 51
0.0
  0
LINE
  5
C35E
  8
0
 10
731.3416138465538552
 20
123.254837715125106
 30
0.0
 11
731.3888579410538568
 21
123.254837715125106
 31
0.0
  0
LINE
  5
C35F
  8
0
 10
731.3416138465538552
 20
123.2760548372251037
 30
0.0
 11
731.3888579410538568
 21
123.2760548372251037
 31
0.0
  0
LINE
  5
C360
  8
0
 10
731.3416138465538552
 20
123.3322373213250955
 30
0.0
 11
731.3888579410538568
 21
123.3322373213250955
 31
0.0
  0
LINE
  5
C361
  8
0
 10
731.3416138465538552
 20
123.3591217187251061
 30
0.0
 11
731.3888579410538568
 21
123.3591217187251061
 31
0.0
  0
LINE
  5
C362
  8
0
 10
731.3416138465538552
 20
123.4910016050251045
 30
0.0
 11
731.3888579410538568
 21
123.4910016050251045
 31
0.0
  0
LINE
  5
C363
  8
0
 10
731.3416138465538552
 20
123.5212584932251048
 30
0.0
 11
731.3888579410538568
 21
123.5212584932251048
 31
0.0
  0
LINE
  5
C364
  8
0
 10
731.3416138465538552
 20
123.7034613178251021
 30
0.0
 11
731.3888579410538568
 21
123.7034613178251021
 31
0.0
  0
LINE
  5
C365
  8
0
 10
731.3416138465538552
 20
123.7271228216251018
 30
0.0
 11
731.3888579410538568
 21
123.7271228216251018
 31
0.0
  0
LINE
  5
C366
  8
0
 10
731.3416138465538552
 20
123.7377813064251058
 30
0.0
 11
731.3888579410538568
 21
123.7377813064251058
 31
0.0
  0
LINE
  5
C367
  8
0
 10
731.3416138465538552
 20
124.5021525342251039
 30
0.0
 11
731.3888579410538568
 21
124.5021525342251039
 31
0.0
  0
LINE
  5
C368
  8
0
 10
731.3416138465538552
 20
124.4887313451251032
 30
0.0
 11
731.3888579410538568
 21
124.4887313451251032
 31
0.0
  0
LINE
  5
C369
  8
0
 10
731.3416138465538552
 20
124.463090207825104
 30
0.0
 11
731.3888579410538568
 21
124.463090207825104
 31
0.0
  0
LINE
  5
C36A
  8
0
 10
731.3416138465538552
 20
124.3799051093250938
 30
0.0
 11
731.3888579410538568
 21
124.3799051093250938
 31
0.0
  0
LINE
  5
C36B
  8
0
 10
731.3416138465538552
 20
124.3665524377251046
 30
0.0
 11
731.3888579410538568
 21
124.3665524377251046
 31
0.0
  0
LINE
  5
C36C
  8
0
 10
731.3416138465538552
 20
124.3516080188251038
 30
0.0
 11
731.3888579410538568
 21
124.3516080188251038
 31
0.0
  0
LINE
  5
C36D
  8
0
 10
731.3416138465538552
 20
124.1988691404251028
 30
0.0
 11
731.3888579410538568
 21
124.1988691404251028
 31
0.0
  0
LINE
  5
C36E
  8
0
 10
731.3416138465538552
 20
124.1811526050251047
 30
0.0
 11
731.3888579410538568
 21
124.1811526050251047
 31
0.0
  0
LINE
  5
C36F
  8
0
 10
731.3416138465538552
 20
124.1680986804251035
 30
0.0
 11
731.3888579410538568
 21
124.1680986804251035
 31
0.0
  0
LINE
  5
C370
  8
0
 10
731.3416138465538552
 20
123.9757265229251004
 30
0.0
 11
731.3888579410538568
 21
123.9757265229251004
 31
0.0
  0
LINE
  5
C371
  8
0
 10
731.3416138465538552
 20
123.9496759145251019
 30
0.0
 11
731.3888579410538568
 21
123.9496759145251019
 31
0.0
  0
LINE
  5
C372
  8
0
 10
731.3416138465538552
 20
123.9404998259251016
 30
0.0
 11
731.3888579410538568
 21
123.9404998259251016
 31
0.0
  0
LINE
  5
C373
  8
0
 10
731.3888579410538568
 20
124.7840069357251025
 30
0.0
 11
734.8534248701539582
 21
124.7840069357251025
 31
0.0
  0
LINE
  5
C374
  8
0
 10
736.5857083347540311
 20
124.7840069357251025
 30
0.0
 11
740.0502752638540187
 21
124.7840069357251025
 31
0.0
  0
LINE
  5
C375
  8
0
 10
731.3888579410538568
 20
122.9729833136250932
 30
0.0
 11
734.8140547914540548
 21
122.9729833136250932
 31
0.0
  0
LINE
  5
C376
  8
0
 10
733.8401101470540198
 20
126.9651092979250961
 30
0.0
 11
731.6935112467540421
 21
126.9651092979250961
 31
0.0
  0
LINE
  5
C377
  8
0
 10
731.6935112467540421
 20
126.9651092979250961
 30
0.0
 11
731.7034777329132567
 21
125.8230631102240977
 31
0.0
  0
LINE
  5
C378
  8
0
 10
733.8401101470540198
 20
126.9651092979250961
 30
0.0
 11
733.8301436609026496
 21
125.8230631102243962
 31
0.0
  0
LINE
  5
C379
  8
0
 10
733.7907451611338274
 20
125.7840069357251025
 30
0.0
 11
731.7428762326819651
 21
125.7840069357251025
 31
0.0
  0
ARC
  5
C37A
  8
0
 10
733.7907451611338274
 20
125.823406935725103
 30
0.0
 40
0.0394
 50
270.0
 51
359.4999999969671762
  0
ARC
  5
C37B
  8
0
 10
731.7428762326819651
 20
125.823406935725103
 30
0.0
 40
0.0394
 50
180.5000000034243897
 51
269.9999999999935199
  0
LINE
  5
C37C
  8
0
 10
732.1368894370540374
 20
125.3155029987250941
 30
0.0
 11
732.1368894370540374
 21
124.8627470932250958
 31
0.0
  0
LINE
  5
C37D
  8
0
 10
733.3967319567540244
 20
125.3155029987250941
 30
0.0
 11
733.3967319567540244
 21
124.8627470932251953
 31
0.0
  0
LINE
  5
C37E
  8
0
 10
733.4065744764540113
 20
125.4021172863250939
 30
0.0
 11
733.4065744764540113
 21
125.7840069357251025
 31
0.0
  0
LINE
  5
C37F
  8
0
 10
732.1270469173540505
 20
125.4021172863250939
 30
0.0
 11
732.1270469173540505
 21
125.7840069357251025
 31
0.0
  0
LINE
  5
C380
  8
0
 10
733.3868893261540052
 20
125.3824321325250963
 30
0.0
 11
732.1467320676540567
 21
125.3824321325250963
 31
0.0
  0
LINE
  5
C381
  8
0
 10
732.1270469173540505
 20
125.4021172863250939
 30
0.0
 11
732.1467320676540567
 21
125.3824321325250963
 31
0.0
  0
LINE
  5
C382
  8
0
 10
733.4065744764540113
 20
125.4021172863250939
 30
0.0
 11
733.3868893261540052
 21
125.3824321325250963
 31
0.0
  0
LINE
  5
C383
  8
0
 10
732.1270469173540505
 20
125.4021172863250939
 30
0.0
 11
732.5207488642497538
 21
125.4021172863250939
 31
0.0
  0
LINE
  5
C384
  8
0
 10
733.0128738622539686
 20
125.4021172863250939
 30
0.0
 11
733.4065744764540113
 21
125.4021172863250939
 31
0.0
  0
LINE
  5
C385
  8
0
 10
732.5207488642497538
 20
125.4021172863250939
 30
0.0
 11
732.5207488642497538
 21
125.7840069357251025
 31
0.0
  0
LINE
  5
C386
  8
0
 10
733.0128738622539686
 20
125.4021172863253071
 30
0.0
 11
733.0128738622539686
 21
125.7840069357251025
 31
0.0
  0
ARC
  5
C387
  8
0
 10
732.8272349791707256
 20
126.1969543306448003
 30
0.0
 40
0.8518800770426347
 50
248.913552133561609
 51
252.9690242592446054
  0
ARC
  5
C388
  8
0
 10
732.7065361599546804
 20
126.1965707419227982
 30
0.0
 40
0.8514687786179364
 50
287.0287532844760108
 51
291.0864163308169168
  0
LINE
  5
C389
  8
0
 10
733.3967319567540244
 20
125.3155029987250941
 30
0.0
 11
732.1368894370540374
 21
125.3155029987250941
 31
0.0
  0
LINE
  5
C38A
  8
0
 10
732.3455508543538599
 20
125.3824321325250963
 30
0.0
 11
732.3455508543538599
 21
125.3155029987250941
 31
0.0
  0
LINE
  5
C38B
  8
0
 10
733.1880705394539746
 20
125.3155029987250941
 30
0.0
 11
733.1880705394539746
 21
125.3824321325250963
 31
0.0
  0
ARC
  5
C38C
  8
0
 10
732.0581492795539589
 20
124.8627470932250958
 30
0.0
 40
0.0787401575000109
 50
270.0
 51
0.0
  0
ARC
  5
C38D
  8
0
 10
733.4754721142538756
 20
124.8627470932251953
 30
0.0
 40
0.078740157500029
 50
180.0000000000202931
 51
270.0
  0
LINE
  5
C38E
  8
0
 10
737.5990230578539695
 20
126.9651092979250961
 30
0.0
 11
739.7456219581539472
 21
126.9651092979250961
 31
0.0
  0
LINE
  5
C38F
  8
0
 10
739.7456219581539472
 20
126.9651092979250961
 30
0.0
 11
739.7356554719946189
 21
125.8230631102240977
 31
0.0
  0
LINE
  5
C390
  8
0
 10
737.5990230578539695
 20
126.9651092979250961
 30
0.0
 11
737.6089895440054534
 21
125.8230631102243962
 31
0.0
  0
LINE
  5
C391
  8
0
 10
737.6483880437740481
 20
125.7840069357251025
 30
0.0
 11
739.6962569722257967
 21
125.7840069357251025
 31
0.0
  0
ARC
  5
C392
  8
0
 10
737.6483880437740481
 20
125.823406935725103
 30
0.0
 40
0.0394
 50
180.5000000030318859
 51
270.0
  0
ARC
  5
C393
  8
0
 10
739.6962569722257967
 20
125.823406935725103
 30
0.0
 40
0.0394
 50
270.0000000000064801
 51
359.4999999965746724
  0
LINE
  5
C394
  8
0
 10
739.3022437678539518
 20
125.3155029987250941
 30
0.0
 11
739.3022437678539518
 21
124.8627470932250958
 31
0.0
  0
LINE
  5
C395
  8
0
 10
738.0424012481538512
 20
125.3155029987250941
 30
0.0
 11
738.0424012481538512
 21
124.8627470932251953
 31
0.0
  0
LINE
  5
C396
  8
0
 10
738.0325587284539779
 20
125.4021172863250939
 30
0.0
 11
738.0325587284539779
 21
125.7840069357251025
 31
0.0
  0
LINE
  5
C397
  8
0
 10
739.3120862875540524
 20
125.4021172863250939
 30
0.0
 11
739.3120862875540524
 21
125.7840069357251025
 31
0.0
  0
LINE
  5
C398
  8
0
 10
738.0522438787538704
 20
125.3824321325250963
 30
0.0
 11
739.2924011372540463
 21
125.3824321325250963
 31
0.0
  0
LINE
  5
C399
  8
0
 10
739.3120862875540524
 20
125.4021172863250939
 30
0.0
 11
739.2924011372540463
 21
125.3824321325250963
 31
0.0
  0
LINE
  5
C39A
  8
0
 10
738.0325587284539779
 20
125.4021172863250939
 30
0.0
 11
738.0522438787538704
 21
125.3824321325250963
 31
0.0
  0
LINE
  5
C39B
  8
0
 10
739.3120862875539387
 20
125.4021172863250939
 30
0.0
 11
738.9183843406583492
 21
125.4021172863250939
 31
0.0
  0
LINE
  5
C39C
  8
0
 10
738.4262593426540207
 20
125.4021172863250939
 30
0.0
 11
738.0325587284539779
 21
125.4021172863250939
 31
0.0
  0
LINE
  5
C39D
  8
0
 10
738.9183843406583492
 20
125.4021172863250939
 30
0.0
 11
738.9183843406583492
 21
125.7840069357251025
 31
0.0
  0
LINE
  5
C39E
  8
0
 10
738.4262593426541343
 20
125.4021172863253071
 30
0.0
 11
738.4262593426541343
 21
125.7840069357251025
 31
0.0
  0
ARC
  5
C39F
  8
0
 10
738.6118982257371499
 20
126.1969543306448003
 30
0.0
 40
0.8518800770426347
 50
287.030975740755423
 51
291.086447866438391
  0
ARC
  5
C3A0
  8
0
 10
738.7325970449530814
 20
126.1965707419227982
 30
0.0
 40
0.8514687786179364
 50
248.9135836691831116
 51
252.9712467155239892
  0
LINE
  5
C3A1
  8
0
 10
738.0424012481538512
 20
125.3155029987250941
 30
0.0
 11
739.3022437678539518
 21
125.3155029987250941
 31
0.0
  0
LINE
  5
C3A2
  8
0
 10
739.0935823505540156
 20
125.3824321325250963
 30
0.0
 11
739.0935823505540156
 21
125.3155029987250941
 31
0.0
  0
LINE
  5
C3A3
  8
0
 10
738.2510626654540147
 20
125.3155029987250941
 30
0.0
 11
738.2510626654540147
 21
125.3824321325250963
 31
0.0
  0
ARC
  5
C3A4
  8
0
 10
739.3809839253540304
 20
124.8627470932250958
 30
0.0
 40
0.0787401575000109
 50
180.0
 51
270.0
  0
ARC
  5
C3A5
  8
0
 10
737.963661090654
 20
124.8627470932251953
 30
0.0
 40
0.078740157500029
 50
270.0
 51
359.9999999999789111
  0
LINE
  5
C3A6
  8
0
 10
740.0502752638540187
 20
124.1734877111177013
 30
0.0
 11
740.0502752638540187
 21
124.7840069357251025
 31
0.0
  0
LINE
  5
C3A7
  8
0
 10
741.3573618780540073
 20
121.8696056987390932
 30
0.0
 11
741.3573618780540073
 21
123.583635790316805
 31
0.0
  0
LINE
  5
C3A8
  8
0
 10
741.3573618780540073
 20
124.1734877111177013
 30
0.0
 11
741.3573618780540073
 21
124.7456535901366976
 31
0.0
  0
LINE
  5
C3A9
  8
0
 10
740.0975193583540204
 20
124.1734877111177013
 30
0.0
 11
740.0975193583540204
 21
124.7561639742957027
 31
0.0
  0
LINE
  5
C3AA
  8
0
 10
740.1450452501343307
 20
121.8316657823708056
 30
0.0
 11
741.3300027304343303
 21
121.8420067496625023
 31
0.0
  0
ARC
  5
C3AB
  8
0
 10
740.144804397754001
 20
121.859264731447297
 30
0.0
 40
0.0276
 50
260.1653801096499024
 51
270.5000000011053771
  0
ARC
  5
C3AC
  8
0
 10
741.3297618780538869
 20
121.8696056987390932
 30
0.0
 40
0.0276
 50
270.5000000011119141
 51
0.0
  0
LINE
  5
C3AD
  8
0
 10
741.3300026760978199
 20
124.7732525396874053
 30
0.0
 11
740.1253601563977327
 21
124.7837629238463961
 31
0.0
  0
ARC
  5
C3AE
  8
0
 10
741.3297618780538869
 20
124.7456535901366976
 30
0.0
 40
0.0276
 50
0.0
 51
89.5001128022540939
  0
ARC
  5
C3AF
  8
0
 10
740.1251193583540271
 20
124.7561639742957027
 30
0.0
 40
0.0276
 50
89.5001128022475712
 51
179.9999999999706972
  0
LINE
  5
C3B0
  8
0
 10
740.0975193583540204
 20
124.5021525342251039
 30
0.0
 11
740.0502752638540187
 21
124.5021525342251039
 31
0.0
  0
LINE
  5
C3B1
  8
0
 10
740.0975193583540204
 20
124.4887313451251032
 30
0.0
 11
740.0502752638540187
 21
124.4887313451251032
 31
0.0
  0
LINE
  5
C3B2
  8
0
 10
740.0975193583540204
 20
124.463090207825104
 30
0.0
 11
740.0502752638540187
 21
124.463090207825104
 31
0.0
  0
LINE
  5
C3B3
  8
0
 10
740.0975193583540204
 20
124.4248122099508009
 30
0.0
 11
740.0502752638540187
 21
124.4248122099508009
 31
0.0
  0
LINE
  5
C3B4
  8
0
 10
740.0975193583540204
 20
124.4114595383507975
 30
0.0
 11
740.0502752638540187
 21
124.4114595383507975
 31
0.0
  0
LINE
  5
C3B5
  8
0
 10
740.0975193583540204
 20
124.3965151194507968
 30
0.0
 11
740.0502752638540187
 21
124.3965151194507968
 31
0.0
  0
LINE
  5
C3B6
  8
0
 10
740.0975193583540204
 20
124.2659771352024052
 30
0.0
 11
740.0502752638540187
 21
124.2659771352024052
 31
0.0
  0
LINE
  5
C3B7
  8
0
 10
740.0975193583540204
 20
124.248260599802407
 30
0.0
 11
740.0502752638540187
 21
124.248260599802407
 31
0.0
  0
LINE
  5
C3B8
  8
0
 10
739.4255792532271698
 20
124.1734877111177013
 30
0.0
 11
747.8176169986622881
 21
124.1734877111177013
 31
0.0
  0
LINE
  5
C3B9
  8
0
 10
741.2189861266701882
 20
123.583635790316805
 30
0.0
 11
747.8176169986622881
 21
123.583635790316805
 31
0.0
  0
LINE
  5
C3BA
  8
0
 10
737.7982917992540024
 20
124.3013768689251037
 30
0.0
 11
736.9003074150554085
 21
124.3013768689251037
 31
0.0
  0
LINE
  5
C3BB
  8
0
 10
736.8215822049538701
 20
124.3801020595599027
 30
0.0
 11
736.8215822049538701
 21
124.4411256878251066
 31
0.0
  0
ARC
  5
C3BC
  8
0
 10
737.7982917992540024
 20
124.2816768689251035
 30
0.0
 40
0.0197
 50
359.9999999999583906
 51
90.0000000000325713
  0
LINE
  5
C3BD
  8
0
 10
737.9044547914538725
 20
124.3011088631250942
 30
0.0
 11
737.9437903545509698
 21
124.3011088631250942
 31
0.0
  0
ARC
  5
C3BE
  8
0
 10
737.9044547914538725
 20
124.2617088631250937
 30
0.0
 40
0.0394
 50
90.0000000000065086
 51
179.9999999999787974
  0
ARC
  5
C3BF
  8
0
 10
737.8863119219886357
 20
127.135851524554198
 30
0.0
 40
2.8353253299641099
 50
271.1615941124711071
 51
282.7550347211454209
  0
ARC
  5
C3C0
  8
0
 10
736.9003013260264652
 20
124.380095989996093
 30
0.0
 40
0.0787191213051731
 50
179.9955942983760906
 51
270.0044196630876741
  0
LINE
  5
C3C1
  8
0
 10
734.8140547914540548
 20
124.3115659908251018
 30
0.0
 11
736.6250784134540481
 21
124.3115659908251018
 31
0.0
  0
LINE
  5
C3C2
  8
0
 10
734.6175509999540054
 20
124.4411256878251066
 30
0.0
 11
734.6175509999540054
 21
123.3158645615251032
 31
0.0
  0
LINE
  5
C3C3
  8
0
 10
734.6372509999539488
 20
123.296164561525103
 30
0.0
 11
734.8140547914540548
 21
123.296164561525103
 31
0.0
  0
LINE
  5
C3C4
  8
0
 10
734.6372509999539488
 20
124.4608256878251069
 30
0.0
 11
734.8534248701539582
 21
124.4608256878251069
 31
0.0
  0
LINE
  5
C3C5
  8
0
 10
736.5857083347540311
 20
124.4608256878251069
 30
0.0
 11
736.8018822049540404
 21
124.4608256878251069
 31
0.0
  0
ARC
  5
C3C6
  8
0
 10
734.6372509999539488
 20
124.4411256878251066
 30
0.0
 40
0.0197
 50
89.9999999999804601
 51
180.0000000000406999
  0
ARC
  5
C3C7
  8
0
 10
734.6372509999539488
 20
123.3158645615251032
 30
0.0
 40
0.0197
 50
179.9999999999585043
 51
270.000000000019611
  0
LINE
  5
C3C8
  8
0
 10
734.8534248701539582
 20
124.3115659908251018
 30
0.0
 11
734.8534248701539582
 21
125.3903061483250951
 31
0.0
  0
LINE
  5
C3C9
  8
0
 10
736.5857083347540311
 20
124.3115659908251018
 30
0.0
 11
736.5857083347540311
 21
125.3903061483250951
 31
0.0
  0
LINE
  5
C3CA
  8
0
 10
734.6959445551540284
 20
125.3903061483250951
 30
0.0
 11
736.7431886496540301
 21
125.3903061483250951
 31
0.0
  0
LINE
  5
C3CB
  8
0
 10
734.6959445551540284
 20
126.9651092979250961
 30
0.0
 11
734.6959445551540284
 21
125.3903061483250951
 31
0.0
  0
LINE
  5
C3CC
  8
0
 10
736.7431886496540301
 20
126.9651092979250961
 30
0.0
 11
736.7431886496540301
 21
125.3903061483250951
 31
0.0
  0
ARC
  5
C3CD
  8
0
 10
736.8018822049540404
 20
124.4411256878251066
 30
0.0
 40
0.0197
 50
359.9999999999170086
 51
90.0000000000260485
  0
LINE
  5
C3CE
  8
0
 10
736.6724258477288458
 20
124.3234803557864012
 30
0.0
 11
736.6724258477288458
 21
123.7878154359408995
 31
0.0
  0
LINE
  5
C3CF
  8
0
 10
736.652741079853854
 20
124.3037955863250943
 30
0.0
 11
736.652741079853854
 21
123.7788851538403065
 31
0.0
  0
LINE
  5
C3D0
  8
0
 10
736.5857083347540311
 20
124.3234803557864012
 30
0.0
 11
736.6724258477288458
 21
124.3234803557864012
 31
0.0
  0
LINE
  5
C3D1
  8
0
 10
736.6250784134540481
 20
124.3037955863250943
 30
0.0
 11
736.652741079853854
 21
124.3037955863250943
 31
0.0
  0
LINE
  5
C3D2
  8
0
 10
736.652741079853854
 20
124.3037955863250943
 30
0.0
 11
736.6724258477288458
 21
124.3234803557864012
 31
0.0
  0
LINE
  5
C3D3
  8
0
 10
736.6429410798540403
 20
124.2840069357251025
 30
0.0
 11
736.6250784134540481
 21
124.2840069357251025
 31
0.0
  0
ARC
  5
C3D4
  8
0
 10
736.6429410798540403
 20
124.274206935725104
 30
0.0
 40
0.0098
 50
0.0
 51
90.0000000000195257
  0
LINE
  5
C3D5
  8
0
 10
736.6467319567540244
 20
124.1225896131661983
 30
0.0
 11
736.6467319567540244
 21
124.1658966992903999
 31
0.0
  0
ARC
  5
C3D6
  8
0
 10
736.654605972764557
 20
124.1658966992903999
 30
0.0
 40
0.0078740160107067
 50
103.700191410379702
 51
179.9999982917296961
  0
ARC
  5
C3D7
  8
0
 10
736.6546059727827469
 20
124.1225896131661983
 30
0.0
 40
0.0078740160288207
 50
180.0000017538723966
 51
256.2998084860819858
  0
LINE
  5
C3D8
  8
0
 10
734.7667073571791434
 20
124.2840803557864007
 30
0.0
 11
734.7667073571791434
 21
123.4729098933638056
 31
0.0
  0
LINE
  5
C3D9
  8
0
 10
734.7863921250540216
 20
124.284395586325104
 30
0.0
 11
734.7863921250540216
 21
123.4725946628251023
 31
0.0
  0
ARC
  5
C3DA
  8
0
 10
734.8057921250540403
 20
124.284395586325104
 30
0.0
 40
0.0194
 50
90.0
 51
180.0
  0
LINE
  5
C3DB
  8
0
 10
734.8534248701539582
 20
124.3234803557864012
 30
0.0
 11
734.8061073571791439
 21
124.3234803557864012
 31
0.0
  0
ARC
  5
C3DC
  8
0
 10
734.8061073571791439
 20
124.2840803557864007
 30
0.0
 40
0.0394
 50
90.0
 51
180.0
  0
LINE
  5
C3DD
  8
0
 10
734.8140547914540548
 20
124.3037955863250943
 30
0.0
 11
734.8057921250540403
 21
124.3037955863250943
 31
0.0
  0
LINE
  5
C3DE
  8
0
 10
734.796192125053949
 20
124.2840069357251025
 30
0.0
 11
734.8140547914540548
 21
124.2840069357251025
 31
0.0
  0
ARC
  5
C3DF
  8
0
 10
734.796192125053949
 20
124.274206935725104
 30
0.0
 40
0.0098
 50
89.9999999999804601
 51
180.0
  0
LINE
  5
C3E0
  8
0
 10
734.7924012481539648
 20
124.1225896131661983
 30
0.0
 11
734.7924012481539648
 21
124.1658966992903999
 31
0.0
  0
ARC
  5
C3E1
  8
0
 10
734.7845272321433185
 20
124.1658966992903999
 30
0.0
 40
0.0078740160107067
 50
0.0000017082703216
 51
76.2998085896202696
  0
ARC
  5
C3E2
  8
0
 10
734.7845272321251286
 20
124.1225896131661983
 30
0.0
 40
0.0078740160288207
 50
283.7001915139179005
 51
359.9999982461275181
  0
LINE
  5
C3E3
  8
0
 10
734.8140547914540548
 20
123.4335098933638051
 30
0.0
 11
734.8061073571791439
 21
123.4335098933638051
 31
0.0
  0
LINE
  5
C3E4
  8
0
 10
734.8140547914540548
 20
123.4531946628250978
 30
0.0
 11
734.8057921250540403
 21
123.4531946628250978
 31
0.0
  0
ARC
  5
C3E5
  8
0
 10
734.8057921250540403
 20
123.4725946628251023
 30
0.0
 40
0.0194
 50
180.0
 51
270.0
  0
LINE
  5
C3E6
  8
0
 10
734.796192125053949
 20
123.4729833134251038
 30
0.0
 11
734.8140547914540548
 21
123.4729833134251038
 31
0.0
  0
ARC
  5
C3E7
  8
0
 10
734.796192125053949
 20
123.4827833134251023
 30
0.0
 40
0.0098
 50
180.0
 51
270.000000000019611
  0
ARC
  5
C3E8
  8
0
 10
734.8061073571791439
 20
123.4729098933638056
 30
0.0
 40
0.0394
 50
180.0
 51
269.9999999999869829
  0
LINE
  5
C3E9
  8
0
 10
734.7924012481539648
 20
123.5910935501662067
 30
0.0
 11
734.7924012481539648
 21
123.634400636290394
 31
0.0
  0
ARC
  5
C3EA
  8
0
 10
734.7845272321433185
 20
123.634400636290394
 30
0.0
 40
0.0078740160107067
 50
0.0000017082703216
 51
76.2998085896202696
  0
ARC
  5
C3EB
  8
0
 10
734.7845272321251286
 20
123.5910935501662067
 30
0.0
 40
0.0078740160288207
 50
283.7001915139179005
 51
359.9999982461275181
  0
LINE
  5
C3EC
  8
0
 10
737.8193303819540461
 20
124.2585738648250953
 30
0.0
 11
737.8393303819540279
 21
124.2585738648250953
 31
0.0
  0
LINE
  5
C3ED
  8
0
 10
737.8393303819540279
 20
124.2585738648250953
 30
0.0
 11
737.8393303819540279
 21
124.0930698961774965
 31
0.0
  0
LINE
  5
C3EE
  8
0
 10
737.8193303819540461
 20
124.0883491475328952
 30
0.0
 11
737.8193303819540461
 21
124.2585738648250953
 31
0.0
  0
LINE
  5
C3EF
  8
0
 10
737.8193303819540461
 20
124.1435738648251004
 30
0.0
 11
737.8179917992539458
 21
124.1435738648251004
 31
0.0
  0
LINE
  5
C3F0
  8
0
 10
737.8193303819540461
 20
124.1835751177594034
 30
0.0
 11
737.8179917992539458
 21
124.1835751177594034
 31
0.0
  0
LINE
  5
C3F1
  8
0
 10
737.8393303819540279
 20
124.1635738648250964
 30
0.0
 11
737.865054791453872
 21
124.1635738648250964
 31
0.0
  0
LINE
  5
C3F2
  8
0
 10
734.8140547914540548
 20
124.7564069357250958
 30
0.0
 11
734.8140547914540548
 21
124.4608256878251069
 31
0.0
  0
LINE
  5
C3F3
  8
0
 10
736.6250784134540481
 20
124.7564069357250958
 30
0.0
 11
736.6250784134540481
 21
124.4608256878251069
 31
0.0
  0
ARC
  5
C3F4
  8
0
 10
736.5974784134540414
 20
124.7564069357250958
 30
0.0
 40
0.0276
 50
359.999999999969873
 51
90.0000000000325713
  0
ARC
  5
C3F5
  8
0
 10
734.8416547914539478
 20
124.7564069357250958
 30
0.0
 40
0.0276
 50
89.9999999999869686
 51
180.0
  0
ARC
  5
C3F6
  8
0
 10
747.8176169986622881
 20
123.8785617507171963
 30
0.0
 40
0.2949259604004624
 50
270.0
 51
90.0
  0
LINE
  5
C3F7
  8
0
 10
743.1999217205540162
 20
101.004479376625099
 30
0.0
 11
728.2392114843538593
 21
101.004479376625099
 31
0.0
  0
LINE
  5
C3F8
  8
0
 10
743.1999217205540162
 20
116.122589612925097
 30
0.0
 11
736.6250784134540481
 21
116.122589612925097
 31
0.0
  0
LINE
  5
C3F9
  8
0
 10
734.8140547914540548
 20
116.122589612925097
 30
0.0
 11
728.2392114843538593
 21
116.122589612925097
 31
0.0
  0
LINE
  5
C3FA
  8
0
 10
728.1605114843539468
 20
116.0438896129250992
 30
0.0
 11
728.1605114843539468
 21
101.0831793766250968
 31
0.0
  0
LINE
  5
C3FB
  8
0
 10
743.2786217205540424
 20
101.0831793766250968
 30
0.0
 11
743.2786217205540424
 21
116.0438896129250992
 31
0.0
  0
LINE
  5
C3FC
  8
0
 10
736.605378413453991
 20
107.3824321325250963
 30
0.0
 11
734.8337547914539982
 21
107.3824321325250963
 31
0.0
  0
ARC
  5
C3FD
  8
0
 10
736.605378413453991
 20
107.4021321325250966
 30
0.0
 40
0.0197
 50
270.0000000000064801
 51
0.0000000000211698
  0
ARC
  5
C3FE
  8
0
 10
734.8337547914539982
 20
107.4021321325250966
 30
0.0
 40
0.0197
 50
179.9999999999585043
 51
269.9999999999869829
  0
ARC
  5
C3FF
  8
0
 10
743.1999217205540162
 20
101.0831793766250968
 30
0.0
 40
0.0787
 50
270.0
 51
0.0
  0
ARC
  5
C400
  8
0
 10
743.1999217205540162
 20
116.0438896129250992
 30
0.0
 40
0.0787
 50
0.0
 51
90.0
  0
ARC
  5
C401
  8
0
 10
728.2392114843538593
 20
116.0438896129250992
 30
0.0
 40
0.0787
 50
90.0
 51
180.0000000000098055
  0
ARC
  5
C402
  8
0
 10
728.2392114843538593
 20
101.0831793766250968
 30
0.0
 40
0.0787
 50
180.0
 51
270.0000000000064801
  0
LINE
  5
C403
  8
0
 10
728.7904327441540318
 20
101.7525006365250988
 30
0.0
 11
728.7904327441540318
 21
115.3745683530250972
 31
0.0
  0
LINE
  5
C404
  8
0
 10
742.6487004606540268
 20
115.3745683530250972
 30
0.0
 11
742.6487004606540268
 21
101.7525006365250988
 31
0.0
  0
LINE
  5
C405
  8
0
 10
742.530600460654
 20
101.6344006365251005
 30
0.0
 11
728.9085327441539448
 21
101.6344006365251005
 31
0.0
  0
LINE
  5
C406
  8
0
 10
742.530600460654
 20
115.4926683530250955
 30
0.0
 11
736.6250784134540481
 21
115.4926683530250955
 31
0.0
  0
LINE
  5
C407
  8
0
 10
734.8140547914540548
 20
115.4926683530250955
 30
0.0
 11
728.9085327441539448
 21
115.4926683530250955
 31
0.0
  0
ARC
  5
C408
  8
0
 10
742.530600460654
 20
115.3745683530250972
 30
0.0
 40
0.1181
 50
0.0
 51
90.0
  0
ARC
  5
C409
  8
0
 10
742.530600460654
 20
101.7525006365250988
 30
0.0
 40
0.1181
 50
270.0
 51
359.9999999999959073
  0
ARC
  5
C40A
  8
0
 10
728.9085327441539448
 20
101.7525006365250988
 30
0.0
 40
0.1181
 50
180.0000000000032117
 51
269.9999999999935199
  0
ARC
  5
C40B
  8
0
 10
728.9085327441539448
 20
115.3745683530250972
 30
0.0
 40
0.1181
 50
90.0
 51
180.0
  0
CIRCLE
  5
C40C
  8
0
 10
742.3337398307538706
 20
101.9493612664251003
 30
0.0
 40
0.1
  0
CIRCLE
  5
C40D
  8
0
 10
742.3337398307538706
 20
101.9493612664251003
 30
0.0
 40
0.1535433070999987
  0
CIRCLE
  5
C40E
  8
0
 10
739.0266532166540401
 20
101.9493612664251003
 30
0.0
 40
0.1
  0
CIRCLE
  5
C40F
  8
0
 10
739.0266532166540401
 20
101.9493612664251003
 30
0.0
 40
0.1535433070999987
  0
CIRCLE
  5
C410
  8
0
 10
735.7195666024540515
 20
101.9493612664251003
 30
0.0
 40
0.1
  0
CIRCLE
  5
C411
  8
0
 10
735.7195666024540515
 20
101.9493612664251003
 30
0.0
 40
0.1535433070999987
  0
CIRCLE
  5
C412
  8
0
 10
732.4124799882539492
 20
101.9493612664251003
 30
0.0
 40
0.1
  0
CIRCLE
  5
C413
  8
0
 10
732.4124799882539492
 20
101.9493612664251003
 30
0.0
 40
0.1535433070999987
  0
CIRCLE
  5
C414
  8
0
 10
729.1053933740539605
 20
101.9493612664251003
 30
0.0
 40
0.1
  0
CIRCLE
  5
C415
  8
0
 10
729.1053933740539605
 20
101.9493612664251003
 30
0.0
 40
0.1535433070999987
  0
CIRCLE
  5
C416
  8
0
 10
742.3337398307538706
 20
115.1777077231250956
 30
0.0
 40
0.1
  0
CIRCLE
  5
C417
  8
0
 10
742.3337398307538706
 20
115.1777077231250956
 30
0.0
 40
0.1535433070999987
  0
CIRCLE
  5
C418
  8
0
 10
739.0266532166540401
 20
115.1777077231250956
 30
0.0
 40
0.1
  0
CIRCLE
  5
C419
  8
0
 10
739.0266532166540401
 20
115.1777077231250956
 30
0.0
 40
0.1535433070999987
  0
CIRCLE
  5
C41A
  8
0
 10
732.4124799882539492
 20
115.1777077231250956
 30
0.0
 40
0.1
  0
CIRCLE
  5
C41B
  8
0
 10
732.4124799882539492
 20
115.1777077231250956
 30
0.0
 40
0.1535433070999987
  0
CIRCLE
  5
C41C
  8
0
 10
729.1053933740539605
 20
115.1777077231250956
 30
0.0
 40
0.1
  0
CIRCLE
  5
C41D
  8
0
 10
729.1053933740539605
 20
115.1777077231250956
 30
0.0
 40
0.1535433070999987
  0
CIRCLE
  5
C41E
  8
0
 10
742.3337398307538706
 20
105.2564478806251032
 30
0.0
 40
0.1
  0
CIRCLE
  5
C41F
  8
0
 10
742.3337398307538706
 20
105.2564478806251032
 30
0.0
 40
0.1535433070999987
  0
CIRCLE
  5
C420
  8
0
 10
742.3337398307538706
 20
108.5635344947251042
 30
0.0
 40
0.1
  0
CIRCLE
  5
C421
  8
0
 10
742.3337398307538706
 20
108.5635344947251042
 30
0.0
 40
0.1535433070999987
  0
CIRCLE
  5
C422
  8
0
 10
742.3337398307538706
 20
111.870621108925107
 30
0.0
 40
0.1
  0
CIRCLE
  5
C423
  8
0
 10
742.3337398307538706
 20
111.870621108925107
 30
0.0
 40
0.1535433070999987
  0
CIRCLE
  5
C424
  8
0
 10
729.1053933740539605
 20
108.5635344947251042
 30
0.0
 40
0.1
  0
CIRCLE
  5
C425
  8
0
 10
729.1053933740539605
 20
108.5635344947251042
 30
0.0
 40
0.1535433070999987
  0
CIRCLE
  5
C426
  8
0
 10
729.1053933740539605
 20
105.2564478806251032
 30
0.0
 40
0.1
  0
CIRCLE
  5
C427
  8
0
 10
729.1053933740539605
 20
105.2564478806251032
 30
0.0
 40
0.1535433070999987
  0
CIRCLE
  5
C428
  8
0
 10
729.1053933740539605
 20
111.870621108925107
 30
0.0
 40
0.1
  0
CIRCLE
  5
C429
  8
0
 10
729.1053933740539605
 20
111.870621108925107
 30
0.0
 40
0.1535433070999987
  0
LINE
  5
C42A
  8
0
 10
740.0975193583540204
 20
124.2357317562251069
 30
0.0
 11
740.0502752638540187
 21
124.2357317562251069
 31
0.0
  0
LINE
  5
C42B
  8
0
 10
736.7431886496540301
 20
126.9651092979250961
 30
0.0
 11
734.6959445551540284
 21
126.9651092979250961
 31
0.0
  0
ENDSEC
  0
EOF
