  0
SECTION
  2
HEADER
  9
$ACADVER
  1
AC1009
  9
$INSBASE
 10
999.94758522984705
 20
-3.5067420634129132
 30
0.0
  9
$EXTMIN
 10
998.9462912039753064
 20
-6.1868464152248128
 30
-0.0000000000112498
  9
$EXTMAX
 10
1002.048936735387997
 20
-3.5013025083204989
 30
0.0000000000002956
  9
$LIMMIN
 10
0.0
 20
0.0
  9
$LIMMAX
 10
11.6929133858000007
 20
8.2677165353999982
  9
$ORTHOMODE
 70
     0
  9
$REGENMODE
 70
     1
  9
$FILLMODE
 70
     1
  9
$QTEXTMODE
 70
     0
  9
$MIRRTEXT
 70
     0
  9
$DRAGMODE
 70
     2
  9
$LTSCALE
 40
0.6431102362
  9
$OSMODE
 70
  4095
  9
$ATTMODE
 70
     1
  9
$TEXTSIZE
 40
0.2
  9
$TRACEWID
 40
0.05
  9
$TEXTSTYLE
  7
STANDARD
  9
$CLAYER
  8
0
  9
$CELTYPE
  6
BYLAYER
  9
$CECOLOR
 62
   256
  9
$DIMSCALE
 40
1.0
  9
$DIMASZ
 40
0.1875
  9
$DIMEXO
 40
0.0625
  9
$DIMDLI
 40
0.4443307087
  9
$DIMRND
 40
0.0
  9
$DIMDLE
 40
0.0
  9
$DIMEXE
 40
0.125
  9
$DIMTP
 40
0.01
  9
$DIMTM
 40
0.01
  9
$DIMTXT
 40
1.0
  9
$DIMCEN
 40
0.1052362205
  9
$DIMTSZ
 40
0.0
  9
$DIMTOL
 70
     1
  9
$DIMLIM
 70
     0
  9
$DIMTIH
 70
     0
  9
$DIMTOH
 70
     1
  9
$DIMSE1
 70
     0
  9
$DIMSE2
 70
     0
  9
$DIMTAD
 70
     0
  9
$DIMZIN
 70
     0
  9
$DIMBLK
  1

  9
$DIMASO
 70
     1
  9
$DIMSHO
 70
     1
  9
$DIMPOST
  1
\X
  9
$DIMAPOST
  1

  9
$DIMALT
 70
     1
  9
$DIMALTD
 70
     2
  9
$DIMALTF
 40
25.3999999999999986
  9
$DIMLFAC
 40
1.0
  9
$DIMTOFL
 70
     0
  9
$DIMTVP
 40
0.0
  9
$DIMTIX
 70
     0
  9
$DIMSOXD
 70
     0
  9
$DIMSAH
 70
     0
  9
$DIMBLK1
  1

  9
$DIMBLK2
  1

  9
$DIMSTYLE
  2
STANDARD
  9
$DIMCLRD
 70
     0
  9
$DIMCLRE
 70
     0
  9
$DIMCLRT
 70
     0
  9
$DIMTFAC
 40
1.0
  9
$DIMGAP
 40
0.09
  9
$LUNITS
 70
     2
  9
$LUPREC
 70
     4
  9
$SKETCHINC
 40
0.1
  9
$FILLETRAD
 40
0.0
  9
$AUNITS
 70
     0
  9
$AUPREC
 70
     0
  9
$MENU
  1
.
  9
$ELEVATION
 40
0.0
  9
$PELEVATION
 40
0.0
  9
$THICKNESS
 40
0.0
  9
$LIMCHECK
 70
     0
  9
$BLIPMODE
 70
     0
  9
$CHAMFERA
 40
0.0
  9
$CHAMFERB
 40
0.0
  9
$SKPOLY
 70
     0
  9
$TDCREATE
 40
2458172.5207638889551163
  9
$TDUPDATE
 40
2460160.7465393519960344
  9
$TDINDWG
 40
0.2349859259
  9
$TDUSRTIMER
 40
0.2349859259
  9
$USRTIMER
 70
     1
  9
$ANGBASE
 50
0.0
  9
$ANGDIR
 70
     0
  9
$PDMODE
 70
     0
  9
$PDSIZE
 40
0.3125
  9
$PLINEWID
 40
0.0
  9
$COORDS
 70
     1
  9
$SPLFRAME
 70
     0
  9
$SPLINETYPE
 70
     6
  9
$SPLINESEGS
 70
     8
  9
$ATTDIA
 70
     1
  9
$ATTREQ
 70
     1
  9
$HANDLING
 70
     1
  9
$HANDSEED
  5
E319
  9
$SURFTAB1
 70
     6
  9
$SURFTAB2
 70
     6
  9
$SURFTYPE
 70
     6
  9
$SURFU
 70
     6
  9
$SURFV
 70
     6
  9
$UCSNAME
  2

  9
$UCSORG
 10
0.0
 20
0.0
 30
0.0
  9
$UCSXDIR
 10
1.0
 20
0.0
 30
0.0
  9
$UCSYDIR
 10
0.0
 20
1.0
 30
0.0
  9
$PUCSNAME
  2

  9
$PUCSORG
 10
0.0
 20
0.0
 30
0.0
  9
$PUCSXDIR
 10
1.0
 20
0.0
 30
0.0
  9
$PUCSYDIR
 10
0.0
 20
1.0
 30
0.0
  9
$USERI1
 70
     0
  9
$USERI2
 70
     0
  9
$USERI3
 70
     0
  9
$USERI4
 70
     0
  9
$USERI5
 70
     0
  9
$USERR1
 40
0.0
  9
$USERR2
 40
0.0
  9
$USERR3
 40
0.0
  9
$USERR4
 40
0.0
  9
$USERR5
 40
0.0
  9
$WORLDVIEW
 70
     1
  9
$SHADEDGE
 70
     3
  9
$SHADEDIF
 70
    70
  9
$TILEMODE
 70
     1
  9
$MAXACTVP
 70
    64
  9
$PLIMCHECK
 70
     0
  9
$PEXTMIN
 10
1.0000000000000000E+20
 20
1.0000000000000000E+20
 30
1.0000000000000000E+20
  9
$PEXTMAX
 10
-1.0000000000000000E+20
 20
-1.0000000000000000E+20
 30
-1.0000000000000000E+20
  9
$PLIMMIN
 10
0.0
 20
0.0
  9
$PLIMMAX
 10
12.0
 20
9.0
  9
$UNITMODE
 70
     0
  9
$VISRETAIN
 70
     1
  9
$PLINEGEN
 70
     0
  9
$PSLTSCALE
 70
     1
  0
ENDSEC
  0
SECTION
  2
TABLES
  0
TABLE
  2
VPORT
 70
     1
  0
VPORT
  2
*ACTIVE
 70
     0
 10
0.0
 20
0.0
 11
1.0
 21
1.0
 12
626.676477495072163
 22
-46.7305225940361169
 13
0.0
 23
0.0
 14
1.0
 24
1.0
 15
0.0
 25
0.0
 16
0.0
 26
0.0
 36
25.5757211105568096
 17
373.821136474609375
 27
41.8864481322634603
 37
0.0
 40
2.7096295024819308
 41
2.8368263473053892
 42
50.0
 43
0.0
 44
0.0
 50
0.0
 51
0.0
 71
     0
 72
   100
 73
     1
 74
     1
 75
     0
 76
     0
 77
     0
 78
     0
  0
ENDTAB
  0
TABLE
  2
LTYPE
 70
     2
  0
LTYPE
  2
CONTINUOUS
 70
     0
  3
Solid line
 72
    65
 73
     0
 40
0.0
  0
LTYPE
  2
PHANTOM2
 70
     0
  3
___ _ _ ___ _ _ ___ _ _ ___ _ _
 72
    65
 73
     6
 40
1.25
 49
0.625
 49
-0.125
 49
0.125
 49
-0.125
 49
0.125
 49
-0.125
  0
ENDTAB
  0
TABLE
  2
LAYER
 70
     2
  0
LAYER
  2
0
 70
     0
 62
   255
  6
CONTINUOUS
  0
LAYER
  2
DEFPOINTS
 70
     0
 62
     7
  6
CONTINUOUS
  0
ENDTAB
  0
TABLE
  2
STYLE
 70
     1
  0
STYLE
  2
STANDARD
 70
     0
 40
0.0
 41
0.8
 50
0.0
 71
     0
 42
0.2
  3
txt
  4

  0
ENDTAB
  0
TABLE
  2
VIEW
 70
     0
  0
ENDTAB
  0
TABLE
  2
UCS
 70
     0
  0
ENDTAB
  0
TABLE
  2
APPID
 70
    10
  0
APPID
  2
ACAD
 70
     0
  0
APPID
  2
ACAD_MLEADERVER
 70
     0
  0
APPID
  2
ACAD_EXEMPT_FROM_CAD_STANDARDS
 70
     0
  0
APPID
  2
ACAD_DSTYLE_DIMJAG
 70
     0
  0
APPID
  2
ACAD_DSTYLE_DIMTALN
 70
     0
  0
APPID
  2
ACAD_NAV_VCDISPLAY
 70
     0
  0
APPID
  2
ACAECLAYERSTANDARD
 70
     0
  0
APPID
  2
ACCMTRANSPARENCY
 70
     0
  0
APPID
  2
DCO15
 70
     0
  0
APPID
  2
ACDBATTR
 70
     0
  0
ENDTAB
  0
TABLE
  2
DIMSTYLE
 70
     1
  0
DIMSTYLE
  2
STANDARD
 70
     0
  3

  4

  5

  6

  7

 40
1.0
 41
0.1875
 42
0.0625
 43
0.38
 44
0.125
 45
0.0
 46
0.0
 47
0.01
 48
0.01
140
0.15625
141
0.09
142
0.0
143
25.3999999999999986
144
1.0
145
0.0
146
1.0
147
0.09
 71
     1
 72
     0
 73
     1
 74
     1
 75
     0
 76
     0
 77
     0
 78
     4
170
     0
171
     2
172
     0
173
     0
174
     0
175
     0
176
     0
177
     0
178
     0
  0
ENDTAB
  0
ENDSEC
  0
SECTION
  2
BLOCKS
  0
BLOCK
  8
0
  2
$MODEL_SPACE
 70
     0
 10
0.0
 20
0.0
 30
0.0
  3
$MODEL_SPACE
  1

  0
ENDBLK
  5
21
  8
0
  0
BLOCK
 67
     1
  8
0
  2
$PAPER_SPACE
 70
     0
 10
0.0
 20
0.0
 30
0.0
  3
$PAPER_SPACE
  1

  0
ENDBLK
  5
1D
 67
     1
  8
0
  0
BLOCK
  8
0
  2
_FILLED
 70
     0
 10
0.0
 20
0.0
 30
0.0
  3
_FILLED
  1

  0
SOLID
  5
B142
  8
0
  6
BYBLOCK
 62
     0
 10
0.0
 20
0.0
 30
0.0
 11
-1.0
 21
0.1666666667
 31
0.0
 12
-1.0
 22
-0.1666666667
 32
0.0
 13
-1.0
 23
-0.1666666667
 33
0.0
  0
ENDBLK
  5
B143
  8
0
  6
BYBLOCK
 62
     0
  0
ENDSEC
  0
SECTION
  2
ENTITIES
  0
ATTDEF
  5
829
  8
DEFPOINTS
 10
999.9379637615351157
 20
-3.5029953374289842
 30
0.0
 40
0.001
  1
K-98349T
  3

  2
MODELNUMBER
 70
     0
1001
ACDBATTR
1070
     0
1070
     1
  0
ATTDEF
  5
82A
  8
DEFPOINTS
 10
999.9379637615351157
 20
-3.5046620040956489
 30
0.0
 40
0.001
  1
EXHALE
  3

  2
TRADENAME
 70
     0
1001
ACDBATTR
1070
     0
1070
     1
  0
ATTDEF
  5
82B
  8
DEFPOINTS
 10
999.9379637615351157
 20
-3.506328670762314
 30
0.0
 40
0.001
  1
HANDSHOWER HOLDER
  3

  2
PRODUCT
 70
     0
1001
ACDBATTR
1070
     0
1070
     1
  0
LINE
  5
E0B9
  8
0
 10
998.9476243911934716
 20
-3.8216727721129109
 30
0.0
 11
998.9476243911934716
 21
-3.5067420634129132
 31
0.0
  0
LINE
  5
E0BA
  8
0
 10
999.058228932046859
 20
-6.1655710634129131
 30
0.0
 11
999.058228932046859
 21
-5.0332856444129099
 31
0.0
  0
LINE
  5
E0BB
  8
0
 10
1000.8220084596470087
 20
-6.1655710634129131
 30
0.0
 11
1000.8220084596470087
 21
-5.0332856444129099
 31
0.0
  0
LINE
  5
E0BC
  8
0
 10
1000.8388746014469461
 20
-6.1655710634129131
 30
0.0
 11
1000.8388746014469461
 21
-5.0332856444129099
 31
0.0
  0
LINE
  5
E0BD
  8
0
 10
998.9476243911934716
 20
-3.5067420634129132
 30
0.0
 11
1000.9475460684999462
 21
-3.5067420634129132
 31
0.0
  0
LINE
  5
E0BE
  8
0
 10
999.0782289320469545
 20
-6.1855710634129126
 30
0.0
 11
1000.8020084596470269
 21
-6.1855710634129126
 31
0.0
  0
ARC
  5
E0BF
  8
0
 10
1000.8020084596470269
 20
-6.1655710634129131
 30
0.0
 40
0.02
 50
270.0
 51
0.0
  0
LINE
  5
E0C0
  8
0
 10
1000.8588746014470416
 20
-6.1855710634129126
 30
0.0
 11
1001.9997640581650558
 21
-6.1855710634129144
 31
0.0
  0
LINE
  5
E0C1
  8
0
 10
998.9870243911934722
 20
-3.8610727721129119
 30
0.0
 11
1000.9081460684999456
 21
-3.8610727721129119
 31
0.0
  0
ARC
  5
E0C2
  8
0
 10
998.9870243911934722
 20
-3.8216727721129131
 30
0.0
 40
0.0394
 50
179.9999999999974136
 51
270.0
  0
LINE
  5
E0C3
  8
0
 10
999.3947438452233882
 20
-3.8610727721129119
 30
0.0
 11
999.3797358968702156
 21
-4.7208775620225101
 31
0.0
  0
LINE
  5
E0C4
  8
0
 10
999.0782289320469545
 20
-5.0132856444129112
 30
0.0
 11
999.1442086662804059
 21
-5.0132856444129112
 31
0.0
  0
LINE
  5
E0C5
  8
0
 10
1000.7509617934130119
 20
-5.0132856444129121
 30
0.0
 11
1000.8020084596470269
 21
-5.0132856444129112
 31
0.0
  0
LINE
  5
E0C6
  8
0
 10
1000.8588746014470416
 20
-5.0132856444129112
 30
0.0
 11
1001.9701141207350474
 21
-5.0132856444129112
 31
0.0
  0
ARC
  5
E0C7
  8
0
 10
999.0782289320469545
 20
-5.0332856444129108
 30
0.0
 40
0.02
 50
90.0
 51
179.9999999999974136
  0
ARC
  5
E0C8
  8
0
 10
999.0782289320469545
 20
-6.1655710634129131
 30
0.0
 40
0.02
 50
180.0
 51
270.0
  0
ARC
  5
E0C9
  8
0
 10
998.9477918443710678
 20
-4.7089046396103651
 30
0.0
 40
0.4321099574881762
 50
333.6641821358772972
 51
358.412242720562574
  0
ARC
  5
E0CA
  8
0
 10
999.1666558807032743
 20
-4.8160035372901389
 30
0.0
 40
0.1884528107948055
 50
302.2645793094757209
 51
333.326107363162123
  0
ARC
  5
E0CB
  8
0
 10
999.1337540227118552
 20
-4.760801044474948
 30
0.0
 40
0.2527009552375623
 50
272.371094963367625
 51
301.8911053063613963
  0
LINE
  5
E0CC
  8
0
 10
1000.9475460684999462
 20
-3.8216727721129109
 30
0.0
 11
1000.9475460684999462
 21
-3.5067420634129132
 31
0.0
  0
ARC
  5
E0CD
  8
0
 10
1000.9081460684999456
 20
-3.8216727721129131
 30
0.0
 40
0.0394
 50
270.0
 51
0.0000000000025444
  0
LINE
  5
E0CE
  8
0
 10
1000.5004266144700296
 20
-3.8610727721129119
 30
0.0
 11
1000.5154345628229748
 21
-4.7208775620225101
 31
0.0
  0
ARC
  5
E0CF
  8
0
 10
1000.9473786153230321
 20
-4.7089046396103651
 30
0.0
 40
0.4321099574881762
 50
181.5877572794373975
 51
206.3358178641227028
  0
ARC
  5
E0D0
  8
0
 10
1000.728514578991053
 20
-4.8160035372901389
 30
0.0
 40
0.1884528107948055
 50
206.6738926368377918
 51
237.7354206905243927
  0
ARC
  5
E0D1
  8
0
 10
1000.7614164369820173
 20
-4.760801044474948
 30
0.0
 40
0.2527009552375623
 50
238.10889469363849
 51
267.6289050366324886
  0
ARC
  5
E0D2
  8
0
 10
1000.8020084596470269
 20
-5.0332856444129108
 30
0.0
 40
0.02
 50
0.0000000000025444
 51
90.0
  0
ARC
  5
E0D3
  8
0
 10
1000.8588746014470416
 20
-5.0332856444129117
 30
0.0
 40
0.02
 50
90.0000000000065086
 51
179.9999999999949125
  0
LINE
  5
E0D4
  8
0
 10
1000.8388746014469461
 20
-5.1524113547129122
 30
0.0
 11
1000.8220084596470087
 21
-5.15270575431291
 31
0.0
  0
LINE
  5
E0D5
  8
0
 10
1000.8388746014469461
 20
-6.0736711973129101
 30
0.0
 11
1000.8220084596470087
 21
-6.0733767977129141
 31
0.0
  0
ARC
  5
E0D6
  8
0
 10
1000.8588746014470416
 20
-6.1655710634129131
 30
0.0
 40
0.02
 50
180.0
 51
270.0
  0
LINE
  5
E0D7
  8
0
 10
1002.0197572046639607
 20
-6.1650475244422811
 30
0.0
 11
1002.014586919602948
 21
-5.9676023055422798
 31
0.0
  0
LINE
  5
E0D8
  8
0
 10
1001.9948263308880314
 20
-5.2129758741422787
 30
0.0
 11
1001.9901072672349756
 21
-5.0327621054422789
 31
0.0
  0
ARC
  5
E0D9
  8
0
 10
1001.9997640581650558
 20
-6.1655710634129139
 30
0.0
 40
0.02
 50
269.9999999999935199
 51
1.5000000128256259
  0
LINE
  5
E0DA
  8
0
 10
1001.9748331843879896
 20
-5.2334994131129111
 30
0.0
 11
1001.7039942339220033
 21
-5.2334994131129111
 31
0.0
  0
LINE
  5
E0DB
  8
0
 10
1001.9945937731040431
 20
-5.9481258445129122
 30
0.0
 11
1001.6955086094440048
 21
-5.9481258445129122
 31
0.0
  0
LINE
  5
E0DC
  8
0
 10
1001.9952957035859527
 20
-5.9749314879129107
 30
0.0
 11
1001.7366942138850163
 21
-5.9749314879129107
 31
0.0
  0
LINE
  5
E0DD
  8
0
 10
1001.9744066983299717
 20
-5.2172125677629122
 30
0.0
 11
1001.7280313645439946
 21
-5.2172125677629122
 31
0.0
  0
ARC
  5
E0DE
  8
0
 10
1001.9744066983299717
 20
-5.1972125677629126
 30
0.0
 40
0.02
 50
270.0000000000064801
 51
1.500000012825321
  0
ARC
  5
E0DF
  8
0
 10
1001.9748331843879896
 20
-5.2134994131129098
 30
0.0
 40
0.02
 50
269.9999999999935199
 51
1.50000001282054
  0
ARC
  5
E0E0
  8
0
 10
1001.9952957035859527
 20
-5.9949314879129103
 30
0.0
 40
0.02
 50
1.5000000128177919
 51
90.0
  0
ARC
  5
E0E1
  8
0
 10
1001.9945937731040431
 20
-5.9681258445129091
 30
0.0
 40
0.02
 50
1.500000012815452
 51
90.0000000000065086
  0
ARC
  5
E0E2
  8
0
 10
1001.9701141207350474
 20
-5.0332856444129073
 30
0.0
 40
0.02
 50
1.500000012810365
 51
90.0000000000065086
  0
ARC
  5
E0E3
  8
0
 10
1001.480841327185999
 20
-5.6106844543148542
 30
0.0
 40
0.4542284671235331
 50
62.3821262061413435
 51
130.5643196420483036
  0
ARC
  5
E0E4
  8
0
 10
1001.4674652653819749
 20
-5.5950586522932531
 30
0.0
 40
0.4336594438556383
 50
130.5643196420481047
 51
180.5773417389902988
  0
ARC
  5
E0E5
  8
0
 10
1001.4808844799249528
 20
-5.594923428809909
 30
0.0
 40
0.4470793396947398
 50
180.5773417389902988
 51
227.3410463684824947
  0
ARC
  5
E0E6
  8
0
 10
1001.4792572553310492
 20
-5.5966893719351427
 30
0.0
 40
0.4446780036082921
 50
227.3410463684824947
 51
269.6576302050452227
  0
ARC
  5
E0E7
  8
0
 10
1001.4793058399050096
 20
-5.588558812787884
 30
0.0
 40
0.4528087079140598
 50
269.6576302050452227
 51
298.9461090515982846
  0
ARC
  5
E0E8
  8
0
 10
1001.4804344634500239
 20
-5.5776209920754729
 30
0.0
 40
0.3995507721834002
 50
62.1498977719277192
 51
129.7129655360633933
  0
ARC
  5
E0E9
  8
0
 10
1001.4921801058959545
 20
-5.5917621743967869
 30
0.0
 40
0.4179337304306069
 50
129.712965536063308
 51
181.0510383217701076
  0
ARC
  5
E0EA
  8
0
 10
1001.4804481850129605
 20
-5.5919774098267183
 30
0.0
 40
0.4061998353447378
 50
181.0510383217701076
 51
235.5240912236604913
  0
ARC
  5
E0EB
  8
0
 10
1001.4806605761050378
 20
-5.591668100334088
 30
0.0
 40
0.4065750450701753
 50
235.524091223660605
 51
296.2610101050623257
  0
ARC
  5
E0EC
  8
0
 10
1001.6955086094440048
 20
-6.0271258445128373
 30
0.0
 40
0.079
 50
89.9999999999934914
 51
116.2610101050833009
  0
ARC
  5
E0ED
  8
0
 10
1001.7366942138850163
 20
-6.0539314879128607
 30
0.0
 40
0.079
 50
89.9999999999934914
 51
118.9461090516064985
  0
ARC
  5
E0EE
  8
0
 10
1001.7280313645439946
 20
-5.138212567762932
 30
0.0
 40
0.079
 50
242.3821262061343873
 51
270.0
  0
ARC
  5
E0EF
  8
0
 10
1001.7039942339220033
 20
-5.1544994131129638
 30
0.0
 40
0.079
 50
242.1498977719132029
 51
270.0000000000064801
  0
ARC
  5
E0F0
  8
0
 10
1001.4429893595309977
 20
-5.594201707436234
 30
0.0
 40
0.3962753999470688
 50
161.0483260310926994
 51
180.7557205604364015
  0
ARC
  5
E0F1
  8
0
 10
1001.3781652700509994
 20
-5.5719421238936331
 30
0.0
 40
0.3277359832854515
 50
152.2608263464966001
 51
161.0483260310928131
  0
ARC
  5
E0F2
  8
0
 10
1001.2015024328569552
 20
-5.4790379263094202
 30
0.0
 40
0.1281340094116497
 50
146.2283844963112927
 51
152.2608263464966001
  0
ARC
  5
E0F3
  8
0
 10
1001.1123175966509962
 20
-5.4193978439387172
 30
0.0
 40
0.0208452661331557
 50
134.8894800507804064
 51
146.2283844963118895
  0
ARC
  5
E0F4
  8
0
 10
1001.0982238591969917
 20
-5.405249629470565
 30
0.0
 40
0.0008751532623496
 50
96.3578550316450446
 51
134.8894800507571858
  0
ARC
  5
E0F5
  8
0
 10
1001.0980491187480084
 20
-5.4047599780382001
 30
0.0
 40
0.0003880049841006
 50
353.840106737961321
 51
78.4288569925149659
  0
ARC
  5
E0F6
  8
0
 10
997.6089701143426964
 20
-4.2929841487626321
 30
0.0
 40
3.6623083495978062
 50
341.5209318687240057
 51
342.3270181631403943
  0
ARC
  5
E0F7
  8
0
 10
1001.5265126799889686
 20
-5.5926448711432446
 30
0.0
 40
0.4652698931098974
 50
162.6351705492365909
 51
180.8353833113253017
  0
ARC
  5
E0F8
  8
0
 10
1001.4429893595309977
 20
-5.6046550003895899
 30
0.0
 40
0.3962753999470688
 50
179.2442794395635985
 51
198.9516739689071869
  0
ARC
  5
E0F9
  8
0
 10
1001.3781652700509994
 20
-5.6269145839321917
 30
0.0
 40
0.3277359832854515
 50
198.9516739689071017
 51
207.7391736535033999
  0
ARC
  5
E0FA
  8
0
 10
1001.2015024328569552
 20
-5.7198187815164054
 30
0.0
 40
0.1281340094116497
 50
207.7391736535033999
 51
213.7716155036885937
  0
ARC
  5
E0FB
  8
0
 10
1001.1123175966509962
 20
-5.7794588638871076
 30
0.0
 40
0.0208452661331557
 50
213.7716155036879115
 51
225.1105199492195936
  0
ARC
  5
E0FC
  8
0
 10
1001.0982238591969917
 20
-5.7936070783552589
 30
0.0
 40
0.0008751532623496
 50
225.1105199492428142
 51
263.6421449683548985
  0
ARC
  5
E0FD
  8
0
 10
1001.0980491187480084
 20
-5.7940967297876238
 30
0.0
 40
0.0003880049841006
 50
281.5711430074849773
 51
6.1598932620387004
  0
ARC
  5
E0FE
  8
0
 10
997.6089701143426964
 20
-6.9058725590631926
 30
0.0
 40
3.6623083495978062
 50
17.6729818368595986
 51
18.4790681312760015
  0
ARC
  5
E0FF
  8
0
 10
1001.5265126799889686
 20
-5.6062118366825802
 30
0.0
 40
0.4652698931098974
 50
179.164616688674613
 51
197.3648294507632954
  0
ARC
  5
E100
  8
0
 10
1000.8515045226539542
 20
-5.6130412760116757
 30
0.0
 40
0.1999999999924668
 50
5.6818756607983918
 51
11.7440734496436505
  0
ARC
  5
E101
  8
0
 10
1001.0480784725909871
 20
-4.270478016480566
 30
0.0
 40
1.3227645204268521
 50
269.9409462217590772
 51
270.1058379944591934
  0
ARC
  5
E102
  8
0
 10
1000.9484005994939935
 20
-5.6232736677721302
 30
0.0
 40
0.1026328637429488
 50
5.7218366511316594
 51
16.6815625802645293
  0
ARC
  5
E103
  8
0
 10
1000.9490262993059559
 20
-5.6029050936782214
 30
0.0
 40
0.1020006948542254
 50
344.8771558229490779
 51
354.2968958469410836
  0
ARC
  5
E104
  8
0
 10
1000.9496647820379849
 20
-5.6227909940600851
 30
0.0
 40
0.10135673849089
 50
347.7281489509359176
 51
354.3099155112216181
  0
LINE
  5
E105
  8
0
 10
1001.0505221098369475
 20
-5.6328402659129111
 30
0.0
 11
1001.047717575297952
 21
-5.6328402659129111
 31
0.0
  0
ARC
  5
E106
  8
0
 10
1000.0387865873799456
 20
-4.6866538438087577
 30
0.0
 40
0.9523434202459971
 50
200.0583474697149882
 51
228.8698801661593905
  0
ARC
  5
E107
  8
0
 10
1000.0376084986670548
 20
-4.7452989212229397
 30
0.0
 40
0.9081783173406778
 50
226.491530170811302
 51
247.8808163781650933
  0
ARC
  5
E108
  8
0
 10
999.9432961709270558
 20
-4.9773392684216686
 30
0.0
 40
0.6577036920951383
 50
247.8808163781650933
 51
261.5822553697008743
  0
ARC
  5
E109
  8
0
 10
999.9491606499473164
 20
-4.9377100248668979
 30
0.0
 40
0.697764509097575
 50
261.5822553697008743
 51
269.8706368721428248
  0
ARC
  5
E10A
  8
0
 10
999.8563838723133586
 20
-4.6866538438087524
 30
0.0
 40
0.9523434202460054
 50
311.1301198338405243
 51
339.9416525302847276
  0
ARC
  5
E10B
  8
0
 10
999.8575619610264766
 20
-4.7452989212229397
 30
0.0
 40
0.9081783173406778
 50
292.1191836218349067
 51
313.5084698291885843
  0
ARC
  5
E10C
  8
0
 10
999.9518742887669305
 20
-4.9773392684216686
 30
0.0
 40
0.6577036920951383
 50
278.417744630299012
 51
292.1191836218349067
  0
ARC
  5
E10D
  8
0
 10
999.9460098097466698
 20
-4.9377100248668979
 30
0.0
 40
0.697764509097575
 50
270.1293631278571752
 51
278.417744630299012
  0
ENDSEC
  0
EOF
