  0
SECTION
  2
HEADER
  9
$ACADVER
  1
AC1009
  9
$INSBASE
 10
4938.8582019905152265
 20
336.6246953602686744
 30
0.0
  9
$EXTMIN
 10
4926.7332234705518204
 20
334.3109652280742239
 30
-0.0015258207003583
  9
$EXTMAX
 10
4951.2864247954639723
 20
342.1417285426894068
 30
0.0000000349246037
  9
$LIMMIN
 10
0.0
 20
0.0
  9
$LIMMAX
 10
11.6929133858000007
 20
8.2677165353999982
  9
$ORTHOMODE
 70
     0
  9
$REGENMODE
 70
     1
  9
$FILLMODE
 70
     1
  9
$QTEXTMODE
 70
     0
  9
$MIRRTEXT
 70
     0
  9
$DRAGMODE
 70
     2
  9
$LTSCALE
 40
0.6431102362
  9
$OSMODE
 70
  4095
  9
$ATTMODE
 70
     1
  9
$TEXTSIZE
 40
0.2
  9
$TRACEWID
 40
0.05
  9
$TEXTSTYLE
  7
STANDARD
  9
$CLAYER
  8
0
  9
$CELTYPE
  6
BYLAYER
  9
$CECOLOR
 62
   256
  9
$DIMSCALE
 40
1.0
  9
$DIMASZ
 40
0.1875
  9
$DIMEXO
 40
0.0625
  9
$DIMDLI
 40
0.4443307087
  9
$DIMRND
 40
0.0
  9
$DIMDLE
 40
0.0
  9
$DIMEXE
 40
0.125
  9
$DIMTP
 40
0.01
  9
$DIMTM
 40
0.01
  9
$DIMTXT
 40
2.0
  9
$DIMCEN
 40
0.1052362205
  9
$DIMTSZ
 40
0.0
  9
$DIMTOL
 70
     1
  9
$DIMLIM
 70
     0
  9
$DIMTIH
 70
     1
  9
$DIMTOH
 70
     1
  9
$DIMSE1
 70
     0
  9
$DIMSE2
 70
     0
  9
$DIMTAD
 70
     0
  9
$DIMZIN
 70
     0
  9
$DIMBLK
  1

  9
$DIMASO
 70
     1
  9
$DIMSHO
 70
     1
  9
$DIMPOST
  1
\X
  9
$DIMAPOST
  1

  9
$DIMALT
 70
     1
  9
$DIMALTD
 70
     2
  9
$DIMALTF
 40
25.3999999999999986
  9
$DIMLFAC
 40
1.0
  9
$DIMTOFL
 70
     0
  9
$DIMTVP
 40
0.0
  9
$DIMTIX
 70
     0
  9
$DIMSOXD
 70
     0
  9
$DIMSAH
 70
     0
  9
$DIMBLK1
  1

  9
$DIMBLK2
  1

  9
$DIMSTYLE
  2
STANDARD
  9
$DIMCLRD
 70
     0
  9
$DIMCLRE
 70
     0
  9
$DIMCLRT
 70
     0
  9
$DIMTFAC
 40
1.0
  9
$DIMGAP
 40
0.09
  9
$LUNITS
 70
     2
  9
$LUPREC
 70
     4
  9
$SKETCHINC
 40
0.1
  9
$FILLETRAD
 40
0.0
  9
$AUNITS
 70
     0
  9
$AUPREC
 70
     0
  9
$MENU
  1
.
  9
$ELEVATION
 40
0.0
  9
$PELEVATION
 40
0.0
  9
$THICKNESS
 40
0.0
  9
$LIMCHECK
 70
     0
  9
$BLIPMODE
 70
     0
  9
$CHAMFERA
 40
0.0
  9
$CHAMFERB
 40
0.0
  9
$SKPOLY
 70
     0
  9
$TDCREATE
 40
2458060.468368056230247
  9
$TDUPDATE
 40
2459430.4253819449804723
  9
$TDINDWG
 40
0.5992894676
  9
$TDUSRTIMER
 40
0.5992894676
  9
$USRTIMER
 70
     1
  9
$ANGBASE
 50
0.0
  9
$ANGDIR
 70
     0
  9
$PDMODE
 70
     0
  9
$PDSIZE
 40
0.3125
  9
$PLINEWID
 40
0.0
  9
$COORDS
 70
     1
  9
$SPLFRAME
 70
     0
  9
$SPLINETYPE
 70
     6
  9
$SPLINESEGS
 70
     8
  9
$ATTDIA
 70
     1
  9
$ATTREQ
 70
     1
  9
$HANDLING
 70
     1
  9
$HANDSEED
  5
21F80
  9
$SURFTAB1
 70
     6
  9
$SURFTAB2
 70
     6
  9
$SURFTYPE
 70
     6
  9
$SURFU
 70
     6
  9
$SURFV
 70
     6
  9
$UCSNAME
  2

  9
$UCSORG
 10
0.0
 20
0.0
 30
0.0
  9
$UCSXDIR
 10
1.0
 20
0.0
 30
0.0
  9
$UCSYDIR
 10
0.0
 20
1.0
 30
0.0
  9
$PUCSNAME
  2

  9
$PUCSORG
 10
0.0
 20
0.0
 30
0.0
  9
$PUCSXDIR
 10
1.0
 20
0.0
 30
0.0
  9
$PUCSYDIR
 10
0.0
 20
1.0
 30
0.0
  9
$USERI1
 70
     0
  9
$USERI2
 70
     0
  9
$USERI3
 70
     0
  9
$USERI4
 70
     0
  9
$USERI5
 70
     0
  9
$USERR1
 40
0.0
  9
$USERR2
 40
0.0
  9
$USERR3
 40
0.0
  9
$USERR4
 40
0.0
  9
$USERR5
 40
0.0
  9
$WORLDVIEW
 70
     1
  9
$SHADEDGE
 70
     3
  9
$SHADEDIF
 70
    70
  9
$TILEMODE
 70
     1
  9
$MAXACTVP
 70
    64
  9
$PLIMCHECK
 70
     0
  9
$PEXTMIN
 10
1.0000000000000000E+20
 20
1.0000000000000000E+20
 30
1.0000000000000000E+20
  9
$PEXTMAX
 10
-1.0000000000000000E+20
 20
-1.0000000000000000E+20
 30
-1.0000000000000000E+20
  9
$PLIMMIN
 10
0.0
 20
0.0
  9
$PLIMMAX
 10
12.0
 20
9.0
  9
$UNITMODE
 70
     0
  9
$VISRETAIN
 70
     1
  9
$PLINEGEN
 70
     0
  9
$PSLTSCALE
 70
     1
  0
ENDSEC
  0
SECTION
  2
TABLES
  0
TABLE
  2
VPORT
 70
     1
  0
VPORT
  2
*ACTIVE
 70
     0
 10
0.0
 20
0.0
 11
1.0
 21
1.0
 12
1027.6444676876949416
 22
205.646741782842696
 13
0.0
 23
0.0
 14
1.0
 24
1.0
 15
0.0
 25
0.0
 16
0.0
 26
0.0
 36
60.4960186965801583
 17
3911.3653564453120453
 27
132.5796051025390057
 37
0.0
 40
12.0791839958481102
 41
2.0410052910052912
 42
50.0
 43
0.0
 44
0.0
 50
0.0
 51
0.0
 71
     0
 72
   100
 73
     1
 74
     1
 75
     0
 76
     0
 77
     0
 78
     0
  0
ENDTAB
  0
TABLE
  2
LTYPE
 70
     2
  0
LTYPE
  2
CONTINUOUS
 70
     0
  3
Solid line
 72
    65
 73
     0
 40
0.0
  0
LTYPE
  2
PHANTOM2
 70
     0
  3
___ _ _ ___ _ _ ___ _ _ ___ _ _
 72
    65
 73
     6
 40
1.25
 49
0.625
 49
-0.125
 49
0.125
 49
-0.125
 49
0.125
 49
-0.125
  0
ENDTAB
  0
TABLE
  2
LAYER
 70
     2
  0
LAYER
  2
0
 70
     0
 62
   255
  6
CONTINUOUS
  0
LAYER
  2
DEFPOINTS
 70
     0
 62
     7
  6
CONTINUOUS
  0
ENDTAB
  0
TABLE
  2
STYLE
 70
     1
  0
STYLE
  2
STANDARD
 70
     0
 40
0.0
 41
0.8
 50
0.0
 71
     0
 42
0.2
  3
txt
  4

  0
ENDTAB
  0
TABLE
  2
VIEW
 70
     0
  0
ENDTAB
  0
TABLE
  2
UCS
 70
     0
  0
ENDTAB
  0
TABLE
  2
APPID
 70
    11
  0
APPID
  2
ACAD
 70
     0
  0
APPID
  2
ACAD_MLEADERVER
 70
     0
  0
APPID
  2
ACAD_EXEMPT_FROM_CAD_STANDARDS
 70
     0
  0
APPID
  2
ACAD_NAV_VCDISPLAY
 70
     0
  0
APPID
  2
ACAECLAYERSTANDARD
 70
     0
  0
APPID
  2
ACCMTRANSPARENCY
 70
     0
  0
APPID
  2
ACAD_DSTYLE_DIMJAG
 70
     0
  0
APPID
  2
ACAD_DSTYLE_DIMTALN
 70
     0
  0
APPID
  2
ACDBATTR
 70
     0
  0
APPID
  2
ACADANNOTATIVE
 70
     0
  0
APPID
  2
DCO15
 70
     0
  0
ENDTAB
  0
TABLE
  2
DIMSTYLE
 70
     1
  0
DIMSTYLE
  2
STANDARD
 70
     0
  3

  4

  5

  6

  7

 40
1.0
 41
0.1875
 42
0.0625
 43
0.38
 44
0.125
 45
0.0
 46
0.0
 47
0.01
 48
0.01
140
0.15625
141
0.09
142
0.0
143
25.3999999999999986
144
1.0
145
0.0
146
1.0
147
0.09
 71
     1
 72
     0
 73
     1
 74
     1
 75
     0
 76
     0
 77
     0
 78
     4
170
     0
171
     2
172
     0
173
     0
174
     0
175
     0
176
     0
177
     0
178
     0
  0
ENDTAB
  0
ENDSEC
  0
SECTION
  2
BLOCKS
  0
BLOCK
  8
0
  2
$MODEL_SPACE
 70
     0
 10
0.0
 20
0.0
 30
0.0
  3
$MODEL_SPACE
  1

  0
ENDBLK
  5
21
  8
0
  0
BLOCK
 67
     1
  8
0
  2
$PAPER_SPACE
 70
     0
 10
0.0
 20
0.0
 30
0.0
  3
$PAPER_SPACE
  1

  0
ENDBLK
  5
1D
 67
     1
  8
0
  0
ENDSEC
  0
SECTION
  2
ENTITIES
  0
ATTDEF
  5
20106
  8
DEFPOINTS
 10
4938.8506319486596112
 20
336.6217322296466818
 30
0.0
 40
0.001
  1
K-98420T-TS
  3

  2
MODELNUMBER
 70
     0
1001
ACDBATTR
1070
     0
1070
     1
  0
ATTDEF
  5
20107
  8
DEFPOINTS
 10
4938.8505061390042101
 20
336.6200653892676087
 30
0.0
 40
0.001
  1
BENJARONG
  3

  2
TRADENAME
 70
     0
1001
ACDBATTR
1070
     0
1070
     1
  0
ATTDEF
  5
20108
  8
DEFPOINTS
 10
4938.8506319486596112
 20
336.6183988963132947
 30
0.0
 40
0.001
  1
BATHROOM SINK
  3

  2
PRODUCT
 70
     0
1001
ACDBATTR
1070
     0
1070
     1
  0
LINE
  5
21E96
  8
0
 10
4939.9934552122213063
 20
334.3119107590667909
 30
0.0
 11
4937.7229487688109657
 21
334.3119107590687236
 31
0.0
  0
LINE
  5
21E97
  8
0
 10
4948.7530009931151653
 20
336.6837934889678081
 30
0.0
 11
4928.9634029879180162
 21
336.6837934889667281
 31
0.0
  0
LINE
  5
21E98
  8
0
 10
4948.6546920053151553
 20
336.6246953602686744
 30
0.0
 11
4929.0617119757152977
 21
336.6246953602686744
 31
0.0
  0
ARC
  5
21E99
  8
0
 10
4938.8801425572983135
 20
336.3925963663381253
 30
0.0
 40
2.1514193886080051
 50
195.5570267708808956
 51
231.6119164181573922
  0
ARC
  5
21E9A
  8
0
 10
4937.7229487688109657
 20
334.4693894011376187
 30
0.0
 40
0.1574786420708135
 50
184.9994422525595894
 51
270.0
  0
ARC
  5
21E9B
  8
0
 10
4939.9933963914936612
 20
334.4693910839915816
 30
0.0
 40
0.1574803359098577
 50
270.0214006369889148
 51
354.9999970495878188
  0
LINE
  5
21E9C
  8
0
 10
4940.1722020974148109
 20
334.706265438368689
 30
0.0
 11
4940.1502774664741082
 21
334.4556657602686869
 31
0.0
  0
ARC
  5
21E9D
  8
0
 10
4936.9268615814517034
 20
350.2161956307569994
 30
0.0
 40
14.4010985543272607
 50
250.6962294897911079
 51
269.5252755858211913
  0
LINE
  5
21E9E
  8
0
 10
4937.5660692469164132
 20
334.4556657602686869
 30
0.0
 11
4937.5441438751158785
 21
334.7062651690686721
 31
0.0
  0
ARC
  5
21E9F
  8
0
 10
4937.9169330261465802
 20
335.1905119077570134
 30
0.0
 40
0.6114197760189969
 50
232.0513957675011909
 51
268.9843836722737933
  0
ARC
  5
21EA0
  8
0
 10
4938.932825028170555
 20
324.0865972271486726
 30
0.0
 40
10.5427054500421704
 50
90.4057102202474852
 51
95.5887598047069957
  0
LINE
  5
21EA1
  8
0
 10
4929.0617119757152977
 20
336.6837934889687176
 30
0.0
 11
4929.0617119757152977
 21
336.6246953602686744
 31
0.0
  0
ARC
  5
21EA2
  8
0
 10
4941.6615778971936379
 20
345.3615644972455812
 30
0.0
 40
15.3800960887357405
 50
194.0773265598419073
 51
214.3482037637299129
  0
ARC
  5
21EA3
  8
0
 10
4930.7893401244591587
 20
290.8482217838158022
 30
0.0
 40
51.2162699187223609
 50
90.4404723450893471
 51
94.2600416885313734
  0
ARC
  5
21EA4
  8
0
 10
4926.9994234633868473
 20
341.6637467725009856
 30
0.0
 40
0.259654196628232
 50
93.2223080336491989
 51
189.5550487470848964
  0
ARC
  5
21EA5
  8
0
 10
4938.7481198338828108
 20
-174.4065307755998049
 30
0.0
 40
516.5370443568073142
 50
89.9877893694479667
 51
90.9265249779705726
  0
ARC
  5
21EA6
  8
0
 10
4935.7889678800293041
 20
410.51965888730399
 30
0.0
 40
69.5284225199441721
 50
262.7569600394896838
 51
267.432183372111183
  0
ARC
  5
21EA7
  8
0
 10
4939.558915121913742
 20
494.6998406630409022
 30
0.0
 40
153.7929790871282876
 50
267.4341453596614997
 51
269.7389474849642284
  0
ARC
  5
21EA8
  8
0
 10
4927.1324829862496699
 20
342.5178172829312189
 30
0.0
 40
0.9779187179231456
 50
246.5531925166258986
 51
263.5679115053283113
  0
ARC
  5
21EA9
  8
0
 10
4938.836261423733049
 20
336.3925963663381253
 30
0.0
 40
2.1514193886080051
 50
308.3880835818426931
 51
344.4429732291191044
  0
ARC
  5
21EAA
  8
0
 10
4939.9934552122213063
 20
334.4693894011376187
 30
0.0
 40
0.1574786420708135
 50
270.0
 51
355.0005577474403822
  0
ARC
  5
21EAB
  8
0
 10
4940.7895423995796591
 20
350.2161956307569994
 30
0.0
 40
14.4010985543272607
 50
270.4747244141788087
 51
289.3037705102090058
  0
LINE
  5
21EAC
  8
0
 10
4940.1503347341158587
 20
334.4556657602686869
 30
0.0
 11
4940.1722601059145745
 21
334.7062651690686721
 31
0.0
  0
ARC
  5
21EAD
  8
0
 10
4939.7786641822376623
 20
335.2528669990491039
 30
0.0
 40
0.6737431541314876
 50
270.7918351381495086
 51
306.0826376340846764
  0
ARC
  5
21EAE
  8
0
 10
4938.8129488803078857
 20
325.0892950842369942
 30
0.0
 40
9.5398504810695872
 50
84.1338065683193435
 51
89.7283857393035049
  0
LINE
  5
21EAF
  8
0
 10
4948.6546920053151553
 20
336.6837934889687176
 30
0.0
 11
4948.6546920053151553
 21
336.6246953602686744
 31
0.0
  0
ARC
  5
21EB0
  8
0
 10
4936.0548260838359056
 20
345.3615644972455812
 30
0.0
 40
15.3800960887357405
 50
325.6517962362701724
 51
345.9226734401580075
  0
ARC
  5
21EB1
  8
0
 10
4946.9270638565722038
 20
290.8482217838158022
 30
0.0
 40
51.2162699187223609
 50
85.739958311468655
 51
89.5595276549106387
  0
ARC
  5
21EB2
  8
0
 10
4950.7169805176436057
 20
341.6637467725009856
 30
0.0
 40
0.259654196628232
 50
350.4449512529150752
 51
86.7776919663508153
  0
ARC
  5
21EB3
  8
0
 10
4938.9682841471467327
 20
-174.4065307757618939
 30
0.0
 40
516.5370443569694316
 50
89.0734750220294274
 51
90.0122106305520617
  0
ARC
  5
21EB4
  8
0
 10
4941.9274361010029679
 20
410.51965888730399
 30
0.0
 40
69.5284225199441721
 50
272.5678166278887034
 51
277.2430399605103162
  0
ARC
  5
21EB5
  8
0
 10
4938.157488859116711
 20
494.6998406630409022
 30
0.0
 40
153.7929790871282876
 50
270.2610525150357716
 51
272.5658546403385003
  0
ARC
  5
21EB6
  8
0
 10
4950.5839209947807831
 20
342.5178172829312189
 30
0.0
 40
0.9779187179231456
 50
276.4320884946716887
 51
293.4468074833740729
  0
ENDSEC
  0
EOF
