  0
SECTION
  2
HEADER
  9
$ACADVER
  1
AC1009
  9
$INSBASE
 10
4970.0093223050444067
 20
340.4214779345124953
 30
0.0
  9
$EXTMIN
 10
4957.7049418522437918
 20
331.6835172983708162
 30
-0.0000000349181948
  9
$EXTMAX
 10
4982.412495930249861
 20
349.1593322593625999
 30
0.0000000814935746
  9
$LIMMIN
 10
0.0
 20
0.0
  9
$LIMMAX
 10
11.6929133858000007
 20
8.2677165353999982
  9
$ORTHOMODE
 70
     0
  9
$REGENMODE
 70
     1
  9
$FILLMODE
 70
     1
  9
$QTEXTMODE
 70
     0
  9
$MIRRTEXT
 70
     0
  9
$DRAGMODE
 70
     2
  9
$LTSCALE
 40
0.6431102362
  9
$OSMODE
 70
  4095
  9
$ATTMODE
 70
     1
  9
$TEXTSIZE
 40
0.2
  9
$TRACEWID
 40
0.05
  9
$TEXTSTYLE
  7
STANDARD
  9
$CLAYER
  8
0
  9
$CELTYPE
  6
BYLAYER
  9
$CECOLOR
 62
   256
  9
$DIMSCALE
 40
1.0
  9
$DIMASZ
 40
0.1875
  9
$DIMEXO
 40
0.0625
  9
$DIMDLI
 40
0.4443307087
  9
$DIMRND
 40
0.0
  9
$DIMDLE
 40
0.0
  9
$DIMEXE
 40
0.125
  9
$DIMTP
 40
0.01
  9
$DIMTM
 40
0.01
  9
$DIMTXT
 40
2.0
  9
$DIMCEN
 40
0.1052362205
  9
$DIMTSZ
 40
0.0
  9
$DIMTOL
 70
     1
  9
$DIMLIM
 70
     0
  9
$DIMTIH
 70
     1
  9
$DIMTOH
 70
     1
  9
$DIMSE1
 70
     0
  9
$DIMSE2
 70
     0
  9
$DIMTAD
 70
     0
  9
$DIMZIN
 70
     0
  9
$DIMBLK
  1

  9
$DIMASO
 70
     1
  9
$DIMSHO
 70
     1
  9
$DIMPOST
  1
\X
  9
$DIMAPOST
  1

  9
$DIMALT
 70
     1
  9
$DIMALTD
 70
     2
  9
$DIMALTF
 40
25.3999999999999986
  9
$DIMLFAC
 40
1.0
  9
$DIMTOFL
 70
     0
  9
$DIMTVP
 40
0.0
  9
$DIMTIX
 70
     0
  9
$DIMSOXD
 70
     0
  9
$DIMSAH
 70
     0
  9
$DIMBLK1
  1

  9
$DIMBLK2
  1

  9
$DIMSTYLE
  2
STANDARD
  9
$DIMCLRD
 70
     0
  9
$DIMCLRE
 70
     0
  9
$DIMCLRT
 70
     0
  9
$DIMTFAC
 40
1.0
  9
$DIMGAP
 40
0.09
  9
$LUNITS
 70
     2
  9
$LUPREC
 70
     4
  9
$SKETCHINC
 40
0.1
  9
$FILLETRAD
 40
0.0
  9
$AUNITS
 70
     0
  9
$AUPREC
 70
     0
  9
$MENU
  1
.
  9
$ELEVATION
 40
0.0
  9
$PELEVATION
 40
0.0
  9
$THICKNESS
 40
0.0
  9
$LIMCHECK
 70
     0
  9
$BLIPMODE
 70
     0
  9
$CHAMFERA
 40
0.0
  9
$CHAMFERB
 40
0.0
  9
$SKPOLY
 70
     0
  9
$TDCREATE
 40
2458060.468368056230247
  9
$TDUPDATE
 40
2459430.4252777779474854
  9
$TDINDWG
 40
0.5991390046
  9
$TDUSRTIMER
 40
0.5991390046
  9
$USRTIMER
 70
     1
  9
$ANGBASE
 50
0.0
  9
$ANGDIR
 70
     0
  9
$PDMODE
 70
     0
  9
$PDSIZE
 40
0.3125
  9
$PLINEWID
 40
0.0
  9
$COORDS
 70
     1
  9
$SPLFRAME
 70
     0
  9
$SPLINETYPE
 70
     6
  9
$SPLINESEGS
 70
     8
  9
$ATTDIA
 70
     1
  9
$ATTREQ
 70
     1
  9
$HANDLING
 70
     1
  9
$HANDSEED
  5
2200C
  9
$SURFTAB1
 70
     6
  9
$SURFTAB2
 70
     6
  9
$SURFTYPE
 70
     6
  9
$SURFU
 70
     6
  9
$SURFV
 70
     6
  9
$UCSNAME
  2

  9
$UCSORG
 10
0.0
 20
0.0
 30
0.0
  9
$UCSXDIR
 10
1.0
 20
0.0
 30
0.0
  9
$UCSYDIR
 10
0.0
 20
1.0
 30
0.0
  9
$PUCSNAME
  2

  9
$PUCSORG
 10
0.0
 20
0.0
 30
0.0
  9
$PUCSXDIR
 10
1.0
 20
0.0
 30
0.0
  9
$PUCSYDIR
 10
0.0
 20
1.0
 30
0.0
  9
$USERI1
 70
     0
  9
$USERI2
 70
     0
  9
$USERI3
 70
     0
  9
$USERI4
 70
     0
  9
$USERI5
 70
     0
  9
$USERR1
 40
0.0
  9
$USERR2
 40
0.0
  9
$USERR3
 40
0.0
  9
$USERR4
 40
0.0
  9
$USERR5
 40
0.0
  9
$WORLDVIEW
 70
     1
  9
$SHADEDGE
 70
     3
  9
$SHADEDIF
 70
    70
  9
$TILEMODE
 70
     1
  9
$MAXACTVP
 70
    64
  9
$PLIMCHECK
 70
     0
  9
$PEXTMIN
 10
1.0000000000000000E+20
 20
1.0000000000000000E+20
 30
1.0000000000000000E+20
  9
$PEXTMAX
 10
-1.0000000000000000E+20
 20
-1.0000000000000000E+20
 30
-1.0000000000000000E+20
  9
$PLIMMIN
 10
0.0
 20
0.0
  9
$PLIMMAX
 10
12.0
 20
9.0
  9
$UNITMODE
 70
     0
  9
$VISRETAIN
 70
     1
  9
$PLINEGEN
 70
     0
  9
$PSLTSCALE
 70
     1
  0
ENDSEC
  0
SECTION
  2
TABLES
  0
TABLE
  2
VPORT
 70
     1
  0
VPORT
  2
*ACTIVE
 70
     0
 10
0.0
 20
0.0
 11
1.0
 21
1.0
 12
1058.693362445934099
 22
207.8418196763275887
 13
0.0
 23
0.0
 14
1.0
 24
1.0
 15
0.0
 25
0.0
 16
0.0
 26
0.0
 36
60.4960186965801583
 17
3911.3653564453120453
 27
132.5796051025390057
 37
0.0
 40
17.6231538042787506
 41
2.0410052910052912
 42
50.0
 43
0.0
 44
0.0
 50
0.0
 51
0.0
 71
     0
 72
   100
 73
     1
 74
     1
 75
     0
 76
     0
 77
     0
 78
     0
  0
ENDTAB
  0
TABLE
  2
LTYPE
 70
     2
  0
LTYPE
  2
CONTINUOUS
 70
     0
  3
Solid line
 72
    65
 73
     0
 40
0.0
  0
LTYPE
  2
PHANTOM2
 70
     0
  3
___ _ _ ___ _ _ ___ _ _ ___ _ _
 72
    65
 73
     6
 40
1.25
 49
0.625
 49
-0.125
 49
0.125
 49
-0.125
 49
0.125
 49
-0.125
  0
ENDTAB
  0
TABLE
  2
LAYER
 70
     2
  0
LAYER
  2
0
 70
     0
 62
   255
  6
CONTINUOUS
  0
LAYER
  2
DEFPOINTS
 70
     0
 62
     7
  6
CONTINUOUS
  0
ENDTAB
  0
TABLE
  2
STYLE
 70
     1
  0
STYLE
  2
STANDARD
 70
     0
 40
0.0
 41
0.8
 50
0.0
 71
     0
 42
0.2
  3
txt
  4

  0
ENDTAB
  0
TABLE
  2
VIEW
 70
     0
  0
ENDTAB
  0
TABLE
  2
UCS
 70
     0
  0
ENDTAB
  0
TABLE
  2
APPID
 70
    11
  0
APPID
  2
ACAD
 70
     0
  0
APPID
  2
ACAD_MLEADERVER
 70
     0
  0
APPID
  2
ACAD_EXEMPT_FROM_CAD_STANDARDS
 70
     0
  0
APPID
  2
ACAD_NAV_VCDISPLAY
 70
     0
  0
APPID
  2
ACAECLAYERSTANDARD
 70
     0
  0
APPID
  2
ACCMTRANSPARENCY
 70
     0
  0
APPID
  2
ACAD_DSTYLE_DIMJAG
 70
     0
  0
APPID
  2
ACAD_DSTYLE_DIMTALN
 70
     0
  0
APPID
  2
ACDBATTR
 70
     0
  0
APPID
  2
ACADANNOTATIVE
 70
     0
  0
APPID
  2
DCO15
 70
     0
  0
ENDTAB
  0
TABLE
  2
DIMSTYLE
 70
     1
  0
DIMSTYLE
  2
STANDARD
 70
     0
  3

  4

  5

  6

  7

 40
1.0
 41
0.1875
 42
0.0625
 43
0.38
 44
0.125
 45
0.0
 46
0.0
 47
0.01
 48
0.01
140
0.15625
141
0.09
142
0.0
143
25.3999999999999986
144
1.0
145
0.0
146
1.0
147
0.09
 71
     1
 72
     0
 73
     1
 74
     1
 75
     0
 76
     0
 77
     0
 78
     4
170
     0
171
     2
172
     0
173
     0
174
     0
175
     0
176
     0
177
     0
178
     0
  0
ENDTAB
  0
ENDSEC
  0
SECTION
  2
BLOCKS
  0
BLOCK
  8
0
  2
$MODEL_SPACE
 70
     0
 10
0.0
 20
0.0
 30
0.0
  3
$MODEL_SPACE
  1

  0
ENDBLK
  5
21
  8
0
  0
BLOCK
 67
     1
  8
0
  2
$PAPER_SPACE
 70
     0
 10
0.0
 20
0.0
 30
0.0
  3
$PAPER_SPACE
  1

  0
ENDBLK
  5
1D
 67
     1
  8
0
  0
ENDSEC
  0
SECTION
  2
ENTITIES
  0
ATTDEF
  5
20106
  8
DEFPOINTS
 10
4970.0040304220347025
 20
340.4188638427473848
 30
0.0
 40
0.001
  1
K-98420T-TS
  3

  2
MODELNUMBER
 70
     0
1001
ACDBATTR
1070
     0
1070
     1
  0
ATTDEF
  5
20107
  8
DEFPOINTS
 10
4970.0039046123783919
 20
340.4171970023681979
 30
0.0
 40
0.001
  1
BENJARONG
  3

  2
TRADENAME
 70
     0
1001
ACDBATTR
1070
     0
1070
     1
  0
ATTDEF
  5
20108
  8
DEFPOINTS
 10
4970.0040304220347025
 20
340.4155305094139976
 30
0.0
 40
0.001
  1
BATHROOM SINK
  3

  2
PRODUCT
 70
     0
1001
ACDBATTR
1070
     0
1070
     1
  0
ARC
  5
21F23
  8
0
 10
4970.5148067668333169
 20
332.9898052562418798
 30
0.0
 40
16.1709077318294092
 50
91.7912936857105706
 51
131.0288596619809027
  0
ARC
  5
21F24
  8
0
 10
4964.6341209953252473
 20
340.3798001448113837
 30
0.0
 40
6.7484995037836564
 50
134.5529273420889922
 51
177.7359351692338123
  0
ARC
  5
21F25
  8
0
 10
4965.7778494535195932
 20
340.7939181694753756
 30
0.0
 40
7.8883393400887911
 50
181.0715364764562878
 51
236.6694439838873905
  0
ARC
  5
21F26
  8
0
 10
4970.3240980199898331
 20
348.6187752721100992
 30
0.0
 40
16.9315562825097707
 50
238.3652470031721009
 51
268.9347488949827039
  0
ARC
  5
21F27
  8
0
 10
4970.462315462398692
 20
328.100435834608902
 30
0.0
 40
17.3057547417201185
 50
91.4999381002521233
 51
115.2719887195900981
  0
ARC
  5
21F28
  8
0
 10
4966.2915429855111142
 20
337.2975307522652884
 30
0.0
 40
7.2099942289948098
 50
116.5021691188124038
 51
152.8919045073971859
  0
ARC
  5
21F29
  8
0
 10
4963.9223599165907217
 20
338.6862902644630253
 30
0.0
 40
4.4709972208672601
 50
154.8995889581703125
 51
213.9758072274078984
  0
ARC
  5
21F2A
  8
0
 10
4966.9502080395350276
 20
340.8939116678005234
 30
0.0
 40
8.2167946509634735
 50
214.9425286878336863
 51
247.2407982085908031
  0
ARC
  5
21F2B
  8
0
 10
4970.6536031366485986
 20
351.3279867409847839
 30
0.0
 40
19.2811709009443106
 50
249.08787956387701
 51
268.0851035605625725
  0
CIRCLE
  5
21F2C
  8
0
 10
4970.0092932890447628
 20
338.7207858634973263
 30
0.0
 40
0.8858267716999964
  0
CIRCLE
  5
21F2D
  8
0
 10
4970.0093223050444067
 20
338.7207858634973263
 30
0.0
 40
1.5710802414994041
  0
CIRCLE
  5
21F2E
  8
0
 10
4970.0092932890447628
 20
346.9087107494972884
 30
0.0
 40
0.6889763780000032
  0
ARC
  5
21F2F
  8
0
 10
4969.9880864262622708
 20
332.4510658246591106
 30
0.0
 40
0.6594806966638826
 50
91.5782224360549435
 51
117.6336878952437957
  0
ARC
  5
21F30
  8
0
 10
4969.7430206952703884
 20
333.1874491031775847
 30
0.0
 40
0.1638333587926903
 50
148.3934115269057088
 51
248.2112258033845933
  0
ARC
  5
21F31
  8
0
 10
4970.0508399547416047
 20
332.70805598760262
 30
0.0
 40
0.7208581271888801
 50
93.3017637096847778
 51
128.3585557412077947
  0
LINE
  5
21F32
  8
0
 10
4969.9699232102439055
 20
333.1102963509973733
 30
0.0
 11
4969.9699944391531972
 21
333.1618379049568262
 31
0.0
  0
ARC
  5
21F33
  8
0
 10
4970.0104902905623021
 20
332.3017140864649264
 30
0.0
 40
0.8610765919002134
 50
90.0772808517896379
 51
92.6955761538108476
  0
ARC
  5
21F34
  8
0
 10
4969.6211325498316
 20
333.2889511941468754
 30
0.0
 40
15.8686082285663304
 50
48.5815986667274302
 51
88.5982479856008638
  0
ARC
  5
21F35
  8
0
 10
4975.384523614763566
 20
340.3798001448113837
 30
0.0
 40
6.7484995037836981
 50
2.2640648307662259
 51
45.4470726579109865
  0
ARC
  5
21F36
  8
0
 10
4974.2407951565692201
 20
340.7939181694753756
 30
0.0
 40
7.8883393400887876
 50
303.3305560161127232
 51
358.9284635235437122
  0
ARC
  5
21F37
  8
0
 10
4969.8524017850113523
 20
348.0806962101146951
 30
0.0
 40
16.3913021080759584
 50
270.5485238939205033
 51
302.1514802079594233
  0
ARC
  5
21F38
  8
0
 10
4969.6325448474381119
 20
328.4207038715965155
 30
0.0
 40
16.9837367877072083
 50
64.4992615857927944
 51
88.7288115943742355
  0
ARC
  5
21F39
  8
0
 10
4973.7271016245786086
 20
337.2975307522652884
 30
0.0
 40
7.2099942289948098
 50
27.1080954926028497
 51
63.497830881187582
  0
ARC
  5
21F3A
  8
0
 10
4976.0962846934980917
 20
338.6862902644630253
 30
0.0
 40
4.4709972208672601
 50
326.0241927725921869
 51
25.1004110418297408
  0
ARC
  5
21F3B
  8
0
 10
4973.0684365705546952
 20
340.8939116678005234
 30
0.0
 40
8.2167946509634735
 50
292.7592017914092253
 51
325.0574713121662853
  0
ARC
  5
21F3C
  8
0
 10
4969.769307967034365
 20
349.325485130149616
 30
0.0
 40
17.2695699062941515
 50
270.7963285370914832
 51
292.0306883384668026
  0
ARC
  5
21F3D
  8
0
 10
4970.0305581838283615
 20
332.4510658246591106
 30
0.0
 40
0.6594806966638826
 50
62.366312104756183
 51
88.4217775639450565
  0
ARC
  5
21F3E
  8
0
 10
4970.2756239148193345
 20
333.1874491031775847
 30
0.0
 40
0.1638333587926903
 50
291.7887741966154067
 51
31.6065884730942415
  0
ARC
  5
21F3F
  8
0
 10
4969.9919968556541789
 20
332.7716415580006242
 30
0.0
 40
0.6563046868053592
 50
49.8523780512431287
 51
88.4873024978790284
  0
LINE
  5
21F40
  8
0
 10
4970.0487213998439984
 20
333.1102963509973733
 30
0.0
 11
4970.0486501709347067
 21
333.1618379049568262
 31
0.0
  0
ARC
  5
21F41
  8
0
 10
4970.0081543195274207
 20
332.3017140864649264
 30
0.0
 40
0.8610765919002134
 50
87.3044238461891382
 51
89.9227191482103478
  0
POINT
  5
21F43
  8
DEFPOINTS
 10
4970.0092932890447628
 20
346.9087107494972884
 30
0.0
  0
ENDSEC
  0
EOF
