  0
SECTION
  2
HEADER
  9
$ACADVER
  1
AC1009
  9
$INSBASE
 10
306.3848491517977095
 20
67.4912454572306046
 30
0.0
  9
$EXTMIN
 10
299.4998908250739191
 20
67.4909581688891365
 30
-0.0015258207003583
  9
$EXTMAX
 10
307.4514640732788848
 20
79.9093528702800029
 30
0.0000000349246037
  9
$LIMMIN
 10
0.0
 20
0.0
  9
$LIMMAX
 10
11.6929133858000007
 20
8.2677165353999982
  9
$ORTHOMODE
 70
     0
  9
$REGENMODE
 70
     1
  9
$FILLMODE
 70
     1
  9
$QTEXTMODE
 70
     0
  9
$MIRRTEXT
 70
     0
  9
$DRAGMODE
 70
     2
  9
$LTSCALE
 40
0.6431102362
  9
$OSMODE
 70
  2039
  9
$ATTMODE
 70
     1
  9
$TEXTSIZE
 40
0.2
  9
$TRACEWID
 40
0.05
  9
$TEXTSTYLE
  7
STANDARD
  9
$CLAYER
  8
0
  9
$CELTYPE
  6
BYLAYER
  9
$CECOLOR
 62
   256
  9
$DIMSCALE
 40
1.0
  9
$DIMASZ
 40
0.1875
  9
$DIMEXO
 40
0.0625
  9
$DIMDLI
 40
0.4443307087
  9
$DIMRND
 40
0.0
  9
$DIMDLE
 40
0.0
  9
$DIMEXE
 40
0.125
  9
$DIMTP
 40
0.01
  9
$DIMTM
 40
0.01
  9
$DIMTXT
 40
1.0
  9
$DIMCEN
 40
0.1052362205
  9
$DIMTSZ
 40
0.0
  9
$DIMTOL
 70
     1
  9
$DIMLIM
 70
     0
  9
$DIMTIH
 70
     0
  9
$DIMTOH
 70
     1
  9
$DIMSE1
 70
     0
  9
$DIMSE2
 70
     0
  9
$DIMTAD
 70
     0
  9
$DIMZIN
 70
     0
  9
$DIMBLK
  1

  9
$DIMASO
 70
     1
  9
$DIMSHO
 70
     1
  9
$DIMPOST
  1
\X
  9
$DIMAPOST
  1

  9
$DIMALT
 70
     1
  9
$DIMALTD
 70
     2
  9
$DIMALTF
 40
25.3999999999999986
  9
$DIMLFAC
 40
1.0
  9
$DIMTOFL
 70
     0
  9
$DIMTVP
 40
0.0
  9
$DIMTIX
 70
     0
  9
$DIMSOXD
 70
     0
  9
$DIMSAH
 70
     0
  9
$DIMBLK1
  1

  9
$DIMBLK2
  1

  9
$DIMSTYLE
  2
STANDARD
  9
$DIMCLRD
 70
     0
  9
$DIMCLRE
 70
     0
  9
$DIMCLRT
 70
     0
  9
$DIMTFAC
 40
1.0
  9
$DIMGAP
 40
0.09
  9
$LUNITS
 70
     2
  9
$LUPREC
 70
     4
  9
$SKETCHINC
 40
0.1
  9
$FILLETRAD
 40
0.0
  9
$AUNITS
 70
     0
  9
$AUPREC
 70
     0
  9
$MENU
  1
.
  9
$ELEVATION
 40
0.0
  9
$PELEVATION
 40
0.0
  9
$THICKNESS
 40
0.0
  9
$LIMCHECK
 70
     0
  9
$BLIPMODE
 70
     0
  9
$CHAMFERA
 40
0.0
  9
$CHAMFERB
 40
0.0
  9
$SKPOLY
 70
     0
  9
$TDCREATE
 40
2458172.5207638889551163
  9
$TDUPDATE
 40
2459137.4020254630595446
  9
$TDINDWG
 40
0.2796384028
  9
$TDUSRTIMER
 40
0.2796384028
  9
$USRTIMER
 70
     1
  9
$ANGBASE
 50
0.0
  9
$ANGDIR
 70
     0
  9
$PDMODE
 70
     0
  9
$PDSIZE
 40
0.3125
  9
$PLINEWID
 40
0.0
  9
$COORDS
 70
     1
  9
$SPLFRAME
 70
     0
  9
$SPLINETYPE
 70
     6
  9
$SPLINESEGS
 70
     8
  9
$ATTDIA
 70
     1
  9
$ATTREQ
 70
     1
  9
$HANDLING
 70
     1
  9
$HANDSEED
  5
13FD8
  9
$SURFTAB1
 70
     6
  9
$SURFTAB2
 70
     6
  9
$SURFTYPE
 70
     6
  9
$SURFU
 70
     6
  9
$SURFV
 70
     6
  9
$UCSNAME
  2

  9
$UCSORG
 10
0.0
 20
0.0
 30
0.0
  9
$UCSXDIR
 10
1.0
 20
0.0
 30
0.0
  9
$UCSYDIR
 10
0.0
 20
1.0
 30
0.0
  9
$PUCSNAME
  2

  9
$PUCSORG
 10
0.0
 20
0.0
 30
0.0
  9
$PUCSXDIR
 10
1.0
 20
0.0
 30
0.0
  9
$PUCSYDIR
 10
0.0
 20
1.0
 30
0.0
  9
$USERI1
 70
     0
  9
$USERI2
 70
     0
  9
$USERI3
 70
     0
  9
$USERI4
 70
     0
  9
$USERI5
 70
     0
  9
$USERR1
 40
0.0
  9
$USERR2
 40
0.0
  9
$USERR3
 40
0.0
  9
$USERR4
 40
0.0
  9
$USERR5
 40
0.0
  9
$WORLDVIEW
 70
     1
  9
$SHADEDGE
 70
     3
  9
$SHADEDIF
 70
    70
  9
$TILEMODE
 70
     1
  9
$MAXACTVP
 70
    64
  9
$PLIMCHECK
 70
     0
  9
$PEXTMIN
 10
1.0000000000000000E+20
 20
1.0000000000000000E+20
 30
1.0000000000000000E+20
  9
$PEXTMAX
 10
-1.0000000000000000E+20
 20
-1.0000000000000000E+20
 30
-1.0000000000000000E+20
  9
$PLIMMIN
 10
0.0
 20
0.0
  9
$PLIMMAX
 10
12.0
 20
9.0
  9
$UNITMODE
 70
     0
  9
$VISRETAIN
 70
     1
  9
$PLINEGEN
 70
     0
  9
$PSLTSCALE
 70
     1
  0
ENDSEC
  0
SECTION
  2
TABLES
  0
TABLE
  2
VPORT
 70
     1
  0
VPORT
  2
*ACTIVE
 70
     0
 10
0.0
 20
0.0
 11
1.0
 21
1.0
 12
-126.1536116588772956
 22
3.9976140073658821
 13
0.0
 23
0.0
 14
1.0
 24
1.0
 15
0.0
 25
0.0
 16
0.0
 26
0.0
 36
14.6338572656650907
 17
429.6292891080536833
 27
69.7025415122186871
 37
0.0
 40
12.5217377918324004
 41
2.6486111111111108
 42
50.0
 43
0.0
 44
0.0
 50
0.0
 51
0.0
 71
     0
 72
   100
 73
     1
 74
     1
 75
     0
 76
     0
 77
     0
 78
     0
  0
ENDTAB
  0
TABLE
  2
LTYPE
 70
     2
  0
LTYPE
  2
CONTINUOUS
 70
     0
  3
Solid line
 72
    65
 73
     0
 40
0.0
  0
LTYPE
  2
PHANTOM2
 70
     0
  3
___ _ _ ___ _ _ ___ _ _ ___ _ _
 72
    65
 73
     6
 40
1.25
 49
0.625
 49
-0.125
 49
0.125
 49
-0.125
 49
0.125
 49
-0.125
  0
ENDTAB
  0
TABLE
  2
LAYER
 70
     2
  0
LAYER
  2
0
 70
     0
 62
   255
  6
CONTINUOUS
  0
LAYER
  2
DEFPOINTS
 70
     0
 62
     7
  6
CONTINUOUS
  0
ENDTAB
  0
TABLE
  2
STYLE
 70
     1
  0
STYLE
  2
STANDARD
 70
     0
 40
0.0
 41
0.8
 50
0.0
 71
     0
 42
0.2
  3
txt
  4

  0
ENDTAB
  0
TABLE
  2
VIEW
 70
     0
  0
ENDTAB
  0
TABLE
  2
UCS
 70
     0
  0
ENDTAB
  0
TABLE
  2
APPID
 70
    10
  0
APPID
  2
ACAD
 70
     0
  0
APPID
  2
ACAD_MLEADERVER
 70
     0
  0
APPID
  2
ACAD_EXEMPT_FROM_CAD_STANDARDS
 70
     0
  0
APPID
  2
ACAD_DSTYLE_DIMJAG
 70
     0
  0
APPID
  2
ACAD_DSTYLE_DIMTALN
 70
     0
  0
APPID
  2
ACAD_NAV_VCDISPLAY
 70
     0
  0
APPID
  2
ACAECLAYERSTANDARD
 70
     0
  0
APPID
  2
ACCMTRANSPARENCY
 70
     0
  0
APPID
  2
DCO15
 70
     0
  0
APPID
  2
ACDBATTR
 70
     0
  0
ENDTAB
  0
TABLE
  2
DIMSTYLE
 70
     1
  0
DIMSTYLE
  2
STANDARD
 70
     0
  3

  4

  5

  6

  7

 40
1.0
 41
0.1875
 42
0.0625
 43
0.38
 44
0.125
 45
0.0
 46
0.0
 47
0.01
 48
0.01
140
0.15625
141
0.09
142
0.0
143
25.3999999999999986
144
1.0
145
0.0
146
1.0
147
0.09
 71
     1
 72
     0
 73
     1
 74
     1
 75
     0
 76
     0
 77
     0
 78
     4
170
     0
171
     2
172
     0
173
     0
174
     0
175
     0
176
     0
177
     0
178
     0
  0
ENDTAB
  0
ENDSEC
  0
SECTION
  2
BLOCKS
  0
BLOCK
  8
0
  2
$MODEL_SPACE
 70
     0
 10
0.0
 20
0.0
 30
0.0
  3
$MODEL_SPACE
  1

  0
ENDBLK
  5
21
  8
0
  0
BLOCK
 67
     1
  8
0
  2
$PAPER_SPACE
 70
     0
 10
0.0
 20
0.0
 30
0.0
  3
$PAPER_SPACE
  1

  0
ENDBLK
  5
1D
 67
     1
  8
0
  0
BLOCK
  8
0
  2
_FILLED
 70
     0
 10
0.0
 20
0.0
 30
0.0
  3
_FILLED
  1

  0
SOLID
  5
87E2
  8
0
  6
BYBLOCK
 62
     0
 10
0.0
 20
0.0
 30
0.0
 11
-1.0
 21
0.1666666667
 31
0.0
 12
-1.0
 22
-0.1666666667
 32
0.0
 13
-1.0
 23
-0.1666666667
 33
0.0
  0
ENDBLK
  5
87E3
  8
0
  6
BYBLOCK
 62
     0
  0
ENDSEC
  0
SECTION
  2
ENTITIES
  0
ATTDEF
  5
11D0F
  8
DEFPOINTS
 10
306.3849619300746099
 20
67.4947480667123898
 30
0.0
 40
0.001
  1
K-98421T-4
  3

  2
MODELNUMBER
 70
     0
1001
ACDBATTR
1070
     0
1070
     1
  0
ATTDEF
  5
11D10
  8
DEFPOINTS
 10
306.3849619300746099
 20
67.4930814000457246
 30
0.0
 40
0.001
  1
JULY
  3

  2
TRADENAME
 70
     0
1001
ACDBATTR
1070
     0
1070
     1
  0
ATTDEF
  5
11D11
  8
DEFPOINTS
 10
306.3849619300746099
 20
67.4914147333790595
 30
0.0
 40
0.001
  1
BATHROOM SINK FAUCET
  3

  2
PRODUCT
 70
     0
1001
ACDBATTR
1070
     0
1070
     1
  0
LINE
  5
13D0E
  8
0
 10
305.3276989310977001
 20
67.4912454572306046
 30
0.0
 11
307.4420855674977133
 21
67.4912454572306046
 31
0.0
  0
LINE
  5
13D0F
  8
0
 10
302.3913199011532811
 20
79.7974177458306002
 30
0.0
 11
307.4416491280977084
 21
79.7974177458306002
 31
0.0
  0
ARC
  5
13D10
  8
0
 10
306.7681505056980882
 20
69.4024693810816018
 30
0.0
 40
0.1232384134987063
 50
98.522468280401057
 51
155.6032260556746962
  0
ARC
  5
13D11
  8
0
 10
306.9011790993728255
 20
68.8826283624724596
 30
0.0
 40
0.6593118400851877
 50
92.6357841697195141
 51
103.2658613608344069
  0
ARC
  5
13D12
  8
0
 10
306.8606321659760283
 20
69.7010680963576448
 30
0.0
 40
0.3566674230604661
 50
243.4948438514653049
 51
271.9019300683560232
  0
ARC
  5
13D13
  8
0
 10
306.7399744862956936
 20
69.4635666524603437
 30
0.0
 40
0.0903036470672971
 50
205.2236125568138903
 51
244.7538191109827039
  0
ARC
  5
13D14
  8
0
 10
306.7006820288958124
 20
69.4428715677524195
 30
0.0
 40
0.0459809445975304
 50
166.7973891701194873
 51
202.7590172909692114
  0
ARC
  5
13D15
  8
0
 10
306.6574635119906134
 20
69.2102361405110855
 30
0.0
 40
0.0572619795927236
 50
166.7271357502455942
 51
201.6045693883395131
  0
ARC
  5
13D16
  8
0
 10
306.6955581418520751
 20
69.2273584547588285
 30
0.0
 40
0.0990028659692346
 50
202.7001860781113862
 51
229.5286280542449049
  0
ARC
  5
13D17
  8
0
 10
306.3343682939608925
 20
68.9003070405904907
 30
0.0
 40
0.3892801763487275
 50
359.2948350282277943
 51
40.2912173953008974
  0
ARC
  5
13D18
  8
0
 10
306.7562357853532262
 20
68.7944750683575563
 30
0.0
 40
0.0326175184816435
 50
180.3809679724060118
 51
205.3409837221173007
  0
ARC
  5
13D19
  8
0
 10
306.7806349321663788
 20
68.8084788048300169
 30
0.0
 40
0.0607029220113183
 50
207.430524539450289
 51
238.8201653926716119
  0
ARC
  5
13D1A
  8
0
 10
306.8327539939369899
 20
68.8882525144038595
 30
0.0
 40
0.1559711214830442
 50
237.6117322641985936
 51
255.0497872692141925
  0
ARC
  5
13D1B
  8
0
 10
306.8694897647562243
 20
69.0190080027756068
 30
0.0
 40
0.2917829719256395
 50
254.7041781632700861
 51
264.3131681302019729
  0
LINE
  5
13D1C
  8
0
 10
306.7236189878977939
 20
68.8955161150305742
 30
0.0
 11
306.7236189878977939
 21
68.7942581913305986
 31
0.0
  0
LINE
  5
13D1D
  8
0
 10
306.6017311305977842
 20
69.223382850030589
 30
0.0
 11
306.6557481016848783
 21
69.452628075913907
 31
0.0
  0
ARC
  5
13D1E
  8
0
 10
306.8048252339273176
 20
69.3893684195826239
 30
0.0
 40
0.2939972898943027
 50
233.8265076709610071
 51
257.3977728350205894
  0
ARC
  5
13D1F
  8
0
 10
306.8687203429223018
 20
69.6331602983890434
 30
0.0
 40
0.5459334482579429
 50
256.4358632757464989
 51
270.3184009712391003
  0
LINE
  5
13D20
  8
0
 10
306.7925166257015235
 20
68.7375609587871708
 30
0.0
 11
306.7924760437978193
 21
68.2609552302305929
 31
0.0
  0
ARC
  5
13D21
  8
0
 10
306.974904864097482
 20
69.4024693810816018
 30
0.0
 40
0.1232384134987063
 50
24.3967739443252114
 51
81.477531719598943
  0
ARC
  5
13D22
  8
0
 10
306.8514615103613892
 20
68.9496708719355524
 30
0.0
 40
0.5918897543811195
 50
76.1480180598538823
 51
88.1219201166326229
  0
ARC
  5
13D23
  8
0
 10
306.8827454135030735
 20
69.7001571580401702
 30
0.0
 40
0.3557084540697046
 50
268.344583190099172
 51
296.524193369982811
  0
ARC
  5
13D24
  8
0
 10
307.0030808834999903
 20
69.4635666524603437
 30
0.0
 40
0.0903036470672971
 50
295.2461808890172961
 51
334.7763874431853992
  0
ARC
  5
13D25
  8
0
 10
307.0423733408999283
 20
69.4428715677524195
 30
0.0
 40
0.0459809445975304
 50
337.2409827090307886
 51
13.2026108298804594
  0
ARC
  5
13D26
  8
0
 10
307.0855918578055253
 20
69.2102361405110855
 30
0.0
 40
0.0572619795927236
 50
338.3954306116605153
 51
13.2728642497543401
  0
ARC
  5
13D27
  8
0
 10
307.0474972279436088
 20
69.2273584547588285
 30
0.0
 40
0.0990028659692346
 50
310.4713719457552088
 51
337.2998139218879032
  0
ARC
  5
13D28
  8
0
 10
307.4086870758347914
 20
68.9003070405904907
 30
0.0
 40
0.3892801763487275
 50
139.7087826046991097
 51
180.7051649717722057
  0
ARC
  5
13D29
  8
0
 10
306.9868195844425145
 20
68.7944750683575563
 30
0.0
 40
0.0326175184816435
 50
334.6590162778820172
 51
359.619032027593903
  0
ARC
  5
13D2A
  8
0
 10
306.9624204376291914
 20
68.8084788048300169
 30
0.0
 40
0.0607029220113183
 50
301.1798346073284165
 51
332.569475460549711
  0
ARC
  5
13D2B
  8
0
 10
306.9103013758592056
 20
68.8882525144038595
 30
0.0
 40
0.1559711214830442
 50
284.9502127307857791
 51
302.388267735801378
  0
ARC
  5
13D2C
  8
0
 10
306.8735656050395164
 20
69.0190080027756068
 30
0.0
 40
0.2917829719256395
 50
275.6868318697980271
 51
285.2958218367297718
  0
LINE
  5
13D2D
  8
0
 10
307.01943638189789
 20
68.8955161150305742
 30
0.0
 11
307.01943638189789
 21
68.7942581913305986
 31
0.0
  0
LINE
  5
13D2E
  8
0
 10
307.1413242391978997
 20
69.223382850030589
 30
0.0
 11
307.0873072681106919
 21
69.452628075913907
 31
0.0
  0
ARC
  5
13D2F
  8
0
 10
306.9382301358684231
 20
69.3893684195826239
 30
0.0
 40
0.2939972898943027
 50
282.602227164979297
 51
306.1734923290388792
  0
ARC
  5
13D30
  8
0
 10
306.8743632047173264
 20
69.6330020049010585
 30
0.0
 40
0.5457729613261775
 50
269.7260987631951252
 51
283.5651585301023943
  0
ARC
  5
13D31
  8
0
 10
307.2090289601006816
 20
68.3909066790397304
 30
0.0
 40
0.4363527370464844
 50
162.6632195483695114
 51
197.3262846119353071
  0
ARC
  5
13D32
  8
0
 10
307.0840980110506848
 20
68.3287032784332098
 30
0.0
 40
0.299387992109907
 50
193.0786559152788016
 51
224.6900954359061018
  0
ARC
  5
13D33
  8
0
 10
306.5413312914781159
 20
68.2623824791847511
 30
0.0
 40
0.4288692544428966
 50
342.3512808828735956
 51
17.645937370779901
  0
ARC
  5
13D34
  8
0
 10
306.9064948448922792
 20
68.1482137068939409
 30
0.0
 40
0.0463186652028014
 50
220.4674718008054981
 51
339.981549541969116
  0
LINE
  5
13D35
  8
0
 10
306.9500150490977148
 20
68.1323577751305862
 30
0.0
 11
306.9505387440977984
 21
68.7375609587881513
 31
0.0
  0
LINE
  5
13D36
  8
0
 10
307.4420855674977133
 20
67.4912454572306046
 30
0.0
 11
307.4421018218977224
 21
78.3280979826306094
 31
0.0
  0
ARC
  5
13D37
  8
0
 10
307.4027319349082745
 20
78.3280980416822388
 30
0.0
 40
0.0393698869894602
 50
359.9999140609809842
 51
90.0342669795172412
  0
LINE
  5
13D38
  8
0
 10
307.4027083888977927
 20
78.367467921630606
 30
0.0
 11
305.4545288177196198
 21
78.3663027705847384
 31
0.0
  0
ARC
  5
13D39
  8
0
 10
306.9857045407752025
 20
106.1204790943592968
 30
0.0
 40
27.79638110448996
 50
265.8605097718003094
 51
266.8422387432548248
  0
ARC
  5
13D3A
  8
0
 10
304.8650080672675813
 20
75.6608452602334722
 30
0.0
 40
2.738149290670175
 50
87.6093040630289437
 51
89.7170870758187959
  0
LINE
  5
13D3B
  8
0
 10
304.8785308954978177
 20
78.3989611582761938
 30
0.0
 11
304.5881008671938162
 21
78.3989611684183529
 31
0.0
  0
LINE
  5
13D3C
  8
0
 10
304.5881008671938162
 20
78.3989611684183529
 30
0.0
 11
300.1364549963976742
 21
78.4068392989680234
 31
0.0
  0
ARC
  5
13D3D
  8
0
 10
300.3124081506658172
 20
70.453402159227366
 30
0.0
 40
7.9553831993375921
 50
91.2673425026003287
 51
95.5327040099949869
  0
ARC
  5
13D3E
  8
0
 10
299.5501401255767178
 20
78.3325486168368457
 30
0.0
 40
0.039461119239019
 50
96.9011329739628309
 51
179.8864748927603046
  0
ARC
  5
13D3F
  8
0
 10
303.4549315301151751
 20
78.2496797186394275
 30
0.0
 40
3.945124532804968
 50
178.7952552260410926
 51
184.6852698620195952
  0
ARC
  5
13D40
  8
0
 10
300.4365641051567763
 20
77.9848149181857053
 30
0.0
 40
0.915374475007286
 50
183.5940501953000137
 51
198.321068706152289
  0
ARC
  5
13D41
  8
0
 10
300.1382768806420245
 20
77.8860441531920742
 30
0.0
 40
0.6011596880761249
 50
198.321068706152289
 51
207.7393405790917882
  0
ARC
  5
13D42
  8
0
 10
299.7905928417603718
 20
77.7032013120089715
 30
0.0
 40
0.2083293233321723
 50
207.7393405790917882
 51
225.6565479870957063
  0
ARC
  5
13D43
  8
0
 10
299.6429856070778897
 20
76.6549608058622027
 30
0.0
 40
0.8992533211113004
 50
89.1793186212483278
 51
89.8729640850274052
  0
ARC
  5
13D44
  8
0
 10
299.6188139834285948
 20
76.6328394187726332
 30
0.0
 40
0.9220272256324106
 50
78.8156426448894933
 51
87.6969454318285386
  0
ARC
  5
13D45
  8
0
 10
300.7020463770305128
 20
82.3271159189269639
 30
0.0
 40
4.87439480944946
 50
259.3074454737093788
 51
261.3681057650532011
  0
ARC
  5
13D46
  8
0
 10
300.1304551869342845
 20
78.5618225478219614
 30
0.0
 40
1.0659632872762259
 50
261.3681057650532011
 51
270.3202484488834898
  0
ARC
  5
13D47
  8
0
 10
300.1408453694735954
 20
76.7029301457756816
 30
0.0
 40
0.7929581522360991
 50
75.4503001959357817
 51
90.3202484488867583
  0
ARC
  5
13D48
  8
0
 10
300.7330503126765961
 20
78.9935111199096838
 30
0.0
 40
1.5729392233928801
 50
255.5313877556606883
 51
265.099142336784098
  0
LINE
  5
13D49
  8
0
 10
300.5986712245976946
 20
77.4263225348393149
 30
0.0
 11
304.6458762267977249
 21
77.4263225348393149
 31
0.0
  0
ARC
  5
13D4A
  8
0
 10
304.7022187490276792
 20
77.8876538317790761
 30
0.0
 40
0.4647591261582157
 50
263.0369334666581835
 51
267.8559690745859143
  0
ARC
  5
13D4B
  8
0
 10
304.5481792519300939
 20
73.8974940815449486
 30
0.0
 40
3.528373209618302
 50
85.963171522437932
 51
87.7804087380361153
  0
ARC
  5
13D4C
  8
0
 10
304.7241036224153845
 20
76.496920901700733
 30
0.0
 40
0.9230414017929376
 50
79.0649466138213484
 51
85.4972669033725055
  0
ARC
  5
13D4D
  8
0
 10
304.7634392372273737
 20
76.7005169596210976
 30
0.0
 40
0.7156802545320528
 50
62.3003237754442765
 51
79.0649466138213484
  0
ARC
  5
13D4E
  8
0
 10
304.8993971080820984
 20
76.9594820987484951
 30
0.0
 40
0.423195236230947
 50
48.1635622561550321
 51
62.3003237754442765
  0
ARC
  5
13D4F
  8
0
 10
304.9088095633732109
 20
76.9699958929098216
 30
0.0
 40
0.4090837450881218
 50
24.4399904585336785
 51
48.1635622561550321
  0
ARC
  5
13D50
  8
0
 10
304.8387071222927034
 20
76.9381369993539153
 30
0.0
 40
0.4860859615761221
 50
5.502155276605567
 51
24.4399904585336785
  0
ARC
  5
13D51
  8
0
 10
304.096793184838873
 20
76.8666706452815731
 30
0.0
 40
1.2314340214465029
 50
1.678331283447668
 51
5.502155276605567
  0
LINE
  5
13D52
  8
0
 10
305.3276989310977001
 20
76.9027371533306052
 30
0.0
 11
305.3276989310977001
 21
67.4912454572306046
 31
0.0
  0
LINE
  5
13D53
  8
0
 10
299.6558657051695036
 20
77.5541218807371706
 30
0.0
 11
299.6166199662147278
 21
77.4263226616411373
 31
0.0
  0
LINE
  5
13D54
  8
0
 10
299.6166199662147278
 20
77.4263226616411373
 30
0.0
 11
299.653310859297676
 21
77.3868784085306061
 31
0.0
  0
LINE
  5
13D55
  8
0
 10
299.653310859297676
 20
77.3868784085306061
 30
0.0
 11
300.4624734836976927
 21
77.138393507739508
 31
0.0
  0
LINE
  5
13D56
  8
0
 10
300.4624734836976927
 20
77.138393507739508
 30
0.0
 11
300.5149786559977088
 21
77.1504465580306089
 31
0.0
  0
LINE
  5
13D57
  8
0
 10
300.5149786559977088
 20
77.1504465580306089
 30
0.0
 11
300.5986712245976946
 21
77.4263225348393149
 31
0.0
  0
ARC
  5
13D58
  8
0
 10
299.7227883230680163
 20
77.3717203363434294
 30
0.0
 40
0.0157480315710811
 50
184.9802176657748873
 51
252.9288516877377901
  0
LINE
  5
13D59
  8
0
 10
299.7181653467977185
 20
77.3566661479306106
 30
0.0
 11
300.3918402661140021
 21
77.1497879667657855
 31
0.0
  0
ARC
  5
13D5A
  8
0
 10
300.3964632522753959
 20
77.1648421519516035
 30
0.0
 40
0.0157480313898947
 50
252.9288138399423929
 51
320.87748627009438
  0
LINE
  5
13D5B
  8
0
 10
300.5149786559977088
 20
77.1504465580306089
 30
0.0
 11
300.2422996383186273
 21
77.234183294698795
 31
0.0
  0
LINE
  5
13D5C
  8
0
 10
299.8892989833861975
 20
77.3425859255186339
 30
0.0
 11
299.6166199657071161
 21
77.4263226621868199
 31
0.0
  0
ARC
  5
13D5D
  8
0
 10
300.2919776577828088
 20
78.0249082919725936
 30
0.0
 40
0.7922839939324002
 50
239.4526386345297908
 51
266.4050652521935945
  0
LINE
  5
13D5E
  8
0
 10
299.8892989821841866
 20
77.3425859258877324
 30
0.0
 11
299.9253101177977214
 21
77.4598520283306016
 31
0.0
  0
LINE
  5
13D5F
  8
0
 10
299.9253101177977214
 20
77.4598520283306016
 30
0.0
 11
300.2783107726976937
 21
77.3514493976306028
 31
0.0
  0
LINE
  5
13D60
  8
0
 10
300.2783107726976937
 20
77.3514493976306028
 30
0.0
 11
300.2422996386031855
 21
77.2341832946114124
 31
0.0
  0
ARC
  5
13D61
  8
0
 10
299.8757062985183097
 20
76.6693686560005432
 30
0.0
 40
0.7920381940580901
 50
59.4483775349700991
 51
86.4093263302024752
  0
ARC
  5
13D62
  8
0
 10
302.5391778926593247
 20
79.8820686359319865
 30
0.0
 40
0.1703753469465279
 50
209.7917764349805054
 51
223.5579707903955011
  0
ARC
  5
13D63
  8
0
 10
302.6977618617532926
 20
80.0328678203535731
 30
0.0
 40
0.3892115168846719
 50
223.5583312361463868
 51
232.65892142871391
  0
ARC
  5
13D64
  8
0
 10
302.6078997900722811
 20
79.9150822697409637
 30
0.0
 40
0.2410608238052601
 50
232.65892142871391
 51
248.958347886426111
  0
ARC
  5
13D65
  8
0
 10
302.6913454775756804
 20
80.131994264791814
 30
0.0
 40
0.4734699379979788
 50
248.958347886426111
 51
258.9614038901560207
  0
ARC
  5
13D66
  8
0
 10
302.724723736135104
 20
80.3030950806432742
 30
0.0
 40
0.6477960614835357
 50
258.9614038901560207
 51
268.3966693725025721
  0
ARC
  5
13D67
  8
0
 10
302.3656264151891264
 20
67.473931965560439
 30
0.0
 40
12.1863917632022307
 50
87.8918851069138043
 51
88.3966693725026005
  0
ARC
  5
13D68
  8
0
 10
302.866952034264898
 20
82.5125001506434046
 30
0.0
 40
2.8609160722594931
 50
268.9375786232743053
 51
271.1856254547373055
  0
ARC
  5
13D69
  8
0
 10
302.5460458971199955
 20
85.3587470838074012
 30
0.0
 40
5.7191954802192733
 50
273.8107396070658979
 51
275.4868086446568896
  0
ARC
  5
13D6A
  8
0
 10
303.2792398370963269
 20
77.428314143870864
 30
0.0
 40
2.2451878171027779
 50
89.8456485466848846
 51
94.7608592361661977
  0
ARC
  5
13D6B
  8
0
 10
305.5742172667568184
 20
606.7331721882264901
 30
0.0
 40
527.0646485623068429
 50
269.7511759026032223
 51
269.7966405641539041
  0
ARC
  5
13D6C
  8
0
 10
303.6156887466926264
 20
4.3259614606452876
 30
0.0
 40
75.3459331897182238
 50
89.3356111215039306
 51
89.933213716556736
  0
ARC
  5
13D6D
  8
0
 10
306.3962931694039185
 20
117.0030906579825967
 30
0.0
 40
37.3849275215724504
 50
267.0761892262800075
 51
267.5768118105723943
  0
ARC
  5
13D6E
  8
0
 10
304.8617102699191719
 20
73.8625550689245927
 30
0.0
 40
5.789220811000459
 50
89.5356187143415241
 51
90.4557807751606049
  0
ARC
  5
13D6F
  8
0
 10
304.9327653517067915
 20
79.1262556575285601
 30
0.0
 40
0.525884150723117
 50
73.5315467531089979
 51
92.6303621613643031
  0
ARC
  5
13D70
  8
0
 10
304.962719036989597
 20
79.2274647414982383
 30
0.0
 40
0.4203355811111024
 50
54.1289890343316813
 51
73.5360948864831556
  0
ARC
  5
13D71
  8
0
 10
305.0577768723281906
 20
79.3589219673671238
 30
0.0
 40
0.2581104465221695
 50
31.9928128693202716
 51
54.1289890343316813
  0
ARC
  5
13D72
  8
0
 10
305.0419825003193068
 20
79.3490553029771348
 30
0.0
 40
0.2767333693146992
 50
10.7443802057679392
 51
31.9928128693202716
  0
ARC
  5
13D73
  8
0
 10
304.574911229541101
 20
79.2604265141098665
 30
0.0
 40
0.7521391267497802
 50
0.4538087995189281
 51
10.7443802057679392
  0
ARC
  5
13D74
  8
0
 10
285.7822895137215937
 20
79.1115772356139928
 30
0.0
 40
19.5453503228599885
 50
0.3581905012195595
 51
0.4538087995189281
  0
ARC
  5
13D75
  8
0
 10
305.3373943759031022
 20
79.2277038735283128
 30
0.0
 40
0.0118110236057715
 50
149.1175203127147029
 51
180.0004797570265964
  0
LINE
  5
13D76
  8
0
 10
305.3255833522977127
 20
79.2277037746306121
 30
0.0
 11
305.3272625638977047
 21
78.5131369375306036
 31
0.0
  0
ARC
  5
13D77
  8
0
 10
305.3776680936123853
 20
78.5164686460655759
 30
0.0
 40
0.0505155194726042
 50
183.7816399192064125
 51
229.3971592169280882
  0
ARC
  5
13D78
  8
0
 10
305.3574590022925008
 20
78.5001688264814277
 30
0.0
 40
0.0254324889508492
 50
240.1280002409953909
 51
262.4555218768629743
  0
ARC
  5
13D79
  8
0
 10
305.3675150308873185
 20
78.5473689797671426
 30
0.0
 40
0.0736410125543255
 50
259.5196242187288931
 51
269.2970202832913742
  0
LINE
  5
13D7A
  8
0
 10
305.3666115290977245
 20
78.4737335099543856
 30
0.0
 11
306.3483985055897847
 21
78.4737335099543856
 31
0.0
  0
ARC
  5
13D7B
  8
0
 10
306.3498255222061744
 20
79.4587288177052073
 30
0.0
 40
0.9849963414488108
 50
269.9169925261896879
 51
295.1186631747467004
  0
LINE
  5
13D7C
  8
0
 10
306.7679509281977062
 20
78.5668830140305943
 30
0.0
 11
307.4089336594477118
 21
78.8676094964806111
 31
0.0
  0
ARC
  5
13D7D
  8
0
 10
307.3853198398567201
 20
78.9184464467273017
 30
0.0
 40
0.0560536170649056
 50
294.9149204921130263
 51
339.656816030024288
  0
ARC
  5
13D7E
  8
0
 10
307.3737316633707906
 20
78.9212957519254985
 30
0.0
 40
0.0679231016138711
 50
340.801537352521791
 51
0.7381617605886815
  0
LINE
  5
13D7F
  8
0
 10
307.4416491280977084
 20
78.9221708050221196
 30
0.0
 11
307.4416499001977172
 21
79.8135109177306106
 31
0.0
  0
ARC
  5
13D80
  8
0
 10
307.4022692230183793
 20
79.8135015224961393
 30
0.0
 40
0.0393806783000565
 50
0.0136693249195476
 51
83.0119088987255225
  0
ARC
  5
13D81
  8
0
 10
306.5077575358201898
 20
72.5157489110585942
 30
0.0
 40
7.3917506592162496
 50
83.0119088987255225
 51
89.9990176215002435
  0
LINE
  5
13D82
  8
0
 10
306.5078842728502195
 20
79.9074995691883601
 30
0.0
 11
304.8897065268910751
 21
79.9074995691338046
 31
0.0
  0
ARC
  5
13D83
  8
0
 10
302.2934947584827228
 20
337.4840417155800765
 30
0.0
 40
257.5896259162361162
 50
270.1407175205083036
 51
270.5774863607074963
  0
ARC
  5
13D84
  8
0
 10
302.8904408238399242
 20
77.109369760672223
 30
0.0
 40
2.7860515096153571
 50
89.2660211743520762
 51
96.2885724386819248
  0
ARC
  5
13D85
  8
0
 10
302.9497640422679865
 20
76.633033618766575
 30
0.0
 40
3.2660265427932229
 50
96.4076940353292855
 51
99.3497532868709357
  0
ARC
  5
13D86
  8
0
 10
302.4256743766403019
 20
79.8167781433632371
 30
0.0
 40
0.0394341854057
 50
99.5041108037708142
 51
209.403348678245294
  0
ARC
  5
13D87
  8
0
 10
306.6225673608465172
 20
78.3665885012930232
 30
0.0
 40
0.8777250161879109
 50
172.9883433468970111
 51
180.0073177754397875
  0
ARC
  5
13D88
  8
0
 10
306.5011441884624901
 20
78.3676151740147304
 30
0.0
 40
0.8657762708752205
 50
359.9888385885851108
 51
29.5777646662208191
  0
LINE
  5
13D8A
  8
0
 10
306.8405766818697202
 20
68.7286610786593712
 30
0.0
 11
306.9024786879260205
 21
68.7286610786593712
 31
0.0
  0
ENDSEC
  0
EOF
