  0
SECTION
  2
HEADER
  9
$ACADVER
  1
AC1009
  9
$INSBASE
 10
357.9286526962458765
 20
53.7738662575440003
 30
0.0
  9
$EXTMIN
 10
356.6751227377073974
 20
53.7698197633098118
 30
-0.0015258207003583
  9
$EXTMAX
 10
359.1686641118453736
 20
65.9079531999205983
 30
0.0000000349246037
  9
$LIMMIN
 10
0.0
 20
0.0
  9
$LIMMAX
 10
11.6929133858000007
 20
8.2677165353999982
  9
$ORTHOMODE
 70
     0
  9
$REGENMODE
 70
     1
  9
$FILLMODE
 70
     1
  9
$QTEXTMODE
 70
     0
  9
$MIRRTEXT
 70
     0
  9
$DRAGMODE
 70
     2
  9
$LTSCALE
 40
0.6431102362
  9
$OSMODE
 70
  4095
  9
$ATTMODE
 70
     1
  9
$TEXTSIZE
 40
0.2
  9
$TRACEWID
 40
0.05
  9
$TEXTSTYLE
  7
STANDARD
  9
$CLAYER
  8
0
  9
$CELTYPE
  6
BYLAYER
  9
$CECOLOR
 62
   256
  9
$DIMSCALE
 40
1.0
  9
$DIMASZ
 40
0.1875
  9
$DIMEXO
 40
0.0625
  9
$DIMDLI
 40
0.4443307087
  9
$DIMRND
 40
0.0
  9
$DIMDLE
 40
0.0
  9
$DIMEXE
 40
0.125
  9
$DIMTP
 40
0.01
  9
$DIMTM
 40
0.01
  9
$DIMTXT
 40
1.0
  9
$DIMCEN
 40
0.1052362205
  9
$DIMTSZ
 40
0.0
  9
$DIMTOL
 70
     1
  9
$DIMLIM
 70
     0
  9
$DIMTIH
 70
     0
  9
$DIMTOH
 70
     1
  9
$DIMSE1
 70
     0
  9
$DIMSE2
 70
     0
  9
$DIMTAD
 70
     0
  9
$DIMZIN
 70
     0
  9
$DIMBLK
  1

  9
$DIMASO
 70
     1
  9
$DIMSHO
 70
     1
  9
$DIMPOST
  1
\X
  9
$DIMAPOST
  1

  9
$DIMALT
 70
     1
  9
$DIMALTD
 70
     2
  9
$DIMALTF
 40
25.3999999999999986
  9
$DIMLFAC
 40
1.0
  9
$DIMTOFL
 70
     0
  9
$DIMTVP
 40
0.0
  9
$DIMTIX
 70
     0
  9
$DIMSOXD
 70
     0
  9
$DIMSAH
 70
     0
  9
$DIMBLK1
  1

  9
$DIMBLK2
  1

  9
$DIMSTYLE
  2
STANDARD
  9
$DIMCLRD
 70
     0
  9
$DIMCLRE
 70
     0
  9
$DIMCLRT
 70
     0
  9
$DIMTFAC
 40
1.0
  9
$DIMGAP
 40
0.09
  9
$LUNITS
 70
     2
  9
$LUPREC
 70
     4
  9
$SKETCHINC
 40
0.1
  9
$FILLETRAD
 40
0.0
  9
$AUNITS
 70
     0
  9
$AUPREC
 70
     0
  9
$MENU
  1
.
  9
$ELEVATION
 40
0.0
  9
$PELEVATION
 40
0.0
  9
$THICKNESS
 40
0.0
  9
$LIMCHECK
 70
     0
  9
$BLIPMODE
 70
     0
  9
$CHAMFERA
 40
0.0
  9
$CHAMFERB
 40
0.0
  9
$SKPOLY
 70
     0
  9
$TDCREATE
 40
2458172.5207638889551163
  9
$TDUPDATE
 40
2459083.819189814850688
  9
$TDINDWG
 40
0.3005180324
  9
$TDUSRTIMER
 40
0.3005180324
  9
$USRTIMER
 70
     1
  9
$ANGBASE
 50
0.0
  9
$ANGDIR
 70
     0
  9
$PDMODE
 70
     0
  9
$PDSIZE
 40
0.3125
  9
$PLINEWID
 40
0.0
  9
$COORDS
 70
     1
  9
$SPLFRAME
 70
     0
  9
$SPLINETYPE
 70
     6
  9
$SPLINESEGS
 70
     8
  9
$ATTDIA
 70
     1
  9
$ATTREQ
 70
     1
  9
$HANDLING
 70
     1
  9
$HANDSEED
  5
127BA
  9
$SURFTAB1
 70
     6
  9
$SURFTAB2
 70
     6
  9
$SURFTYPE
 70
     6
  9
$SURFU
 70
     6
  9
$SURFV
 70
     6
  9
$UCSNAME
  2

  9
$UCSORG
 10
0.0
 20
0.0
 30
0.0
  9
$UCSXDIR
 10
1.0
 20
0.0
 30
0.0
  9
$UCSYDIR
 10
0.0
 20
1.0
 30
0.0
  9
$PUCSNAME
  2

  9
$PUCSORG
 10
0.0
 20
0.0
 30
0.0
  9
$PUCSXDIR
 10
1.0
 20
0.0
 30
0.0
  9
$PUCSYDIR
 10
0.0
 20
1.0
 30
0.0
  9
$USERI1
 70
     0
  9
$USERI2
 70
     0
  9
$USERI3
 70
     0
  9
$USERI4
 70
     0
  9
$USERI5
 70
     0
  9
$USERR1
 40
0.0
  9
$USERR2
 40
0.0
  9
$USERR3
 40
0.0
  9
$USERR4
 40
0.0
  9
$USERR5
 40
0.0
  9
$WORLDVIEW
 70
     1
  9
$SHADEDGE
 70
     3
  9
$SHADEDIF
 70
    70
  9
$TILEMODE
 70
     1
  9
$MAXACTVP
 70
    64
  9
$PLIMCHECK
 70
     0
  9
$PEXTMIN
 10
1.0000000000000000E+20
 20
1.0000000000000000E+20
 30
1.0000000000000000E+20
  9
$PEXTMAX
 10
-1.0000000000000000E+20
 20
-1.0000000000000000E+20
 30
-1.0000000000000000E+20
  9
$PLIMMIN
 10
0.0
 20
0.0
  9
$PLIMMAX
 10
12.0
 20
9.0
  9
$UNITMODE
 70
     0
  9
$VISRETAIN
 70
     1
  9
$PLINEGEN
 70
     0
  9
$PSLTSCALE
 70
     1
  0
ENDSEC
  0
SECTION
  2
TABLES
  0
TABLE
  2
VPORT
 70
     1
  0
VPORT
  2
*ACTIVE
 70
     0
 10
0.0
 20
0.0
 11
1.0
 21
1.0
 12
-71.7073956832773547
 22
-9.863655030603482
 13
0.0
 23
0.0
 14
1.0
 24
1.0
 15
0.0
 25
0.0
 16
0.0
 26
0.0
 36
14.6338572656650907
 17
429.6292891080536833
 27
69.7025415122186871
 37
0.0
 40
12.2391442557781396
 41
2.6486111111111108
 42
50.0
 43
0.0
 44
0.0
 50
0.0
 51
0.0
 71
     0
 72
   100
 73
     1
 74
     1
 75
     0
 76
     0
 77
     0
 78
     0
  0
ENDTAB
  0
TABLE
  2
LTYPE
 70
     2
  0
LTYPE
  2
CONTINUOUS
 70
     0
  3
Solid line
 72
    65
 73
     0
 40
0.0
  0
LTYPE
  2
PHANTOM2
 70
     0
  3
___ _ _ ___ _ _ ___ _ _ ___ _ _
 72
    65
 73
     6
 40
1.25
 49
0.625
 49
-0.125
 49
0.125
 49
-0.125
 49
0.125
 49
-0.125
  0
ENDTAB
  0
TABLE
  2
LAYER
 70
     2
  0
LAYER
  2
0
 70
     0
 62
   255
  6
CONTINUOUS
  0
LAYER
  2
DEFPOINTS
 70
     0
 62
     7
  6
CONTINUOUS
  0
ENDTAB
  0
TABLE
  2
STYLE
 70
     1
  0
STYLE
  2
STANDARD
 70
     0
 40
0.0
 41
0.8
 50
0.0
 71
     0
 42
0.2
  3
txt
  4

  0
ENDTAB
  0
TABLE
  2
VIEW
 70
     0
  0
ENDTAB
  0
TABLE
  2
UCS
 70
     0
  0
ENDTAB
  0
TABLE
  2
APPID
 70
    10
  0
APPID
  2
ACAD
 70
     0
  0
APPID
  2
ACAD_MLEADERVER
 70
     0
  0
APPID
  2
ACAD_EXEMPT_FROM_CAD_STANDARDS
 70
     0
  0
APPID
  2
ACAD_DSTYLE_DIMJAG
 70
     0
  0
APPID
  2
ACAD_DSTYLE_DIMTALN
 70
     0
  0
APPID
  2
ACAD_NAV_VCDISPLAY
 70
     0
  0
APPID
  2
ACAECLAYERSTANDARD
 70
     0
  0
APPID
  2
ACCMTRANSPARENCY
 70
     0
  0
APPID
  2
DCO15
 70
     0
  0
APPID
  2
ACDBATTR
 70
     0
  0
ENDTAB
  0
TABLE
  2
DIMSTYLE
 70
     1
  0
DIMSTYLE
  2
STANDARD
 70
     0
  3

  4

  5

  6

  7

 40
1.0
 41
0.1875
 42
0.0625
 43
0.38
 44
0.125
 45
0.0
 46
0.0
 47
0.01
 48
0.01
140
0.15625
141
0.09
142
0.0
143
25.3999999999999986
144
1.0
145
0.0
146
1.0
147
0.09
 71
     1
 72
     0
 73
     1
 74
     1
 75
     0
 76
     0
 77
     0
 78
     4
170
     0
171
     2
172
     0
173
     0
174
     0
175
     0
176
     0
177
     0
178
     0
  0
ENDTAB
  0
ENDSEC
  0
SECTION
  2
BLOCKS
  0
BLOCK
  8
0
  2
$MODEL_SPACE
 70
     0
 10
0.0
 20
0.0
 30
0.0
  3
$MODEL_SPACE
  1

  0
ENDBLK
  5
21
  8
0
  0
BLOCK
 67
     1
  8
0
  2
$PAPER_SPACE
 70
     0
 10
0.0
 20
0.0
 30
0.0
  3
$PAPER_SPACE
  1

  0
ENDBLK
  5
1D
 67
     1
  8
0
  0
BLOCK
  8
0
  2
_FILLED
 70
     0
 10
0.0
 20
0.0
 30
0.0
  3
_FILLED
  1

  0
SOLID
  5
87E2
  8
0
  6
BYBLOCK
 62
     0
 10
0.0
 20
0.0
 30
0.0
 11
-1.0
 21
0.1666666667
 31
0.0
 12
-1.0
 22
-0.1666666667
 32
0.0
 13
-1.0
 23
-0.1666666667
 33
0.0
  0
ENDBLK
  5
87E3
  8
0
  6
BYBLOCK
 62
     0
  0
ENDSEC
  0
SECTION
  2
ENTITIES
  0
ATTDEF
  5
11BEE
  8
DEFPOINTS
 10
357.9287841664656185
 20
53.7774158235311077
 30
0.0
 40
0.001
  1
K-98422T-B4
  3

  2
MODELNUMBER
 70
     0
1001
ACDBATTR
1070
     0
1070
     1
  0
ATTDEF
  5
11BEF
  8
DEFPOINTS
 10
357.9287841664656185
 20
53.7757491568644426
 30
0.0
 40
0.001
  1
FAIRFAX
  3

  2
TRADENAME
 70
     0
1001
ACDBATTR
1070
     0
1070
     1
  0
ATTDEF
  5
11BF0
  8
DEFPOINTS
 10
357.9287841664656185
 20
53.7740824901977774
 30
0.0
 40
0.001
  1
BATHROOM SINK FAUCET
  3

  2
PRODUCT
 70
     0
1001
ACDBATTR
1070
     0
1070
     1
  0
LINE
  5
122BC
  8
0
 10
356.7286688167959028
 20
53.7738662575440003
 30
0.0
 11
359.1286365756959071
 21
53.7738662575440003
 31
0.0
  0
LINE
  5
122BD
  8
0
 10
356.8836584031957955
 20
54.4439449977439978
 30
0.0
 11
358.9736469892959008
 21
54.4439449977439978
 31
0.0
  0
ARC
  5
122BE
  8
0
 10
358.9736469892959008
 20
54.5439449977439992
 30
0.0
 40
0.1000000000000001
 50
270.0
 51
90.0
  0
LINE
  5
122BF
  8
0
 10
358.9736469892959008
 20
54.6439449977440006
 30
0.0
 11
356.8836584031957955
 21
54.6439449977440006
 31
0.0
  0
LINE
  5
122C0
  8
0
 10
356.9286584031960956
 20
59.9463071970439927
 30
0.0
 11
358.9286469892958849
 21
59.9463071970439927
 31
0.0
  0
LINE
  5
122C1
  8
0
 10
358.4432764093650121
 20
63.0605689852439966
 30
0.0
 11
358.8892826184459182
 21
63.0605689852439966
 31
0.0
  0
ARC
  5
122C2
  8
0
 10
358.8892727515453203
 20
63.0211888701791381
 30
0.0
 40
0.0393801163009674
 50
0.9900101886697481
 51
89.9856442332252868
  0
LINE
  5
122C3
  8
0
 10
358.9286469892957143
 20
63.0218692828856106
 30
0.0
 11
358.9286469892956006
 21
59.9463072024439967
 31
0.0
  0
ARC
  5
122C4
  8
0
 10
358.9188044790038816
 20
59.9364646867520321
 30
0.0
 40
0.0098425102919881
 50
359.9999766682211089
 51
90.0001122593501037
  0
LINE
  5
122C5
  8
0
 10
358.9286469892958849
 20
59.9364646827440026
 30
0.0
 11
358.9286468875988021
 21
54.6589056276440033
 31
0.0
  0
LINE
  5
122C6
  8
0
 10
358.9286468875988021
 20
54.6589056276440033
 30
0.0
 11
358.9136863593957969
 21
54.6439449977440006
 31
0.0
  0
LINE
  5
122C7
  8
0
 10
358.9286468875988021
 20
54.6589056276440033
 30
0.0
 11
356.9286585048928941
 21
54.6589056276440033
 31
0.0
  0
ARC
  5
122C8
  8
0
 10
359.1292469226062281
 20
53.8078296193798806
 30
0.0
 40
0.0339688455874831
 50
268.970462983758523
 51
353.2996746321916248
  0
LINE
  5
122C9
  8
0
 10
359.1629837605361217
 20
53.8038662575440014
 30
0.0
 11
359.1629837605361217
 21
53.8258662575439999
 31
0.0
  0
ARC
  5
122CA
  8
0
 10
359.0992238010904885
 20
53.8219593937329392
 30
0.0
 40
0.0638795429956891
 50
3.5063900477284902
 51
87.9565975932554522
  0
ARC
  5
122CB
  8
0
 10
359.1036424259768864
 20
53.9307473591510629
 30
0.0
 40
0.0449999993782796
 50
180.2654924162609973
 51
267.2730902769450836
  0
ARC
  5
122CC
  8
0
 10
358.6786470060000056
 20
53.9287780366377092
 30
0.0
 40
0.3799999832481559
 50
0.2654924162609947
 51
34.0092421113868326
  0
ARC
  5
122CD
  8
0
 10
359.3086469728218049
 20
54.3538662525425522
 30
0.0
 40
0.3799999835258721
 50
179.9999992458895122
 51
214.0092421113868113
  0
LINE
  5
122CE
  8
0
 10
358.9286469892958849
 20
54.3538662575439986
 30
0.0
 11
358.9286469904815249
 21
54.4439449977439978
 31
0.0
  0
LINE
  5
122CF
  8
0
 10
356.8579615394459097
 20
63.800449723744002
 30
0.0
 11
358.9993438530459002
 21
63.800449723744002
 31
0.0
  0
ARC
  5
122D0
  8
0
 10
358.9993438530459002
 20
63.8304677197381523
 30
0.0
 40
0.030017995994152
 50
270.0
 51
324.6613181115434941
  0
ARC
  5
122D1
  8
0
 10
358.5628295077729035
 20
64.164668349938097
 30
0.0
 40
0.5797577776748055
 50
322.6705742592582737
 51
340.2805426256542205
  0
ARC
  5
122D2
  8
0
 10
358.8561414101931746
 20
64.0521085049387864
 30
0.0
 40
0.2657594481440211
 50
341.7879383930447261
 51
0.4743705731588369
  0
ARC
  5
122D3
  8
0
 10
358.8506085814261155
 20
64.0547750271260128
 30
0.0
 40
0.2712835690663038
 50
359.9015293883057893
 51
39.012295883523592
  0
ARC
  5
122D4
  8
0
 10
358.4673930662294197
 20
63.6801078406988026
 30
0.0
 40
0.8064391460336716
 50
42.559226965164747
 51
62.0127285433935072
  0
ARC
  5
122D5
  8
0
 10
359.4255280114629727
 20
65.4830637420508452
 30
0.0
 40
1.2352935875771629
 50
228.7590073066473053
 51
242.0127285433935072
  0
ARC
  5
122D6
  8
0
 10
358.7306788125712274
 20
64.654869909991163
 30
0.0
 40
0.1562492976602415
 50
137.6768316165141073
 51
220.1159308694493859
  0
LINE
  5
122D7
  8
0
 10
358.6161526869458953
 20
64.9145453632440024
 30
0.0
 11
357.9286526962458765
 21
64.9145453632440024
 31
0.0
  0
ARC
  5
122D8
  8
0
 10
357.9197885579698095
 20
66.2990765659387051
 30
0.0
 40
0.9270689760909133
 50
270.5478399818800881
 51
291.1888498388381095
  0
ARC
  5
122D9
  8
0
 10
358.1357974749610094
 20
65.7247128186245675
 30
0.0
 40
0.3135218334423306
 50
292.3209391266116768
 51
318.0080681964379892
  0
ARC
  5
122DA
  8
0
 10
358.2491567023375865
 20
65.6122698696498645
 30
0.0
 40
0.1542354938015861
 50
320.8814725569264965
 51
5.1034588199423716
  0
ARC
  5
122DB
  8
0
 10
358.182966606057505
 20
65.6219053469275906
 30
0.0
 40
0.2198520980149511
 50
1.064512707484073
 51
49.1555457727297309
  0
ARC
  5
122DC
  8
0
 10
358.0055919309291994
 20
65.3820744581122426
 30
0.0
 40
0.5177821571903537
 50
51.6648640696064376
 51
80.2754514720567585
  0
ARC
  5
122DD
  8
0
 10
357.9634405625890281
 20
65.2801539114678206
 30
0.0
 40
0.625831199771289
 50
78.0474301934311967
 51
89.3914302177749107
  0
ARC
  5
122DE
  8
0
 10
357.9418752983456216
 20
40.0865274437229502
 30
0.0
 40
25.8194377791850016
 50
89.9373939217266241
 51
90.0293422085363204
  0
LINE
  5
122DF
  8
0
 10
358.8774859770459216
 20
63.0605689852439966
 30
0.0
 11
358.8774859770459216
 21
63.692271498243997
 31
0.0
  0
ARC
  5
122E0
  8
0
 10
357.9326040872459203
 20
63.692271498243997
 30
0.0
 40
0.9448818898000306
 50
0.0
 51
6.5741304361152944
  0
ARC
  5
122E1
  8
0
 10
357.9482849720475883
 20
64.6200797599474441
 30
0.0
 40
0.9200787401961523
 50
62.1939360467397933
 51
66.7253424589403465
  0
ARC
  5
122E2
  8
0
 10
358.2354380692989935
 20
65.164574380898415
 30
0.0
 40
0.3045047856580989
 50
46.5107680842709073
 51
62.1939360467397933
  0
ARC
  5
122E3
  8
0
 10
358.3142372314275121
 20
65.2476426325620054
 30
0.0
 40
0.1900074390224927
 50
5.3403582026189973
 51
46.5107680842709073
  0
ARC
  5
122E4
  8
0
 10
358.4834113694387838
 20
65.2634566396859555
 30
0.0
 40
0.020095780231237
 50
271.2988713376515193
 51
5.3403582026185932
  0
LINE
  5
122E5
  8
0
 10
358.4838668933459189
 20
65.2433660229440022
 30
0.0
 11
358.2690393790929875
 21
65.2433660229440022
 31
0.0
  0
LINE
  5
122E6
  8
0
 10
358.2712225621190782
 20
65.2382479127440007
 30
0.0
 11
358.4837851896458005
 21
65.2382479127440007
 31
0.0
  0
LINE
  5
122E7
  8
0
 10
358.4837851896458005
 20
65.2382479127440007
 30
0.0
 11
358.4837851896458005
 21
65.1988778339439961
 31
0.0
  0
ARC
  5
122E8
  8
0
 10
358.559383724457291
 20
65.361795597492133
 30
0.0
 40
0.3133911347190711
 50
166.574085959110505
 51
175.6629609479925023
  0
ARC
  5
122E9
  8
0
 10
358.6154832360516025
 20
65.3606007110131344
 30
0.0
 40
0.3694329625921516
 50
176.1361444093390105
 51
186.9016079707585902
  0
ARC
  5
122EA
  8
0
 10
358.5552654557616847
 20
65.3624340418629544
 30
0.0
 40
0.3100041291570211
 50
188.5756180018427983
 51
221.9859308165038101
  0
ARC
  5
122EB
  8
0
 10
358.5517771716881157
 20
65.3368796538722023
 30
0.0
 40
0.2907944017426699
 50
218.7013184756513056
 51
255.2214341691505126
  0
ARC
  5
122EC
  8
0
 10
358.5761747274190157
 20
65.337757763040301
 30
0.0
 40
0.2987819867175219
 50
250.7359952585615872
 51
281.664434469664684
  0
LINE
  5
122ED
  8
0
 10
358.4837851896458005
 20
65.1988778339439961
 30
0.0
 11
358.2919179155309735
 21
65.1988778339439961
 31
0.0
  0
ARC
  5
122EE
  8
0
 10
358.4763265133112782
 20
65.0385484547033315
 30
0.0
 40
0.1605027778587111
 50
18.2854704814980984
 51
87.3364658072109137
  0
ARC
  5
122EF
  8
0
 10
358.4773960444322256
 20
65.0389018674434851
 30
0.0
 40
0.1593763687929832
 50
308.7141791059016782
 51
18.2854704814980984
  0
ARC
  5
122F0
  8
0
 10
357.9291495006049217
 20
60.3450266260166472
 30
0.0
 40
1.5517876883529109
 50
81.5501139037934166
 51
90.0183431898708335
  0
ARC
  5
122F1
  8
0
 10
358.0297772864901731
 20
60.9806788972849532
 30
0.0
 40
0.9082695761160495
 50
68.8544421280415264
 51
81.9368093632876651
  0
ARC
  5
122F2
  8
0
 10
358.2012792921555047
 20
61.4381330266621433
 30
0.0
 40
0.4197804117870327
 50
57.1083396770880114
 51
68.1628222660046248
  0
ARC
  5
122F3
  8
0
 10
358.302554000648172
 20
61.5772079997570572
 30
0.0
 40
0.2481843240795119
 50
22.970255984039099
 51
59.3055756035703112
  0
ARC
  5
122F4
  8
0
 10
358.3560856594876896
 20
61.6061844060344725
 30
0.0
 40
0.1876784537803505
 50
326.2064767187466146
 51
21.2030071462509788
  0
ARC
  5
122F5
  8
0
 10
357.9374495951526001
 20
62.6726375924464776
 30
0.0
 40
1.359564252725276
 50
269.6292719238388145
 51
282.9560381167897845
  0
ARC
  5
122F6
  8
0
 10
358.1306940454587107
 20
61.8982673292514818
 30
0.0
 40
0.5617741401567981
 50
281.4557373553795969
 51
303.1639384457923825
  0
ARC
  5
122F7
  8
0
 10
358.297441956147793
 20
61.6430994384467823
 30
0.0
 40
0.2569536713281204
 50
303.1639384457923825
 51
326.6389716858232077
  0
ARC
  5
122F8
  8
0
 10
357.9296188627071729
 20
60.2792636541489912
 30
0.0
 40
1.3750725727228461
 50
82.8169033081367161
 51
90.0402576626850646
  0
ARC
  5
122F9
  8
0
 10
357.977850475566072
 20
60.6619645949423187
 30
0.0
 40
0.9893443023522749
 50
73.8243511765334262
 51
82.8168999906596355
  0
ARC
  5
122FA
  8
0
 10
358.1251474305993838
 20
61.1697695037332423
 30
0.0
 40
0.4606078667303133
 50
59.7416231326597824
 51
73.8243511765334262
  0
ARC
  5
122FB
  8
0
 10
358.2857454020988257
 20
61.4450588984582708
 30
0.0
 40
0.1418980311466036
 50
24.400021201449789
 51
59.7416231326595693
  0
ARC
  5
122FC
  8
0
 10
358.3503800154049941
 20
61.4876043153635692
 30
0.0
 40
0.0665594954009905
 50
315.4017076340275025
 51
13.9743948208577908
  0
ARC
  5
122FD
  8
0
 10
358.215652775206479
 20
61.6198887541823765
 30
0.0
 40
0.2553730530704428
 50
288.1856854522482081
 51
315.4922485381700881
  0
ARC
  5
122FE
  8
0
 10
358.0089304808519728
 20
62.1608400653982898
 30
0.0
 40
0.8342769720076869
 50
277.4216133345505
 51
290.0792492511782825
  0
ARC
  5
122FF
  8
0
 10
357.9310598473733762
 20
62.6681666212406014
 30
0.0
 40
1.34746261140315
 50
269.897644940086991
 51
277.9185682299951168
  0
ARC
  5
12300
  8
0
 10
357.9305976425666813
 20
62.3888409787730893
 30
0.0
 40
1.029687795504155
 50
269.8917757158843074
 51
278.8598478323883114
  0
ARC
  5
12301
  8
0
 10
357.9903486783697986
 20
62.005520863818461
 30
0.0
 40
0.6417387050188859
 50
278.8598574648677868
 51
290.6923473782645146
  0
ARC
  5
12302
  8
0
 10
358.1403712450087937
 20
61.6083372331941987
 30
0.0
 40
0.2171664415149775
 50
290.6923473782645146
 51
311.0010829598853093
  0
ARC
  5
12303
  8
0
 10
358.2505441539382218
 20
61.4871819033679401
 30
0.0
 40
0.0535745449633625
 50
307.0833752586930814
 51
21.2224462003879317
  0
ARC
  5
12304
  8
0
 10
358.2118768507975801
 20
61.4603135662033324
 30
0.0
 40
0.0999581109837466
 50
27.5686856436873597
 51
58.869062508982168
  0
ARC
  5
12305
  8
0
 10
358.0594543734806052
 20
61.202683680906901
 30
0.0
 40
0.3992972413599099
 50
59.2596063157793083
 51
78.7984074709201394
  0
ARC
  5
12306
  8
0
 10
357.9343875345504102
 20
60.6515584865209476
 30
0.0
 40
0.9643455930380774
 50
77.8702099825381424
 51
90.3407325266736336
  0
ARC
  5
12307
  8
0
 10
357.9305852035035969
 20
60.6060170369519611
 30
0.0
 40
1.008097628784794
 50
82.4501971620819063
 51
90.1098351162677034
  0
ARC
  5
12308
  8
0
 10
357.9638797040677218
 20
60.8572275210906497
 30
0.0
 40
0.754690385184738
 50
76.2420602436341142
 51
82.4501854744711125
  0
ARC
  5
12309
  8
0
 10
358.0383633754287871
 20
61.1614345656853118
 30
0.0
 40
0.4414975639380867
 50
64.2328127417665513
 51
76.2420602436341142
  0
ARC
  5
1230A
  8
0
 10
358.1754432161733916
 20
61.4454127597551434
 30
0.0
 40
0.1261652036485831
 50
51.701488339928332
 51
64.2328127417665513
  0
ARC
  5
1230B
  8
0
 10
358.1815932185393763
 20
61.4532004293240703
 30
0.0
 40
0.1162419820741454
 50
41.5446883581921895
 51
51.7014883399280833
  0
ARC
  5
1230C
  8
0
 10
358.2495144485563969
 20
61.5133865647207614
 30
0.0
 40
0.0254914207479744
 50
354.4165807599412119
 51
41.5446883581928006
  0
ARC
  5
1230D
  8
0
 10
358.228291308740495
 20
61.5154613111630795
 30
0.0
 40
0.0468157316733348
 50
315.5093228283697044
 51
354.4165807599412119
  0
ARC
  5
1230E
  8
0
 10
358.1320633447649016
 20
61.6099934947863304
 30
0.0
 40
0.1817088552618832
 50
289.5425273453834052
 51
315.5093228283697044
  0
LINE
  5
1230F
  8
0
 10
358.2536351919458752
 20
61.5444262615439968
 30
0.0
 11
358.2373461937688148
 21
61.4843717974864035
 31
0.0
  0
ARC
  5
12310
  8
0
 10
358.2017056320693769
 20
61.4941296778600375
 30
0.0
 40
0.0369522105919166
 50
344.688445109790905
 51
9.8909237706409083
  0
ARC
  5
12311
  8
0
 10
358.1918652273196244
 20
61.4924138795705204
 30
0.0
 40
0.046941080868917
 50
9.8908985039213562
 51
50.4397883890555931
  0
ARC
  5
12312
  8
0
 10
358.0909031386303241
 20
61.3780256144500811
 30
0.0
 40
0.1994932720960296
 50
49.0080013164548092
 51
74.864694927942196
  0
ARC
  5
12313
  8
0
 10
357.9552034309168107
 20
60.9559617205665205
 30
0.0
 40
0.642684106885428
 50
73.0107551426212353
 51
85.5865948400006431
  0
ARC
  5
12314
  8
0
 10
357.9200077266627886
 20
60.499968790127042
 30
0.0
 40
1.100033306302193
 50
85.5865096277087929
 51
89.5497177909792157
  0
ARC
  5
12315
  8
0
 10
357.9295463398433981
 20
60.8279960540198701
 30
0.0
 40
0.760535253547362
 50
80.5892665270045825
 51
90.0673235866119199
  0
ARC
  5
12316
  8
0
 10
357.9817220637949049
 20
61.1427984106641418
 30
0.0
 40
0.4414383561656442
 50
68.3348608325719056
 51
80.5892588832039252
  0
ARC
  5
12317
  8
0
 10
358.1013964816000907
 20
61.4350121574328227
 30
0.0
 40
0.1257301747934745
 50
39.7951715207544083
 51
69.8572883309590082
  0
ARC
  5
12318
  8
0
 10
358.1634526875935762
 20
61.4913991984014601
 30
0.0
 40
0.0421144479410453
 50
15.4057868417624402
 51
34.883936123460451
  0
ARC
  5
12319
  8
0
 10
358.1645862708151071
 20
61.4962273714372003
 30
0.0
 40
0.0404587125949977
 50
336.9659105336397147
 51
356.8908737946624115
  0
ARC
  5
1231A
  8
0
 10
358.1693621993736087
 20
61.4944814137266889
 30
0.0
 40
0.0356260530025834
 50
359.2787809449055203
 51
13.1510995870535901
  0
ARC
  5
1231B
  8
0
 10
358.1184067120956911
 20
61.5290863574564568
 30
0.0
 40
0.0965833261628003
 50
290.7548970271432722
 51
329.7270235590276002
  0
ARC
  5
1231C
  8
0
 10
357.9790594352929816
 20
61.8459303576979522
 30
0.0
 40
0.4426134771154831
 50
276.3433457405869262
 51
293.0887288718963077
  0
ARC
  5
1231D
  8
0
 10
357.9297624303458178
 20
62.1684213335636215
 30
0.0
 40
0.7686928765600812
 50
269.917284201482687
 51
277.3395316290400956
  0
ARC
  5
1231E
  8
0
 10
357.9306978588084007
 20
62.155184363184901
 30
0.0
 40
0.7385394975742444
 50
269.8413364808474739
 51
280.7994148958417213
  0
ARC
  5
1231F
  8
0
 10
357.9977657538526046
 20
61.8035820660701987
 30
0.0
 40
0.3805977734319259
 50
280.7994310204737189
 51
295.0671159451505901
  0
ARC
  5
12320
  8
0
 10
358.112154219458489
 20
61.5590235506844223
 30
0.0
 40
0.1106096468200912
 50
295.0671159451508743
 51
318.893982347245128
  0
ARC
  5
12321
  8
0
 10
358.1655672800562797
 20
61.5124184882275031
 30
0.0
 40
0.0397225049039498
 50
318.8939823472456965
 51
345.6701973870945039
  0
ARC
  5
12322
  8
0
 10
357.9290016448338747
 20
62.2707381218335883
 30
0.0
 40
0.8824462764821381
 50
269.9773434087517217
 51
276.1669538938130017
  0
ARC
  5
12323
  8
0
 10
357.9511606014190193
 20
62.065659510692079
 30
0.0
 40
0.6761739901597368
 50
276.1669572436297813
 51
284.8309943739728283
  0
ARC
  5
12324
  8
0
 10
358.0393172324821194
 20
61.7327293934029697
 30
0.0
 40
0.3317700781631766
 50
284.8309943739728283
 51
296.5993140153003083
  0
ARC
  5
12325
  8
0
 10
358.1221151739738957
 20
61.5673807802854682
 30
0.0
 40
0.1468493844180984
 50
296.5993140153003083
 51
311.1847945997187139
  0
ARC
  5
12326
  8
0
 10
358.1803601510542876
 20
61.5027662501208923
 30
0.0
 40
0.0598812571008599
 50
309.9536866394818162
 51
342.1105051167518809
  0
LINE
  5
12327
  8
0
 10
358.4404781029459173
 20
65.2433660229440022
 30
0.0
 11
358.4404781029459173
 21
65.2382479127440007
 31
0.0
  0
ARC
  5
12328
  8
0
 10
357.9286547479554201
 20
63.0051250753424625
 30
0.0
 40
0.5175997310056268
 50
6.1491697338932916
 51
90.000227114296635
  0
ARC
  5
12329
  8
0
 10
344.3713814875732737
 20
62.5048011536329113
 30
0.0
 40
14.0857258875506002
 50
0.4576856308491318
 51
2.1041737434326899
  0
ARC
  5
1232A
  8
0
 10
357.9264266666982053
 20
62.6256645879125529
 30
0.0
 40
0.5302969876590716
 50
344.4629682223912823
 51
359.0982059861945004
  0
LINE
  5
1232B
  8
0
 10
358.4302212069638927
 20
61.7906221839440022
 30
0.0
 11
358.4432764093650121
 21
63.0605689852439966
 31
0.0
  0
ARC
  5
1232C
  8
0
 10
359.3241350150873927
 20
63.1399446676277023
 30
0.0
 40
0.8844277145302744
 50
185.1491140400642053
 51
187.6649481304507958
  0
LINE
  5
1232D
  8
0
 10
356.7558038679173933
 20
53.885798315944001
 30
0.0
 11
359.1015015245744166
 21
53.885798315944001
 31
0.0
  0
ARC
  5
1232E
  8
0
 10
358.6160699143704278
 20
64.8516502964166222
 30
0.0
 40
0.0628951212934595
 50
0.8047557997366656
 51
89.9245963676219162
  0
ARC
  5
1232F
  8
0
 10
358.6063859549984727
 20
64.8552483507225759
 30
0.0
 40
0.0726236321061044
 50
310.7589529172936977
 51
357.857776910772202
  0
ARC
  5
12330
  8
0
 10
359.3558429355312001
 20
64.086062790438902
 30
0.0
 40
1.0014544192973101
 50
134.5091386687454929
 51
137.6984360036312012
  0
ARC
  5
12331
  8
0
 10
356.8836584031957955
 20
54.5439449977439992
 30
0.0
 40
0.1000000000000001
 50
90.0
 51
270.0
  0
LINE
  5
12332
  8
0
 10
357.4140289831266841
 20
63.0605689852439966
 30
0.0
 11
356.9680227740458918
 21
63.0605689852439966
 31
0.0
  0
ARC
  5
12333
  8
0
 10
356.968032640946376
 20
63.0211888701791381
 30
0.0
 40
0.0393801163009674
 50
90.014355766774699
 51
179.0099898113302004
  0
LINE
  5
12334
  8
0
 10
356.9286584031959819
 20
63.0218692828856106
 30
0.0
 11
356.9286584031960956
 21
59.9463072024439967
 31
0.0
  0
LINE
  5
12335
  8
0
 10
356.9286584031959251
 20
59.9364646827440026
 30
0.0
 11
356.9286585048928941
 21
54.6589056276440033
 31
0.0
  0
LINE
  5
12336
  8
0
 10
356.9286585048928941
 20
54.6589056276440033
 30
0.0
 11
356.9436190330958993
 21
54.6439449977440006
 31
0.0
  0
ARC
  5
12337
  8
0
 10
356.728058469885525
 20
53.8078296193798806
 30
0.0
 40
0.0339688455874831
 50
186.7003253678084036
 51
271.0295370162414201
  0
LINE
  5
12338
  8
0
 10
356.6943216319556882
 20
53.8038662575440014
 30
0.0
 11
356.6943216319556882
 21
53.8258662575439999
 31
0.0
  0
ARC
  5
12339
  8
0
 10
356.7580815914013215
 20
53.8219593937329392
 30
0.0
 40
0.0638795429956891
 50
92.043402406744562
 51
176.4936099522714983
  0
ARC
  5
1233A
  8
0
 10
356.7536629665149235
 20
53.9307473591510629
 30
0.0
 40
0.0449999993782796
 50
272.7269097230549164
 51
359.7345075837390027
  0
ARC
  5
1233B
  8
0
 10
357.1786583864918043
 20
53.9287780366377092
 30
0.0
 40
0.3799999832481559
 50
145.9907578886131887
 51
179.7345075837394006
  0
ARC
  5
1233C
  8
0
 10
356.5486584196700051
 20
54.3538662525425522
 30
0.0
 40
0.3799999835258721
 50
325.9907578886131887
 51
0.000000754110431
  0
LINE
  5
1233D
  8
0
 10
356.9286584031959251
 20
54.3538662575439986
 30
0.0
 11
356.928658402010285
 21
54.4439449977439978
 31
0.0
  0
ARC
  5
1233E
  8
0
 10
356.8579615394459097
 20
63.8304677197381523
 30
0.0
 40
0.030017995994152
 50
215.3386818884565059
 51
270.0
  0
ARC
  5
1233F
  8
0
 10
357.2944758847189064
 20
64.164668349938097
 30
0.0
 40
0.5797577776748055
 50
199.7194573743456942
 51
217.3294257407416978
  0
ARC
  5
12340
  8
0
 10
357.0011639822985217
 20
64.0521085049387864
 30
0.0
 40
0.2657594481440211
 50
179.5256294268411068
 51
198.2120616069553023
  0
ARC
  5
12341
  8
0
 10
357.0066968110655807
 20
64.0547750271260128
 30
0.0
 40
0.2712835690663038
 50
140.987704116476408
 51
180.098470611694097
  0
ARC
  5
12342
  8
0
 10
357.3899123262623903
 20
63.6801078406988026
 30
0.0
 40
0.8064391460336716
 50
117.9872714566065071
 51
137.440773034835189
  0
ARC
  5
12343
  8
0
 10
356.4317773810287804
 20
65.4830637420508452
 30
0.0
 40
1.2352935875771629
 50
297.9872714566064928
 51
311.2409926933527231
  0
ARC
  5
12344
  8
0
 10
357.1266265799205826
 20
64.654869909991163
 30
0.0
 40
0.1562492976602415
 50
319.884069130550472
 51
42.3231683834858572
  0
LINE
  5
12345
  8
0
 10
357.2411527055459146
 20
64.9145453632440024
 30
0.0
 11
357.9286526962458765
 21
64.9145453632440024
 31
0.0
  0
ARC
  5
12346
  8
0
 10
357.9375168345220004
 20
66.2990765659387051
 30
0.0
 40
0.9270689760909133
 50
248.8111501611618905
 51
269.4521600181197982
  0
ARC
  5
12347
  8
0
 10
357.7215079175306869
 20
65.7247128186245675
 30
0.0
 40
0.3135218334423306
 50
221.9919318035620108
 51
247.6790608733882948
  0
ARC
  5
12348
  8
0
 10
357.6081486901542235
 20
65.6122698696498645
 30
0.0
 40
0.1542354938015861
 50
174.8965411800575964
 51
219.1185274430735035
  0
ARC
  5
12349
  8
0
 10
357.6743387864341912
 20
65.6219053469275906
 30
0.0
 40
0.2198520980149511
 50
130.8444542272702051
 51
178.9354872925158872
  0
ARC
  5
1234A
  8
0
 10
357.8517134615624968
 20
65.3820744581122426
 30
0.0
 40
0.5177821571903537
 50
99.7245485279432557
 51
128.3351359303935055
  0
ARC
  5
1234B
  8
0
 10
357.893864829902725
 20
65.2801539114678206
 30
0.0
 40
0.625831199771289
 50
90.6085697822251177
 51
101.9525698065688033
  0
ARC
  5
1234C
  8
0
 10
357.9154300941460747
 20
40.0865274437229502
 30
0.0
 40
25.8194377791850016
 50
89.9706577914636938
 51
90.0626060782733902
  0
LINE
  5
1234D
  8
0
 10
356.9798194154458884
 20
63.0605689852439966
 30
0.0
 11
356.9798194154458884
 21
63.692271498243997
 31
0.0
  0
ARC
  5
1234E
  8
0
 10
357.9247013052458897
 20
63.692271498243997
 30
0.0
 40
0.9448818898000306
 50
173.425869563884703
 51
180.0
  0
ARC
  5
1234F
  8
0
 10
357.9090204204442216
 20
64.6200797599474441
 30
0.0
 40
0.9200787401961523
 50
113.2746575410595966
 51
117.8060639532602067
  0
ARC
  5
12350
  8
0
 10
357.6218673231928165
 20
65.164574380898415
 30
0.0
 40
0.3045047856580989
 50
117.8060639532602067
 51
133.489231915729107
  0
ARC
  5
12351
  8
0
 10
357.5430681610642978
 20
65.2476426325620054
 30
0.0
 40
0.1900074390224927
 50
133.489231915729107
 51
174.6596417973809992
  0
ARC
  5
12352
  8
0
 10
357.3738940230529124
 20
65.2634566396859555
 30
0.0
 40
0.020095780231237
 50
174.6596417973813971
 51
268.7011286623484807
  0
LINE
  5
12353
  8
0
 10
357.373438499145891
 20
65.2433660229440022
 30
0.0
 11
357.5882660133987088
 21
65.2433660229440022
 31
0.0
  0
LINE
  5
12354
  8
0
 10
357.586082830372618
 20
65.2382479127440007
 30
0.0
 11
357.373520202845782
 21
65.2382479127440007
 31
0.0
  0
LINE
  5
12355
  8
0
 10
357.373520202845782
 20
65.2382479127440007
 30
0.0
 11
357.373520202845782
 21
65.1988778339439961
 31
0.0
  0
ARC
  5
12356
  8
0
 10
357.2979216680345189
 20
65.361795597492133
 30
0.0
 40
0.3133911347190711
 50
4.3370390520075119
 51
13.4259140408894897
  0
ARC
  5
12357
  8
0
 10
357.2418221564402074
 20
65.3606007110131344
 30
0.0
 40
0.3694329625921516
 50
353.0983920292409266
 51
3.8638555906610179
  0
ARC
  5
12358
  8
0
 10
357.3020399367301252
 20
65.3624340418629544
 30
0.0
 40
0.3100041291570211
 50
318.0140691834961899
 51
351.4243819981571164
  0
ARC
  5
12359
  8
0
 10
357.3055282208036942
 20
65.3368796538722023
 30
0.0
 40
0.2907944017426699
 50
284.7785658308495158
 51
321.2986815243488081
  0
ARC
  5
1235A
  8
0
 10
357.2811306650727943
 20
65.337757763040301
 30
0.0
 40
0.2987819867175219
 50
258.3355655303352023
 51
289.2640047414383844
  0
LINE
  5
1235B
  8
0
 10
357.373520202845782
 20
65.1988778339439961
 30
0.0
 11
357.5653874769607796
 21
65.1988778339439961
 31
0.0
  0
ARC
  5
1235C
  8
0
 10
357.3809788791804181
 20
65.0385484547033315
 30
0.0
 40
0.1605027778587111
 50
92.6635341927891005
 51
161.7145295185019052
  0
ARC
  5
1235D
  8
0
 10
357.3799093480595843
 20
65.0389018674434851
 30
0.0
 40
0.1593763687929832
 50
161.7145295185019052
 51
231.2858208940982934
  0
ARC
  5
1235E
  8
0
 10
357.9281558918868882
 20
60.3450266260166472
 30
0.0
 40
1.5517876883529109
 50
89.9816568101291665
 51
98.4498860962065834
  0
ARC
  5
1235F
  8
0
 10
357.8275281060015232
 20
60.9806788972849532
 30
0.0
 40
0.9082695761160495
 50
98.0631906367123349
 51
111.145557871958502
  0
ARC
  5
12360
  8
0
 10
357.6560261003361916
 20
61.4381330266621433
 30
0.0
 40
0.4197804117870327
 50
111.8371777339954036
 51
122.8916603229120028
  0
ARC
  5
12361
  8
0
 10
357.5547513918435243
 20
61.5772079997570572
 30
0.0
 40
0.2481843240795119
 50
120.6944243964296959
 51
157.0297440159608868
  0
ARC
  5
12362
  8
0
 10
357.5012197330040067
 20
61.6061844060344725
 30
0.0
 40
0.1876784537803505
 50
158.7969928537490034
 51
213.7935232812534139
  0
ARC
  5
12363
  8
0
 10
357.9198557973392099
 20
62.6726375924464776
 30
0.0
 40
1.359564252725276
 50
257.0439618832101019
 51
270.3707280761611855
  0
ARC
  5
12364
  8
0
 10
357.7266113470330993
 20
61.8982673292514818
 30
0.0
 40
0.5617741401567981
 50
236.8360615542075891
 51
258.5442626446202894
  0
ARC
  5
12365
  8
0
 10
357.5598634363439032
 20
61.6430994384467823
 30
0.0
 40
0.2569536713281204
 50
213.3610283141767923
 51
236.8360615542075891
  0
ARC
  5
12366
  8
0
 10
357.9276865297845802
 20
60.2792636541489912
 30
0.0
 40
1.3750725727228461
 50
89.9597423373149354
 51
97.1830966918632697
  0
ARC
  5
12367
  8
0
 10
357.8794549169256243
 20
60.6619645949423187
 30
0.0
 40
0.9893443023522749
 50
97.1831000093403929
 51
106.1756488234666023
  0
ARC
  5
12368
  8
0
 10
357.7321579618924261
 20
61.1697695037332423
 30
0.0
 40
0.4606078667303133
 50
106.1756488234666023
 51
120.2583768673402034
  0
ARC
  5
12369
  8
0
 10
357.5715599903929842
 20
61.4450588984582708
 30
0.0
 40
0.1418980311466036
 50
120.2583768673404023
 51
155.599978798550211
  0
ARC
  5
1236A
  8
0
 10
357.5069253770868158
 20
61.4876043153635692
 30
0.0
 40
0.0665594954009905
 50
166.0256051791421896
 51
224.5982923659724122
  0
ARC
  5
1236B
  8
0
 10
357.6416526172852173
 20
61.6198887541823765
 30
0.0
 40
0.2553730530704428
 50
224.5077514618297982
 51
251.8143145477519056
  0
ARC
  5
1236C
  8
0
 10
357.8483749116397235
 20
62.1608400653982898
 30
0.0
 40
0.8342769720076869
 50
249.9207507488216038
 51
262.5783866654495
  0
ARC
  5
1236D
  8
0
 10
357.92624554511832
 20
62.6681666212406014
 30
0.0
 40
1.34746261140315
 50
262.0814317700049969
 51
270.102355059913009
  0
ARC
  5
1236E
  8
0
 10
357.9267077499250718
 20
62.3888409787730893
 30
0.0
 40
1.029687795504155
 50
261.1401521676118023
 51
270.1082242841156926
  0
ARC
  5
1236F
  8
0
 10
357.8669567141220114
 20
62.005520863818461
 30
0.0
 40
0.6417387050188859
 50
249.3076526217354001
 51
261.1401425351322132
  0
ARC
  5
12370
  8
0
 10
357.7169341474830162
 20
61.6083372331941987
 30
0.0
 40
0.2171664415149775
 50
228.9989170401146055
 51
249.3076526217354001
  0
ARC
  5
12371
  8
0
 10
357.6067612385534744
 20
61.4871819033679401
 30
0.0
 40
0.0535745449633625
 50
158.7775537996120079
 51
232.9166247413068049
  0
ARC
  5
12372
  8
0
 10
357.645428541694173
 20
61.4603135662033324
 30
0.0
 40
0.0999581109837466
 50
121.1309374910178036
 51
152.4313143563126118
  0
ARC
  5
12373
  8
0
 10
357.797851019011091
 20
61.202683680906901
 30
0.0
 40
0.3992972413599099
 50
101.2015925290798037
 51
120.7403936842207059
  0
ARC
  5
12374
  8
0
 10
357.9229178579413997
 20
60.6515584865209476
 30
0.0
 40
0.9643455930380774
 50
89.6592674733263664
 51
102.1297900174618007
  0
ARC
  5
12375
  8
0
 10
357.9267201889880994
 20
60.6060170369519611
 30
0.0
 40
1.008097628784794
 50
89.8901648837322966
 51
97.5498028379181079
  0
ARC
  5
12376
  8
0
 10
357.8934256884239744
 20
60.8572275210906497
 30
0.0
 40
0.754690385184738
 50
97.5498145255288733
 51
103.7579397563658006
  0
ARC
  5
12377
  8
0
 10
357.8189420170630228
 20
61.1614345656853118
 30
0.0
 40
0.4414975639380867
 50
103.7579397563658006
 51
115.7671872582334061
  0
ARC
  5
12378
  8
0
 10
357.6818621763183046
 20
61.4454127597551434
 30
0.0
 40
0.1261652036485831
 50
115.7671872582334061
 51
128.2985116600717106
  0
ARC
  5
12379
  8
0
 10
357.6757121739523768
 20
61.4532004293240703
 30
0.0
 40
0.1162419820741454
 50
128.2985116600719095
 51
138.4553116418078105
  0
ARC
  5
1237A
  8
0
 10
357.607790943935413
 20
61.5133865647207614
 30
0.0
 40
0.0254914207479744
 50
138.4553116418072136
 51
185.5834192400587028
  0
ARC
  5
1237B
  8
0
 10
357.6290140837512013
 20
61.5154613111630795
 30
0.0
 40
0.0468157316733348
 50
185.5834192400587028
 51
224.4906771716302956
  0
ARC
  5
1237C
  8
0
 10
357.7252420477269084
 20
61.6099934947863304
 30
0.0
 40
0.1817088552618832
 50
224.4906771716302956
 51
250.4574726546167085
  0
LINE
  5
1237D
  8
0
 10
357.6036702005458778
 20
61.5444262615439968
 30
0.0
 11
357.6199591987229951
 21
61.4843717974864035
 31
0.0
  0
ARC
  5
1237E
  8
0
 10
357.6555997604223194
 20
61.4941296778600375
 30
0.0
 40
0.0369522105919166
 50
170.1090762293590899
 51
195.311554890209095
  0
ARC
  5
1237F
  8
0
 10
357.6654401651720718
 20
61.4924138795705204
 30
0.0
 40
0.046941080868917
 50
129.5602116109444069
 51
170.1091014960786936
  0
ARC
  5
12380
  8
0
 10
357.7664022538613722
 20
61.3780256144500811
 30
0.0
 40
0.1994932720960296
 50
105.135305072057804
 51
130.991998683545205
  0
ARC
  5
12381
  8
0
 10
357.9021019615748855
 20
60.9559617205665205
 30
0.0
 40
0.642684106885428
 50
94.4134051599993569
 51
106.9892448573786936
  0
ARC
  5
12382
  8
0
 10
357.9372976658289076
 20
60.499968790127042
 30
0.0
 40
1.100033306302193
 50
90.4502822090207701
 51
94.4134903722912355
  0
ARC
  5
12383
  8
0
 10
357.9277590526482982
 20
60.8279960540198701
 30
0.0
 40
0.760535253547362
 50
89.9326764133880943
 51
99.4107334729954317
  0
ARC
  5
12384
  8
0
 10
357.8755833286967913
 20
61.1427984106641418
 30
0.0
 40
0.4414383561656442
 50
99.410741116796089
 51
111.6651391674280944
  0
ARC
  5
12385
  8
0
 10
357.7559089108917192
 20
61.4350121574328227
 30
0.0
 40
0.1257301747934745
 50
110.142711669041006
 51
140.2048284792456059
  0
ARC
  5
12386
  8
0
 10
357.6938527048981769
 20
61.4913991984014601
 30
0.0
 40
0.0421144479410453
 50
145.1160638765394992
 51
164.5942131582376078
  0
ARC
  5
12387
  8
0
 10
357.6927191216764754
 20
61.4962273714372003
 30
0.0
 40
0.0404587125949977
 50
183.1091262053375885
 51
203.0340894663603137
  0
ARC
  5
12388
  8
0
 10
357.6879431931180875
 20
61.4944814137266889
 30
0.0
 40
0.0356260530025834
 50
166.8489004129463922
 51
180.7212190550943944
  0
ARC
  5
12389
  8
0
 10
357.7388986803961188
 20
61.5290863574564568
 30
0.0
 40
0.0965833261628003
 50
210.2729764409723998
 51
249.2451029728566994
  0
ARC
  5
1238A
  8
0
 10
357.8782459571987147
 20
61.8459303576979522
 30
0.0
 40
0.4426134771154831
 50
246.9112711281036923
 51
263.6566542594130738
  0
ARC
  5
1238B
  8
0
 10
357.9275429621458784
 20
62.1684213335636215
 30
0.0
 40
0.7686928765600812
 50
262.6604683709599044
 51
270.082715798517313
  0
ARC
  5
1238C
  8
0
 10
357.9266075336834092
 20
62.155184363184901
 30
0.0
 40
0.7385394975742444
 50
259.2005851041582218
 51
270.1586635191557093
  0
ARC
  5
1238D
  8
0
 10
357.8595396386392054
 20
61.8035820660701987
 30
0.0
 40
0.3805977734319259
 50
244.9328840548492963
 51
259.2005689795263947
  0
ARC
  5
1238E
  8
0
 10
357.7451511730333209
 20
61.5590235506844223
 30
0.0
 40
0.1106096468200912
 50
221.1060176527549004
 51
244.9328840548490973
  0
ARC
  5
1238F
  8
0
 10
357.6917381124354165
 20
61.5124184882275031
 30
0.0
 40
0.0397225049039498
 50
194.3298026129054961
 51
221.1060176527543035
  0
ARC
  5
12390
  8
0
 10
357.9283037476578784
 20
62.2707381218335883
 30
0.0
 40
0.8824462764821381
 50
263.8330461061871119
 51
270.0226565912482783
  0
ARC
  5
12391
  8
0
 10
357.906144791072677
 20
62.065659510692079
 30
0.0
 40
0.6761739901597368
 50
255.1690056260272002
 51
263.8330427563702187
  0
ARC
  5
12392
  8
0
 10
357.8179881600095769
 20
61.7327293934029697
 30
0.0
 40
0.3317700781631766
 50
243.4006859846996065
 51
255.1690056260272002
  0
ARC
  5
12393
  8
0
 10
357.7351902185179142
 20
61.5673807802854682
 30
0.0
 40
0.1468493844180984
 50
228.8152054002812861
 51
243.4006859846996065
  0
ARC
  5
12394
  8
0
 10
357.6769452414375223
 20
61.5027662501208923
 30
0.0
 40
0.0598812571008599
 50
197.8894948832480907
 51
230.0463133605182122
  0
LINE
  5
12395
  8
0
 10
357.4168272895458927
 20
65.2433660229440022
 30
0.0
 11
357.4168272895458927
 21
65.2382479127440007
 31
0.0
  0
ARC
  5
12396
  8
0
 10
357.9286506445363898
 20
63.0051250753424625
 30
0.0
 40
0.5175997310056268
 50
89.9997728857033792
 51
173.8508302661066978
  0
ARC
  5
12397
  8
0
 10
371.4859239049184225
 20
62.5048011536329113
 30
0.0
 40
14.0857258875506002
 50
177.8958262565672896
 51
179.5423143691508017
  0
ARC
  5
12398
  8
0
 10
357.9308787257936046
 20
62.6256645879125529
 30
0.0
 40
0.5302969876590716
 50
180.9017940138054996
 51
195.537031777608604
  0
LINE
  5
12399
  8
0
 10
357.4270841855279173
 20
61.7906221839440022
 30
0.0
 11
357.4140289831266841
 21
63.0605689852439966
 31
0.0
  0
ARC
  5
1239A
  8
0
 10
356.5331703774043035
 20
63.1399446676277023
 30
0.0
 40
0.8844277145302744
 50
352.3350518695492042
 51
354.8508859599356811
  0
ARC
  5
1239B
  8
0
 10
357.2412354781213821
 20
64.8516502964166222
 30
0.0
 40
0.0628951212934595
 50
90.075403632378098
 51
179.1952442002632893
  0
ARC
  5
1239C
  8
0
 10
357.2509194374932235
 20
64.8552483507225759
 30
0.0
 40
0.0726236321061044
 50
182.1422230892277128
 51
229.2410470827063023
  0
ARC
  5
1239D
  8
0
 10
356.5014624569606099
 20
64.086062790438902
 30
0.0
 40
1.0014544192973101
 50
42.3015639963688486
 51
45.4908613312545071
  0
ENDSEC
  0
EOF
