  0
SECTION
  2
HEADER
  9
$ACADVER
  1
AC1009
  9
$INSBASE
 10
357.9285174999067749
 20
73.847519652683161
 30
0.0
  9
$EXTMIN
 10
356.6794295321963091
 20
68.1375200200976252
 30
-0.0015258207003583
  9
$EXTMAX
 10
359.1730010154436172
 20
75.8842359005577833
 30
0.0000000349246037
  9
$LIMMIN
 10
0.0
 20
0.0
  9
$LIMMAX
 10
11.6929133858000007
 20
8.2677165353999982
  9
$ORTHOMODE
 70
     0
  9
$REGENMODE
 70
     1
  9
$FILLMODE
 70
     1
  9
$QTEXTMODE
 70
     0
  9
$MIRRTEXT
 70
     0
  9
$DRAGMODE
 70
     2
  9
$LTSCALE
 40
0.6431102362
  9
$OSMODE
 70
  4095
  9
$ATTMODE
 70
     1
  9
$TEXTSIZE
 40
0.2
  9
$TRACEWID
 40
0.05
  9
$TEXTSTYLE
  7
STANDARD
  9
$CLAYER
  8
0
  9
$CELTYPE
  6
BYLAYER
  9
$CECOLOR
 62
   256
  9
$DIMSCALE
 40
1.0
  9
$DIMASZ
 40
0.1875
  9
$DIMEXO
 40
0.0625
  9
$DIMDLI
 40
0.4443307087
  9
$DIMRND
 40
0.0
  9
$DIMDLE
 40
0.0
  9
$DIMEXE
 40
0.125
  9
$DIMTP
 40
0.01
  9
$DIMTM
 40
0.01
  9
$DIMTXT
 40
1.0
  9
$DIMCEN
 40
0.1052362205
  9
$DIMTSZ
 40
0.0
  9
$DIMTOL
 70
     1
  9
$DIMLIM
 70
     0
  9
$DIMTIH
 70
     0
  9
$DIMTOH
 70
     1
  9
$DIMSE1
 70
     0
  9
$DIMSE2
 70
     0
  9
$DIMTAD
 70
     0
  9
$DIMZIN
 70
     0
  9
$DIMBLK
  1

  9
$DIMASO
 70
     1
  9
$DIMSHO
 70
     1
  9
$DIMPOST
  1
\X
  9
$DIMAPOST
  1

  9
$DIMALT
 70
     1
  9
$DIMALTD
 70
     2
  9
$DIMALTF
 40
25.3999999999999986
  9
$DIMLFAC
 40
1.0
  9
$DIMTOFL
 70
     0
  9
$DIMTVP
 40
0.0
  9
$DIMTIX
 70
     0
  9
$DIMSOXD
 70
     0
  9
$DIMSAH
 70
     0
  9
$DIMBLK1
  1

  9
$DIMBLK2
  1

  9
$DIMSTYLE
  2
STANDARD
  9
$DIMCLRD
 70
     0
  9
$DIMCLRE
 70
     0
  9
$DIMCLRT
 70
     0
  9
$DIMTFAC
 40
1.0
  9
$DIMGAP
 40
0.09
  9
$LUNITS
 70
     2
  9
$LUPREC
 70
     4
  9
$SKETCHINC
 40
0.1
  9
$FILLETRAD
 40
0.0
  9
$AUNITS
 70
     0
  9
$AUPREC
 70
     0
  9
$MENU
  1
.
  9
$ELEVATION
 40
0.0
  9
$PELEVATION
 40
0.0
  9
$THICKNESS
 40
0.0
  9
$LIMCHECK
 70
     0
  9
$BLIPMODE
 70
     0
  9
$CHAMFERA
 40
0.0
  9
$CHAMFERB
 40
0.0
  9
$SKPOLY
 70
     0
  9
$TDCREATE
 40
2458172.5207638889551163
  9
$TDUPDATE
 40
2459083.8186342590488493
  9
$TDINDWG
 40
0.300610625
  9
$TDUSRTIMER
 40
0.300610625
  9
$USRTIMER
 70
     1
  9
$ANGBASE
 50
0.0
  9
$ANGDIR
 70
     0
  9
$PDMODE
 70
     0
  9
$PDSIZE
 40
0.3125
  9
$PLINEWID
 40
0.0
  9
$COORDS
 70
     1
  9
$SPLFRAME
 70
     0
  9
$SPLINETYPE
 70
     6
  9
$SPLINESEGS
 70
     8
  9
$ATTDIA
 70
     1
  9
$ATTREQ
 70
     1
  9
$HANDLING
 70
     1
  9
$HANDSEED
  5
12441
  9
$SURFTAB1
 70
     6
  9
$SURFTAB2
 70
     6
  9
$SURFTYPE
 70
     6
  9
$SURFU
 70
     6
  9
$SURFV
 70
     6
  9
$UCSNAME
  2

  9
$UCSORG
 10
0.0
 20
0.0
 30
0.0
  9
$UCSXDIR
 10
1.0
 20
0.0
 30
0.0
  9
$UCSYDIR
 10
0.0
 20
1.0
 30
0.0
  9
$PUCSNAME
  2

  9
$PUCSORG
 10
0.0
 20
0.0
 30
0.0
  9
$PUCSXDIR
 10
1.0
 20
0.0
 30
0.0
  9
$PUCSYDIR
 10
0.0
 20
1.0
 30
0.0
  9
$USERI1
 70
     0
  9
$USERI2
 70
     0
  9
$USERI3
 70
     0
  9
$USERI4
 70
     0
  9
$USERI5
 70
     0
  9
$USERR1
 40
0.0
  9
$USERR2
 40
0.0
  9
$USERR3
 40
0.0
  9
$USERR4
 40
0.0
  9
$USERR5
 40
0.0
  9
$WORLDVIEW
 70
     1
  9
$SHADEDGE
 70
     3
  9
$SHADEDIF
 70
    70
  9
$TILEMODE
 70
     1
  9
$MAXACTVP
 70
    64
  9
$PLIMCHECK
 70
     0
  9
$PEXTMIN
 10
1.0000000000000000E+20
 20
1.0000000000000000E+20
 30
1.0000000000000000E+20
  9
$PEXTMAX
 10
-1.0000000000000000E+20
 20
-1.0000000000000000E+20
 30
-1.0000000000000000E+20
  9
$PLIMMIN
 10
0.0
 20
0.0
  9
$PLIMMAX
 10
12.0
 20
9.0
  9
$UNITMODE
 70
     0
  9
$VISRETAIN
 70
     1
  9
$PLINEGEN
 70
     0
  9
$PSLTSCALE
 70
     1
  0
ENDSEC
  0
SECTION
  2
TABLES
  0
TABLE
  2
VPORT
 70
     1
  0
VPORT
  2
*ACTIVE
 70
     0
 10
0.0
 20
0.0
 11
1.0
 21
1.0
 12
-71.7030738342338054
 22
2.3083364481090309
 13
0.0
 23
0.0
 14
1.0
 24
1.0
 15
0.0
 25
0.0
 16
0.0
 26
0.0
 36
14.6338572656650907
 17
429.6292891080536833
 27
69.7025415122186871
 37
0.0
 40
7.8111823094237653
 41
2.6486111111111108
 42
50.0
 43
0.0
 44
0.0
 50
0.0
 51
0.0
 71
     0
 72
   100
 73
     1
 74
     1
 75
     0
 76
     0
 77
     0
 78
     0
  0
ENDTAB
  0
TABLE
  2
LTYPE
 70
     2
  0
LTYPE
  2
CONTINUOUS
 70
     0
  3
Solid line
 72
    65
 73
     0
 40
0.0
  0
LTYPE
  2
PHANTOM2
 70
     0
  3
___ _ _ ___ _ _ ___ _ _ ___ _ _
 72
    65
 73
     6
 40
1.25
 49
0.625
 49
-0.125
 49
0.125
 49
-0.125
 49
0.125
 49
-0.125
  0
ENDTAB
  0
TABLE
  2
LAYER
 70
     2
  0
LAYER
  2
0
 70
     0
 62
   255
  6
CONTINUOUS
  0
LAYER
  2
DEFPOINTS
 70
     0
 62
     7
  6
CONTINUOUS
  0
ENDTAB
  0
TABLE
  2
STYLE
 70
     1
  0
STYLE
  2
STANDARD
 70
     0
 40
0.0
 41
0.8
 50
0.0
 71
     0
 42
0.2
  3
txt
  4

  0
ENDTAB
  0
TABLE
  2
VIEW
 70
     0
  0
ENDTAB
  0
TABLE
  2
UCS
 70
     0
  0
ENDTAB
  0
TABLE
  2
APPID
 70
    10
  0
APPID
  2
ACAD
 70
     0
  0
APPID
  2
ACAD_MLEADERVER
 70
     0
  0
APPID
  2
ACAD_EXEMPT_FROM_CAD_STANDARDS
 70
     0
  0
APPID
  2
ACAD_DSTYLE_DIMJAG
 70
     0
  0
APPID
  2
ACAD_DSTYLE_DIMTALN
 70
     0
  0
APPID
  2
ACAD_NAV_VCDISPLAY
 70
     0
  0
APPID
  2
ACAECLAYERSTANDARD
 70
     0
  0
APPID
  2
ACCMTRANSPARENCY
 70
     0
  0
APPID
  2
DCO15
 70
     0
  0
APPID
  2
ACDBATTR
 70
     0
  0
ENDTAB
  0
TABLE
  2
DIMSTYLE
 70
     1
  0
DIMSTYLE
  2
STANDARD
 70
     0
  3

  4

  5

  6

  7

 40
1.0
 41
0.1875
 42
0.0625
 43
0.38
 44
0.125
 45
0.0
 46
0.0
 47
0.01
 48
0.01
140
0.15625
141
0.09
142
0.0
143
25.3999999999999986
144
1.0
145
0.0
146
1.0
147
0.09
 71
     1
 72
     0
 73
     1
 74
     1
 75
     0
 76
     0
 77
     0
 78
     4
170
     0
171
     2
172
     0
173
     0
174
     0
175
     0
176
     0
177
     0
178
     0
  0
ENDTAB
  0
ENDSEC
  0
SECTION
  2
BLOCKS
  0
BLOCK
  8
0
  2
$MODEL_SPACE
 70
     0
 10
0.0
 20
0.0
 30
0.0
  3
$MODEL_SPACE
  1

  0
ENDBLK
  5
21
  8
0
  0
BLOCK
 67
     1
  8
0
  2
$PAPER_SPACE
 70
     0
 10
0.0
 20
0.0
 30
0.0
  3
$PAPER_SPACE
  1

  0
ENDBLK
  5
1D
 67
     1
  8
0
  0
BLOCK
  8
0
  2
_FILLED
 70
     0
 10
0.0
 20
0.0
 30
0.0
  3
_FILLED
  1

  0
SOLID
  5
87E2
  8
0
  6
BYBLOCK
 62
     0
 10
0.0
 20
0.0
 30
0.0
 11
-1.0
 21
0.1666666667
 31
0.0
 12
-1.0
 22
-0.1666666667
 32
0.0
 13
-1.0
 23
-0.1666666667
 33
0.0
  0
ENDBLK
  5
87E3
  8
0
  6
BYBLOCK
 62
     0
  0
ENDSEC
  0
SECTION
  2
ENTITIES
  0
ATTDEF
  5
11BF1
  8
DEFPOINTS
 10
357.9285850051775242
 20
73.8513197350820292
 30
0.0
 40
0.001
  1
K-98422T-B4
  3

  2
MODELNUMBER
 70
     0
1001
ACDBATTR
1070
     0
1070
     1
  0
ATTDEF
  5
11BF2
  8
DEFPOINTS
 10
357.9285850051775242
 20
73.849653068415364
 30
0.0
 40
0.001
  1
FAIRFAX
  3

  2
TRADENAME
 70
     0
1001
ACDBATTR
1070
     0
1070
     1
  0
ATTDEF
  5
11BF3
  8
DEFPOINTS
 10
357.9285850051775242
 20
73.8479864017486989
 30
0.0
 40
0.001
  1
BATHROOM SINK FAUCET
  3

  2
PRODUCT
 70
     0
1001
ACDBATTR
1070
     0
1070
     1
  0
ARC
  5
12164
  8
0
 10
357.9306829949068174
 20
73.8479503961831654
 30
0.0
 40
1.2321655692901929
 50
303.6161457383599895
 51
86.8954320020862525
  0
ARC
  5
12165
  8
0
 10
357.9285175009068212
 20
73.847519652683161
 30
0.0
 40
1.1932390526000001
 50
285.5868824842776803
 51
90.0000000480162896
  0
ARC
  5
12166
  8
0
 10
357.9285175009068212
 20
73.847519652683161
 30
0.0
 40
0.7503061345465301
 50
315.4119313096912265
 51
90.0000000763642589
  0
ARC
  5
12167
  8
0
 10
357.9285318828261779
 20
73.847519652683161
 30
0.0
 40
0.5748400705047074
 50
269.9985664176438718
 51
90.0014335823560856
  0
ARC
  5
12168
  8
0
 10
357.9736205068135746
 20
68.7245422991503006
 30
0.0
 40
0.5700254470943407
 50
359.3984066173284759
 51
36.6266180759953031
  0
ARC
  5
12169
  8
0
 10
357.9957203072415268
 20
68.7243102474633361
 30
0.0
 40
0.5479244284088929
 50
337.8915497200546838
 51
359.3984066173284759
  0
ARC
  5
1216A
  8
0
 10
357.9361068348389949
 20
68.7560164517469445
 30
0.0
 40
0.6151268214618812
 50
269.2930759385200759
 51
337.2452270212123722
  0
ARC
  5
1216B
  8
0
 10
357.4228778544205056
 20
73.98034508892313
 30
0.0
 40
1.2257126347911349
 50
331.8252289600574159
 51
338.5846387577429937
  0
ARC
  5
1216C
  8
0
 10
355.0105155788033926
 20
75.1013177826167322
 30
0.0
 40
3.8844502708624149
 50
330.8551282752870861
 51
334.0512318110526166
  0
ARC
  5
1216D
  8
0
 10
359.4907259725500239
 20
72.6030669577910857
 30
0.0
 40
1.2452224629459221
 50
150.8551282752870861
 51
175.6201290134376052
  0
ARC
  5
1216E
  8
0
 10
360.8511618957221003
 20
72.5853958212030648
 30
0.0
 40
2.604464315851192
 50
177.5184510909465132
 51
188.5490654137539934
  0
ARC
  5
1216F
  8
0
 10
-398.0844625452731975
 20
-35.5000860919609522
 30
0.0
 40
763.9892178718029072
 50
8.052156332503138
 51
8.1038852922751925
  0
ARC
  5
12170
  8
0
 10
353.5703767604334757
 20
70.9698952813875508
 30
0.0
 40
4.8330591474892914
 50
0.6124635702922347
 51
6.4796714415669934
  0
ARC
  5
12171
  8
0
 10
357.453596501409379
 20
71.0071197123678957
 30
0.0
 40
0.9496730347211912
 50
341.566481855392226
 51
0.8710844011968708
  0
ARC
  5
12172
  8
0
 10
357.8496507109290974
 20
70.8801446295395152
 30
0.0
 40
0.5338112011727679
 50
308.1248209398045219
 51
341.0540853782442241
  0
ARC
  5
12173
  8
0
 10
357.9364825709932916
 20
70.8118321187254622
 30
0.0
 40
0.4272639489832417
 50
268.9318279700055996
 51
304.6181812648416098
  0
ARC
  5
12174
  8
0
 10
363.1590746218864183
 20
71.0298299867267531
 30
0.0
 40
4.8866719622129686
 50
157.6285734320726988
 51
158.437233356271804
  0
ARC
  5
12175
  8
0
 10
361.2325644999169185
 20
71.7911414915980828
 30
0.0
 40
2.8151902564041582
 50
158.437233356271804
 51
165.7150930447901089
  0
ARC
  5
12176
  8
0
 10
360.0345995727645914
 20
72.096162869731927
 30
0.0
 40
1.5790033741708469
 50
165.7150930447901089
 51
180.0733440871960909
  0
ARC
  5
12177
  8
0
 10
7906.4759111969524383
 20
9.715685958018426
 30
0.0
 40
7548.2780637590176411
 50
179.5265061923468863
 51
179.5326255753709006
  0
ARC
  5
12178
  8
0
 10
3760.2907989295740663
 20
42.7831699977168896
 30
0.0
 40
3401.9612427394390579
 50
179.5199166855151987
 51
179.5487549902476871
  0
ARC
  5
12179
  8
0
 10
318.7806914691885822
 20
69.5183931244068702
 30
0.0
 40
39.6544120962651476
 50
359.049512911776219
 51
0.0828839952400521
  0
ARC
  5
1217A
  8
0
 10
313.0172072768182829
 20
69.2026022482716598
 30
0.0
 40
45.4137278447564796
 50
359.3862335486542747
 51
359.5685009860932269
  0
ARC
  5
1217B
  8
0
 10
358.0581191470903946
 20
68.7200944902179316
 30
0.0
 40
0.3702315790113186
 50
345.6657137248927256
 51
359.3862335486542747
  0
ARC
  5
1217C
  8
0
 10
357.7324096416336943
 20
68.8033244046936403
 30
0.0
 40
0.7064069805630436
 50
341.7179246260479886
 51
345.6657137248927256
  0
ARC
  5
1217D
  8
0
 10
358.0542205888538092
 20
68.6970072859899119
 30
0.0
 40
0.3674886784898754
 50
320.4198737332914106
 51
341.7179246260499212
  0
ARC
  5
1217E
  8
0
 10
357.9340224902726959
 20
68.7963735956500386
 30
0.0
 40
0.5234413841348303
 50
269.3974138490436872
 51
320.4198737332914106
  0
ARC
  5
1217F
  8
0
 10
357.9311707605555739
 20
68.8104660914919606
 30
0.0
 40
0.5743602768177068
 50
269.7353208776502242
 51
325.2618432373860173
  0
ARC
  5
12180
  8
0
 10
358.0017658772334244
 20
68.7615141282034301
 30
0.0
 40
0.4884535529332314
 50
325.2618432373860173
 51
28.3516803779884796
  0
ARC
  5
12181
  8
0
 10
357.9875034146057828
 20
68.754109066053033
 30
0.0
 40
0.4547852345297681
 50
358.1936079133627118
 51
13.5407592730606208
  0
ARC
  5
12182
  8
0
 10
357.9896008712053117
 20
68.7540429165935336
 30
0.0
 40
0.4526867350807812
 50
326.4013571300906165
 51
358.193607913361916
  0
ARC
  5
12183
  8
0
 10
357.9286314255770094
 20
75.6520756061871964
 30
0.0
 40
0.2987027676626364
 50
269.978147497622615
 51
283.3132495355544052
  0
ARC
  5
12184
  8
0
 10
357.9378585933923773
 20
75.6277233902588364
 30
0.0
 40
0.272901044699214
 50
282.6053841269350073
 51
329.0604654585158073
  0
ARC
  5
12185
  8
0
 10
357.9352749277355201
 20
75.6165122371909888
 30
0.0
 40
0.2695753058852221
 50
331.3872100477499885
 51
38.0254418955461375
  0
ARC
  5
12186
  8
0
 10
357.9313117410562768
 20
75.5966858046513011
 30
0.0
 40
0.2852150995192919
 50
40.6733921373883618
 51
90.5613332847395043
  0
LINE
  5
12187
  8
0
 10
357.9974151387067991
 20
75.3614002817831619
 30
0.0
 11
357.9974151387067991
 21
75.038767969431305
 31
0.0
  0
ARC
  5
12189
  8
0
 10
357.9284631677488733
 20
73.8473769080440263
 30
0.0
 40
0.7081740635234308
 50
0.0115489479882929
 51
89.9956041024435649
  0
ARC
  5
1218A
  8
0
 10
357.9066340668687189
 20
73.8503407000063135
 30
0.0
 40
0.7300086008694123
 50
334.2162837407183247
 51
359.7785854748552765
  0
ARC
  5
1218B
  8
0
 10
357.9263520049067893
 20
73.8479503961831654
 30
0.0
 40
1.2321655692901929
 50
93.1045679979137333
 51
236.3838542616400105
  0
ARC
  5
1218C
  8
0
 10
357.9285174989067855
 20
73.847519652683161
 30
0.0
 40
1.1932390526000001
 50
89.9999999519836962
 51
254.413117515719108
  0
ARC
  5
1218D
  8
0
 10
357.9285174989067855
 20
73.847519652683161
 30
0.0
 40
0.7503061345465301
 50
89.9999999236357553
 51
224.5880686903088019
  0
ARC
  5
1218E
  8
0
 10
357.928503116987315
 20
73.847519652683161
 30
0.0
 40
0.5748400705047074
 50
89.9985664176439144
 51
270.0014335823561282
  0
ARC
  5
1218F
  8
0
 10
357.8834144929999184
 20
68.7245422991503006
 30
0.0
 40
0.5700254470943407
 50
143.3733819240046898
 51
180.6015933826706998
  0
ARC
  5
12190
  8
0
 10
357.8613146925720798
 20
68.7243102474633361
 30
0.0
 40
0.5479244284088929
 50
180.6015933826706998
 51
202.1084502799452878
  0
ARC
  5
12191
  8
0
 10
357.9209281649456216
 20
68.7560164517228003
 30
0.0
 40
0.6151268214257519
 50
202.7547729777598988
 51
270.7069239710747866
  0
ARC
  5
12192
  8
0
 10
358.434157145393101
 20
73.98034508892313
 30
0.0
 40
1.2257126347911349
 50
201.4153612422570063
 51
208.1747710399424989
  0
ARC
  5
12193
  8
0
 10
360.846519421010214
 20
75.1013177826167322
 30
0.0
 40
3.8844502708624149
 50
205.9487681889467012
 51
209.1448717247128002
  0
ARC
  5
12194
  8
0
 10
356.3663090272635827
 20
72.6030669577910857
 30
0.0
 40
1.2452224629459221
 50
4.3798709865624037
 51
29.1448717247128783
  0
ARC
  5
12195
  8
0
 10
355.0058731040915063
 20
72.5853958212030648
 30
0.0
 40
2.604464315851192
 50
351.4509345862459782
 51
2.4815489090534451
  0
ARC
  5
12196
  8
0
 10
1113.9414975450870315
 20
-35.5000860919609522
 30
0.0
 40
763.9892178718029072
 50
171.8961147077247915
 51
171.9478436674968123
  0
ARC
  5
12197
  8
0
 10
362.2866582393800172
 20
70.9698952813875508
 30
0.0
 40
4.8330591474892914
 50
173.5203285584329933
 51
179.3875364297076942
  0
ARC
  5
12198
  8
0
 10
358.4034384984042276
 20
71.0071197123678957
 30
0.0
 40
0.9496730347211912
 50
179.1289155988031041
 51
198.4335181446076888
  0
ARC
  5
12199
  8
0
 10
358.0073842888845093
 20
70.8801446295395152
 30
0.0
 40
0.5338112011727679
 50
198.9459146217556906
 51
231.8751790601955918
  0
ARC
  5
1219A
  8
0
 10
357.9205524288203151
 20
70.8118321187254622
 30
0.0
 40
0.4272639489832417
 50
235.3818187351583049
 51
271.0681720299942867
  0
ARC
  5
1219B
  8
0
 10
352.6979603779270747
 20
71.0298299867267531
 30
0.0
 40
4.8866719622129686
 50
21.5627666437282102
 51
22.3714265679272515
  0
ARC
  5
1219C
  8
0
 10
354.6244704998965744
 20
71.7911414915980828
 30
0.0
 40
2.8151902564041582
 50
14.2849069552098697
 51
21.5627666437282102
  0
ARC
  5
1219D
  8
0
 10
355.8224354270489016
 20
72.096162869731927
 30
0.0
 40
1.5790033741708469
 50
359.9266559128038807
 51
14.2849069552098697
  0
ARC
  5
1219E
  8
0
 10
-7190.618876197137979
 20
9.715685958018426
 30
0.0
 40
7548.2780637590176411
 50
0.467374424629062
 51
0.4734938076530947
  0
ARC
  5
1219F
  8
0
 10
-3044.4337639297600617
 20
42.7831699977168896
 30
0.0
 40
3401.9612427394390579
 50
0.4512450097522924
 51
0.4800833144855516
  0
ARC
  5
121A0
  8
0
 10
397.0763435306250244
 20
69.5183931244068702
 30
0.0
 40
39.6544120962651476
 50
179.9171160047598903
 51
180.9504870882236958
  0
ARC
  5
121A1
  8
0
 10
402.83982772299521
 20
69.2026022482716598
 30
0.0
 40
45.4137278447564796
 50
180.4314990139058921
 51
180.6137664513456969
  0
ARC
  5
121A2
  8
0
 10
357.7989158527232121
 20
68.7200944902179316
 30
0.0
 40
0.3702315790113186
 50
180.6137664513456969
 51
194.3342862751063933
  0
ARC
  5
121A3
  8
0
 10
358.1246253581799124
 20
68.8033244046936403
 30
0.0
 40
0.7064069805630436
 50
194.3342862751063933
 51
198.2820753739511019
  0
ARC
  5
121A4
  8
0
 10
357.8028144109596838
 20
68.6970072859899119
 30
0.0
 40
0.3674886784898754
 50
198.2820753739501072
 51
219.5801262667085041
  0
ARC
  5
121A5
  8
0
 10
357.9230125095409107
 20
68.7963735956500386
 30
0.0
 40
0.5234413841348303
 50
219.5801262667085041
 51
270.6025861509563128
  0
ARC
  5
121A6
  8
0
 10
357.9258642392579759
 20
68.8104660914919606
 30
0.0
 40
0.5743602768177068
 50
214.7381567626140111
 51
270.2646791223497758
  0
ARC
  5
121A7
  8
0
 10
357.8552691225801254
 20
68.7615141282034301
 30
0.0
 40
0.4884535529332314
 50
151.6483196220115133
 51
214.7381567626140111
  0
ARC
  5
121A8
  8
0
 10
357.8695315852077101
 20
68.754109066053033
 30
0.0
 40
0.4547852345297681
 50
166.459240726939413
 51
181.806392086637203
  0
ARC
  5
121A9
  8
0
 10
357.8674341286082949
 20
68.7540429165935336
 30
0.0
 40
0.4526867350807812
 50
181.806392086637203
 51
213.5986428699092983
  0
ARC
  5
121AA
  8
0
 10
357.9284035742365973
 20
75.6520756061871964
 30
0.0
 40
0.2987027676626364
 50
256.6867504644457085
 51
270.021852502377385
  0
ARC
  5
121AB
  8
0
 10
357.9191764064211156
 20
75.6277233902588364
 30
0.0
 40
0.272901044699214
 50
210.9395345414841927
 51
257.3946158730651064
  0
ARC
  5
121AC
  8
0
 10
357.9217600720780865
 20
75.6165122371909888
 30
0.0
 40
0.2695753058852221
 50
141.9745581044537914
 51
208.6127899522500115
  0
ARC
  5
121AD
  8
0
 10
357.925723258757273
 20
75.5966858046513011
 30
0.0
 40
0.2852150995192919
 50
89.4386667152604957
 51
139.3266078626116098
  0
LINE
  5
121AE
  8
0
 10
357.8596198611068075
 20
75.3614002817831619
 30
0.0
 11
357.8596198611068075
 21
75.038767969431305
 31
0.0
  0
ARC
  5
121AF
  8
0
 10
357.9285718320646197
 20
73.8473769080440263
 30
0.0
 40
0.7081740635234308
 50
90.0043958975564493
 51
179.9884510520116976
  0
ARC
  5
121B0
  8
0
 10
357.9504009329448877
 20
73.8503407000063135
 30
0.0
 40
0.7300086008694123
 50
180.2214145251446951
 51
205.7837162592817037
  0
ENDSEC
  0
EOF
