  0
SECTION
  2
HEADER
  9
$ACADVER
  1
AC1009
  9
$INSBASE
 10
286.6431757095298281
 20
92.5687544841450176
 30
0.0
  9
$EXTMIN
 10
285.5100654398440838
 20
85.977428096680228
 30
-0.0015258207003583
  9
$EXTMAX
 10
287.7713831516348932
 20
93.6904916645593175
 30
0.0000000349246037
  9
$LIMMIN
 10
0.0
 20
0.0
  9
$LIMMAX
 10
11.6929133858000007
 20
8.2677165353999982
  9
$ORTHOMODE
 70
     0
  9
$REGENMODE
 70
     1
  9
$FILLMODE
 70
     1
  9
$QTEXTMODE
 70
     0
  9
$MIRRTEXT
 70
     0
  9
$DRAGMODE
 70
     2
  9
$LTSCALE
 40
0.6431102362
  9
$OSMODE
 70
  2039
  9
$ATTMODE
 70
     1
  9
$TEXTSIZE
 40
0.2
  9
$TRACEWID
 40
0.05
  9
$TEXTSTYLE
  7
STANDARD
  9
$CLAYER
  8
0
  9
$CELTYPE
  6
BYLAYER
  9
$CECOLOR
 62
   256
  9
$DIMSCALE
 40
1.0
  9
$DIMASZ
 40
0.1875
  9
$DIMEXO
 40
0.0625
  9
$DIMDLI
 40
0.4443307087
  9
$DIMRND
 40
0.0
  9
$DIMDLE
 40
0.0
  9
$DIMEXE
 40
0.125
  9
$DIMTP
 40
0.01
  9
$DIMTM
 40
0.01
  9
$DIMTXT
 40
1.0
  9
$DIMCEN
 40
0.1052362205
  9
$DIMTSZ
 40
0.0
  9
$DIMTOL
 70
     1
  9
$DIMLIM
 70
     0
  9
$DIMTIH
 70
     0
  9
$DIMTOH
 70
     1
  9
$DIMSE1
 70
     0
  9
$DIMSE2
 70
     0
  9
$DIMTAD
 70
     0
  9
$DIMZIN
 70
     0
  9
$DIMBLK
  1

  9
$DIMASO
 70
     1
  9
$DIMSHO
 70
     1
  9
$DIMPOST
  1
\X
  9
$DIMAPOST
  1

  9
$DIMALT
 70
     1
  9
$DIMALTD
 70
     2
  9
$DIMALTF
 40
25.3999999999999986
  9
$DIMLFAC
 40
1.0
  9
$DIMTOFL
 70
     0
  9
$DIMTVP
 40
0.0
  9
$DIMTIX
 70
     0
  9
$DIMSOXD
 70
     0
  9
$DIMSAH
 70
     0
  9
$DIMBLK1
  1

  9
$DIMBLK2
  1

  9
$DIMSTYLE
  2
STANDARD
  9
$DIMCLRD
 70
     0
  9
$DIMCLRE
 70
     0
  9
$DIMCLRT
 70
     0
  9
$DIMTFAC
 40
1.0
  9
$DIMGAP
 40
0.09
  9
$LUNITS
 70
     2
  9
$LUPREC
 70
     4
  9
$SKETCHINC
 40
0.1
  9
$FILLETRAD
 40
0.0
  9
$AUNITS
 70
     0
  9
$AUPREC
 70
     0
  9
$MENU
  1
.
  9
$ELEVATION
 40
0.0
  9
$PELEVATION
 40
0.0
  9
$THICKNESS
 40
0.0
  9
$LIMCHECK
 70
     0
  9
$BLIPMODE
 70
     0
  9
$CHAMFERA
 40
0.0
  9
$CHAMFERB
 40
0.0
  9
$SKPOLY
 70
     0
  9
$TDCREATE
 40
2458172.5207638889551163
  9
$TDUPDATE
 40
2459138.4528703698888421
  9
$TDINDWG
 40
0.2821615509
  9
$TDUSRTIMER
 40
0.2821615509
  9
$USRTIMER
 70
     1
  9
$ANGBASE
 50
0.0
  9
$ANGDIR
 70
     0
  9
$PDMODE
 70
     0
  9
$PDSIZE
 40
0.3125
  9
$PLINEWID
 40
0.0
  9
$COORDS
 70
     1
  9
$SPLFRAME
 70
     0
  9
$SPLINETYPE
 70
     6
  9
$SPLINESEGS
 70
     8
  9
$ATTDIA
 70
     1
  9
$ATTREQ
 70
     1
  9
$HANDLING
 70
     1
  9
$HANDSEED
  5
16C3F
  9
$SURFTAB1
 70
     6
  9
$SURFTAB2
 70
     6
  9
$SURFTYPE
 70
     6
  9
$SURFU
 70
     6
  9
$SURFV
 70
     6
  9
$UCSNAME
  2

  9
$UCSORG
 10
0.0
 20
0.0
 30
0.0
  9
$UCSXDIR
 10
1.0
 20
0.0
 30
0.0
  9
$UCSYDIR
 10
0.0
 20
1.0
 30
0.0
  9
$PUCSNAME
  2

  9
$PUCSORG
 10
0.0
 20
0.0
 30
0.0
  9
$PUCSXDIR
 10
1.0
 20
0.0
 30
0.0
  9
$PUCSYDIR
 10
0.0
 20
1.0
 30
0.0
  9
$USERI1
 70
     0
  9
$USERI2
 70
     0
  9
$USERI3
 70
     0
  9
$USERI4
 70
     0
  9
$USERI5
 70
     0
  9
$USERR1
 40
0.0
  9
$USERR2
 40
0.0
  9
$USERR3
 40
0.0
  9
$USERR4
 40
0.0
  9
$USERR5
 40
0.0
  9
$WORLDVIEW
 70
     1
  9
$SHADEDGE
 70
     3
  9
$SHADEDIF
 70
    70
  9
$TILEMODE
 70
     1
  9
$MAXACTVP
 70
    64
  9
$PLIMCHECK
 70
     0
  9
$PEXTMIN
 10
1.0000000000000000E+20
 20
1.0000000000000000E+20
 30
1.0000000000000000E+20
  9
$PEXTMAX
 10
-1.0000000000000000E+20
 20
-1.0000000000000000E+20
 30
-1.0000000000000000E+20
  9
$PLIMMIN
 10
0.0
 20
0.0
  9
$PLIMMAX
 10
12.0
 20
9.0
  9
$UNITMODE
 70
     0
  9
$VISRETAIN
 70
     1
  9
$PLINEGEN
 70
     0
  9
$PSLTSCALE
 70
     1
  0
ENDSEC
  0
SECTION
  2
TABLES
  0
TABLE
  2
VPORT
 70
     1
  0
VPORT
  2
*ACTIVE
 70
     0
 10
0.0
 20
0.0
 11
1.0
 21
1.0
 12
-142.9885648123141948
 22
20.1314183684010892
 13
0.0
 23
0.0
 14
1.0
 24
1.0
 15
0.0
 25
0.0
 16
0.0
 26
0.0
 36
14.6338572656650907
 17
429.6292891080536833
 27
69.7025415122186871
 37
0.0
 40
7.777249949858664
 41
2.6486111111111108
 42
50.0
 43
0.0
 44
0.0
 50
0.0
 51
0.0
 71
     0
 72
   100
 73
     1
 74
     1
 75
     0
 76
     0
 77
     0
 78
     0
  0
ENDTAB
  0
TABLE
  2
LTYPE
 70
     2
  0
LTYPE
  2
CONTINUOUS
 70
     0
  3
Solid line
 72
    65
 73
     0
 40
0.0
  0
LTYPE
  2
PHANTOM2
 70
     0
  3
___ _ _ ___ _ _ ___ _ _ ___ _ _
 72
    65
 73
     6
 40
1.25
 49
0.625
 49
-0.125
 49
0.125
 49
-0.125
 49
0.125
 49
-0.125
  0
ENDTAB
  0
TABLE
  2
LAYER
 70
     2
  0
LAYER
  2
0
 70
     0
 62
   255
  6
CONTINUOUS
  0
LAYER
  2
DEFPOINTS
 70
     0
 62
     7
  6
CONTINUOUS
  0
ENDTAB
  0
TABLE
  2
STYLE
 70
     1
  0
STYLE
  2
STANDARD
 70
     0
 40
0.0
 41
0.8
 50
0.0
 71
     0
 42
0.2
  3
txt
  4

  0
ENDTAB
  0
TABLE
  2
VIEW
 70
     0
  0
ENDTAB
  0
TABLE
  2
UCS
 70
     0
  0
ENDTAB
  0
TABLE
  2
APPID
 70
    10
  0
APPID
  2
ACAD
 70
     0
  0
APPID
  2
ACAD_MLEADERVER
 70
     0
  0
APPID
  2
ACAD_EXEMPT_FROM_CAD_STANDARDS
 70
     0
  0
APPID
  2
ACAD_DSTYLE_DIMJAG
 70
     0
  0
APPID
  2
ACAD_DSTYLE_DIMTALN
 70
     0
  0
APPID
  2
ACAD_NAV_VCDISPLAY
 70
     0
  0
APPID
  2
ACAECLAYERSTANDARD
 70
     0
  0
APPID
  2
ACCMTRANSPARENCY
 70
     0
  0
APPID
  2
DCO15
 70
     0
  0
APPID
  2
ACDBATTR
 70
     0
  0
ENDTAB
  0
TABLE
  2
DIMSTYLE
 70
     1
  0
DIMSTYLE
  2
STANDARD
 70
     0
  3

  4

  5

  6

  7

 40
1.0
 41
0.1875
 42
0.0625
 43
0.38
 44
0.125
 45
0.0
 46
0.0
 47
0.01
 48
0.01
140
0.15625
141
0.09
142
0.0
143
25.3999999999999986
144
1.0
145
0.0
146
1.0
147
0.09
 71
     1
 72
     0
 73
     1
 74
     1
 75
     0
 76
     0
 77
     0
 78
     4
170
     0
171
     2
172
     0
173
     0
174
     0
175
     0
176
     0
177
     0
178
     0
  0
ENDTAB
  0
ENDSEC
  0
SECTION
  2
BLOCKS
  0
BLOCK
  8
0
  2
$MODEL_SPACE
 70
     0
 10
0.0
 20
0.0
 30
0.0
  3
$MODEL_SPACE
  1

  0
ENDBLK
  5
21
  8
0
  0
BLOCK
 67
     1
  8
0
  2
$PAPER_SPACE
 70
     0
 10
0.0
 20
0.0
 30
0.0
  3
$PAPER_SPACE
  1

  0
ENDBLK
  5
1D
 67
     1
  8
0
  0
BLOCK
  8
0
  2
_FILLED
 70
     0
 10
0.0
 20
0.0
 30
0.0
  3
_FILLED
  1

  0
SOLID
  5
87E2
  8
0
  6
BYBLOCK
 62
     0
 10
0.0
 20
0.0
 30
0.0
 11
-1.0
 21
0.1666666667
 31
0.0
 12
-1.0
 22
-0.1666666667
 32
0.0
 13
-1.0
 23
-0.1666666667
 33
0.0
  0
ENDBLK
  5
87E3
  8
0
  6
BYBLOCK
 62
     0
  0
ENDSEC
  0
SECTION
  2
ENTITIES
  0
ATTDEF
  5
164A8
  8
DEFPOINTS
 10
286.6433484982845243
 20
92.5724712901251223
 30
0.0
 40
0.001
  1
K-98423T-4A
  3

  2
MODELNUMBER
 70
     0
1001
ACDBATTR
1070
     0
1070
     1
  0
ATTDEF
  5
164A9
  8
DEFPOINTS
 10
286.6433484982845243
 20
92.570804623458443
 30
0.0
 40
0.001
  1
PURIST
  3

  2
TRADENAME
 70
     0
1001
ACDBATTR
1070
     0
1070
     1
  0
ATTDEF
  5
164AA
  8
DEFPOINTS
 10
286.6433484982845243
 20
92.5691379567918062
 30
0.0
 40
0.001
  1
BATHROOM SINK FAUCET
  3

  2
PRODUCT
 70
     0
1001
ACDBATTR
1070
     0
1070
     1
  0
ARC
  5
169BF
  8
0
 10
286.6431757095298281
 20
92.5687544841450176
 30
0.0
 40
1.120078740200001
 50
291.2248021342866195
 51
248.7751978657134089
  0
ARC
  5
169C0
  8
0
 10
286.6431757095298281
 20
92.5687544841450176
 30
0.0
 40
1.120078740200001
 50
258.6694303896920246
 51
258.6726180466126834
  0
ARC
  5
169C1
  8
0
 10
286.6431757095306807
 20
92.7527602829169382
 30
0.0
 40
0.7300000000280953
 50
90.0000000000716369
 51
102.1966475150249067
  0
ARC
  5
169C2
  8
0
 10
286.4931757095241096
 20
93.4467343458703112
 30
0.0
 40
0.0199999999900797
 50
102.1966475150285021
 51
169.9777156836794916
  0
ARC
  5
169C3
  8
0
 10
286.4931757095297939
 20
93.4467343458450301
 30
0.0
 40
0.0200000000000223
 50
169.9757172813102954
 51
179.9999999999795932
  0
LINE
  5
169C4
  8
0
 10
286.4731757095296985
 20
93.4467343458450301
 30
0.0
 11
286.4731757095296985
 21
93.4426898568450355
 31
0.0
  0
ARC
  5
169C5
  8
0
 10
286.4928950803438283
 20
93.4426804912813935
 30
0.0
 40
0.0197193730380673
 50
179.9727878118445119
 51
187.7483824506743133
  0
ARC
  5
169C6
  8
0
 10
286.5296902366956147
 20
93.2558002047681498
 30
0.0
 40
0.1967122974226081
 50
106.6961013022042977
 51
107.4521860273675031
  0
ARC
  5
169C7
  8
0
 10
286.4952584074358128
 20
93.3653226257538762
 30
0.0
 40
0.0819050173191678
 50
107.4521860273675031
 51
110.6299699760257056
  0
ARC
  5
169C8
  8
0
 10
286.4740189103068246
 20
93.421739771154094
 30
0.0
 40
0.0216222624600561
 50
110.6299699760287041
 51
116.6097064743884033
  0
ARC
  5
169C9
  8
0
 10
286.4668659918257276
 20
93.4360177772140048
 30
0.0
 40
0.0056527383643443
 50
116.6097064743952956
 51
126.2557850652107021
  0
ARC
  5
169CA
  8
0
 10
286.4642935524877885
 20
93.4395253990429779
 30
0.0
 40
0.0013029274440167
 50
126.2557850652518994
 51
142.3945600274780077
  0
ARC
  5
169CB
  8
0
 10
286.463539299007607
 20
93.4401063665099514
 30
0.0
 40
0.0003508657285812
 50
142.3945600272323873
 51
198.6625251519629103
  0
ARC
  5
169CC
  8
0
 10
286.4633773183728067
 20
93.4400516571468529
 30
0.0
 40
0.0001798954373803
 50
198.6625251519209883
 51
248.4443233056190934
  0
ARC
  5
169CD
  8
0
 10
286.4649577019657727
 20
93.4440522897017161
 30
0.0
 40
0.0044813688059208
 50
248.4443233056155123
 51
269.4034944116510815
  0
ARC
  5
169CE
  8
0
 10
286.4655341664171146
 20
93.4994210698239812
 30
0.0
 40
0.0598531497371068
 50
269.4034944116543215
 51
273.1628150484183948
  0
ARC
  5
169CF
  8
0
 10
286.4594847904007224
 20
93.5844877010587766
 30
0.0
 40
0.1451302198980902
 50
273.6944994122105186
 51
275.4844709433917274
  0
ARC
  5
169D0
  8
0
 10
286.4114637060969244
 20
94.0691639725874751
 30
0.0
 40
0.6321790997116449
 50
275.6184117434016798
 51
276.8256415988715275
  0
ARC
  5
169D1
  8
0
 10
285.6384093005383988
 20
100.6738220682833997
 30
0.0
 40
7.2819231142855907
 50
276.6889128636524902
 51
276.7711168200729048
  0
ARC
  5
169D2
  8
0
 10
286.7043807333088807
 20
91.7174007018690247
 30
0.0
 40
1.737711352073263
 50
95.5297499987648848
 51
96.8549939373379516
  0
ARC
  5
169D3
  8
0
 10
286.6476000642292092
 20
92.2944316050579943
 30
0.0
 40
1.1578946062650159
 50
92.7109721146505024
 51
95.484609895934426
  0
ARC
  5
169D4
  8
0
 10
286.6432953086344924
 20
92.3766550063757137
 30
0.0
 40
1.075559699618853
 50
90.0063711237529702
 51
92.6890983618461348
  0
LINE
  5
169D5
  8
0
 10
286.4889503603367871
 20
93.4662829116450382
 30
0.0
 11
286.7974010586470968
 21
93.4662829116450382
 31
0.0
  0
ARC
  5
169D6
  8
0
 10
286.6346564047773882
 20
92.5917559464049447
 30
0.0
 40
0.8857699437718763
 50
99.7701503828794358
 51
118.7722307093189045
  0
ARC
  5
169D7
  8
0
 10
286.6471238528595222
 20
92.5690516838336919
 30
0.0
 40
0.9116720826909993
 50
118.7722307093189045
 51
255.7756573056315972
  0
ARC
  5
169D8
  8
0
 10
286.6431757095298281
 20
92.5687544841448471
 30
0.0
 40
0.8828974621001783
 50
90.0
 51
96.7191533571516686
  0
ARC
  5
169D9
  8
0
 10
286.6431757095298281
 20
92.5687544841449892
 30
0.0
 40
0.8828974621000462
 50
96.7191533571516686
 51
106.8238622983817976
  0
ARC
  5
169DA
  8
0
 10
286.6431757095298281
 20
92.5687544841450176
 30
0.0
 40
0.8828974621000012
 50
106.8238622983817976
 51
120.0653958960619008
  0
ARC
  5
169DB
  8
0
 10
286.6431757095297144
 20
92.5687544841450887
 30
0.0
 40
0.8828974620999103
 50
120.0653958960619008
 51
133.0183026208858053
  0
ARC
  5
169DC
  8
0
 10
286.6431757095298281
 20
92.5687544841450176
 30
0.0
 40
0.8828974621000092
 50
133.0183026208858053
 51
255.5664726415230064
  0
LINE
  5
169DD
  8
0
 10
286.4231757095296871
 20
92.5256528809368461
 30
0.0
 11
286.4231757095296871
 21
89.3287544841450369
 31
0.0
  0
ARC
  5
169DE
  8
0
 10
286.4331759948254899
 20
89.3287547694407209
 30
0.0
 40
0.0100002852997649
 50
180.001634577283113
 51
269.9983654227063994
  0
LINE
  5
169DF
  8
0
 10
286.4331757095297917
 20
89.3187544841450318
 30
0.0
 11
286.8531757093588794
 21
89.3187425020676642
 31
0.0
  0
ARC
  5
169E0
  8
0
 10
286.6311113032462004
 20
92.5679346948219859
 30
0.0
 40
0.2121908643641523
 50
181.3530811867559862
 51
191.4938716720425873
  0
ARC
  5
169E1
  8
0
 10
286.6431757095298849
 20
92.5687544841450176
 30
0.0
 40
0.2242719021001029
 50
166.1278242927018027
 51
181.4896778624475928
  0
ARC
  5
169E2
  8
0
 10
286.6431757095297144
 20
92.5687544841450602
 30
0.0
 40
0.2242719020999505
 50
128.5278241598641955
 51
166.1278242927025985
  0
ARC
  5
169E3
  8
0
 10
286.6431757095298281
 20
92.5687544841449039
 30
0.0
 40
0.2242719021001501
 50
110.5851412288836997
 51
128.5278241598641955
  0
ARC
  5
169E4
  8
0
 10
286.6431757095297144
 20
92.568754484145245
 30
0.0
 40
0.2242719020997779
 50
93.0428288756410637
 51
110.5851412288836997
  0
ARC
  5
169E5
  8
0
 10
286.6431757095298281
 20
92.568754484143966
 30
0.0
 40
0.2242719021010693
 50
90.0000000000065086
 51
93.0428288756410637
  0
ARC
  5
169E6
  8
0
 10
286.6431674937599041
 20
86.4691517586909555
 30
0.0
 40
0.4901202027988678
 50
267.3405529434281789
 51
270.0009603878323787
  0
ARC
  5
169E7
  8
0
 10
286.6429752809278284
 20
86.4650136526546049
 30
0.0
 40
0.485977635075719
 50
257.5511648013167019
 51
267.3405529434281789
  0
ARC
  5
169E8
  8
0
 10
286.6309702997709223
 20
86.4195688830312747
 30
0.0
 40
0.439017662025662
 50
235.6480912152626104
 51
257.8025660196245212
  0
ARC
  5
169E9
  8
0
 10
286.5758241215830822
 20
86.3417716618694726
 30
0.0
 40
0.3436755482142331
 50
206.6860023810010034
 51
235.9196742606058024
  0
ARC
  5
169EA
  8
0
 10
286.5082135639964918
 20
86.307893462069373
 30
0.0
 40
0.2680520830136484
 50
189.1556106207939081
 51
206.7061842080312886
  0
ARC
  5
169EB
  8
0
 10
286.5468082937092049
 20
86.3141137628266364
 30
0.0
 40
0.3071448611588292
 50
180.5122868564741907
 51
189.1556106207939081
  0
LINE
  5
169EC
  8
0
 10
286.2396757095297062
 20
86.3113675888450302
 30
0.0
 11
286.2396757095297062
 21
86.4877925186182352
 31
0.0
  0
ARC
  5
169ED
  8
0
 10
286.6431734137742069
 20
86.679748259343512
 30
0.0
 40
0.4924207023038262
 50
266.6715942688858831
 51
270.0002671234265108
  0
ARC
  5
169EE
  8
0
 10
286.6429134435057904
 20
86.6752781191919865
 30
0.0
 40
0.4879430089786125
 50
258.4811968812421128
 51
266.6715942688858831
  0
ARC
  5
169EF
  8
0
 10
286.6386286642659798
 20
86.6542530767456185
 30
0.0
 40
0.4664858017277541
 50
249.247491243572199
 51
258.4811968812421128
  0
ARC
  5
169F0
  8
0
 10
286.6260980875185851
 20
86.6211835553360174
 30
0.0
 40
0.43112185681376
 50
237.8634530348583098
 51
249.247491243572199
  0
ARC
  5
169F1
  8
0
 10
286.5985205891844885
 20
86.5772834863184926
 30
0.0
 40
0.3792784920105831
 50
225.6766498707285109
 51
237.8634530348579119
  0
ARC
  5
169F2
  8
0
 10
286.5775730835055128
 20
86.5558352737593282
 30
0.0
 40
0.349298101483539
 50
212.6056820080167995
 51
225.6766498707291078
  0
ARC
  5
169F3
  8
0
 10
286.5316419520627846
 20
86.5264546713858635
 30
0.0
 40
0.2947738992295283
 50
197.9580139331172859
 51
212.6056820080167995
  0
ARC
  5
169F4
  8
0
 10
286.5184384920337948
 20
86.5221753015129309
 30
0.0
 40
0.2808942607887316
 50
191.1054485626021915
 51
197.9580139331172859
  0
ARC
  5
169F5
  8
0
 10
286.5112213545983764
 20
86.5207586426954549
 30
0.0
 40
0.2735393987936503
 50
186.9219360575254996
 51
191.1054485626021915
  0
ARC
  5
169F6
  8
0
 10
286.5120769169225241
 20
86.5208625094826544
 30
0.0
 40
0.2744012428630556
 50
180.0291324633190015
 51
186.9219360575254996
  0
LINE
  5
169F7
  8
0
 10
286.2376757095296966
 20
86.5207229881450246
 30
0.0
 11
286.2376757095296966
 21
91.7544976928165283
 31
0.0
  0
ARC
  5
169F8
  8
0
 10
286.6431757094542263
 20
92.5687544841450176
 30
0.0
 40
1.120078740200001
 50
281.3273819533872029
 51
281.3305696103079754
  0
ARC
  5
169F9
  8
0
 10
286.6431757094532031
 20
92.7527602829169382
 30
0.0
 40
0.7300000000280953
 50
77.8033524849750648
 51
89.9999999999283489
  0
ARC
  5
169FA
  8
0
 10
286.7931757094597742
 20
93.4467343458703112
 30
0.0
 40
0.0199999999900797
 50
10.0222843163205297
 51
77.8033524849715405
  0
ARC
  5
169FB
  8
0
 10
286.7931757094542036
 20
93.4467343458450301
 30
0.0
 40
0.0200000000000223
 50
0.0000000000203555
 51
10.0242827186896903
  0
LINE
  5
169FC
  8
0
 10
286.8131757094540717
 20
93.4467343458450301
 30
0.0
 11
286.8131757094541854
 21
93.4426898568450355
 31
0.0
  0
ARC
  5
169FD
  8
0
 10
286.7934563386401123
 20
93.4426804912813935
 30
0.0
 40
0.0197193730380673
 50
352.2516175493257151
 51
0.0272121881554984
  0
ARC
  5
169FE
  8
0
 10
286.756661182288326
 20
93.2558002047681498
 30
0.0
 40
0.1967122974226081
 50
72.5478139726324969
 51
73.3038986977956881
  0
ARC
  5
169FF
  8
0
 10
286.7910930115481278
 20
93.3653226257538762
 30
0.0
 40
0.0819050173191678
 50
69.3700300239742802
 51
72.5478139726355948
  0
ARC
  5
16A00
  8
0
 10
286.812332508677116
 20
93.421739771154094
 30
0.0
 40
0.0216222624600561
 50
63.3902935256115896
 51
69.3700300239712391
  0
ARC
  5
16A01
  8
0
 10
286.819485427158213
 20
93.4360177772140048
 30
0.0
 40
0.0056527383643443
 50
53.7442149347893121
 51
63.3902935256046689
  0
ARC
  5
16A02
  8
0
 10
286.822057866496209
 20
93.4395253990429779
 30
0.0
 40
0.0013029274440167
 50
37.6054399725219497
 51
53.7442149347481219
  0
ARC
  5
16A03
  8
0
 10
286.8228121199762768
 20
93.4401063665099514
 30
0.0
 40
0.0003508657285812
 50
341.3374748480370044
 51
37.6054399727675417
  0
ARC
  5
16A04
  8
0
 10
286.8229741006110771
 20
93.4400516571468529
 30
0.0
 40
0.0001798954373803
 50
291.5556766943807929
 51
341.3374748480790117
  0
ARC
  5
16A05
  8
0
 10
286.8213937170181111
 20
93.4440522897017161
 30
0.0
 40
0.0044813688059208
 50
270.5965055883456785
 51
291.5556766943844877
  0
ARC
  5
16A06
  8
0
 10
286.8208172525668829
 20
93.4994210698239812
 30
0.0
 40
0.0598531497371068
 50
266.8371849515816052
 51
270.5965055883456785
  0
ARC
  5
16A07
  8
0
 10
286.8268666285832182
 20
93.5844877010587766
 30
0.0
 40
0.1451302198980902
 50
264.5155290566083863
 51
266.3055005877894814
  0
ARC
  5
16A08
  8
0
 10
286.8748877128870163
 20
94.0691639725874751
 30
0.0
 40
0.6321790997116449
 50
263.1743584011284725
 51
264.3815882565983202
  0
ARC
  5
16A09
  8
0
 10
287.647942118445485
 20
100.6738220682833997
 30
0.0
 40
7.2819231142855907
 50
263.2288831799272089
 51
263.3110871363475098
  0
ARC
  5
16A0A
  8
0
 10
286.5819706856750031
 20
91.7174007018690247
 30
0.0
 40
1.737711352073263
 50
83.1450060626620484
 51
84.4702500012351436
  0
ARC
  5
16A0B
  8
0
 10
286.6387513547546746
 20
92.2944316050579943
 30
0.0
 40
1.1578946062650159
 50
84.515390104068814
 51
87.2890278853494976
  0
ARC
  5
16A0C
  8
0
 10
286.6430561103493915
 20
92.3766550063757137
 30
0.0
 40
1.075559699618853
 50
87.3109016381538652
 51
89.993628876247044
  0
ARC
  5
16A0D
  8
0
 10
286.6516950142066094
 20
92.5917559464049447
 30
0.0
 40
0.8857699437718763
 50
61.2277692906810529
 51
80.2298496171205784
  0
ARC
  5
16A0E
  8
0
 10
286.6392275661244184
 20
92.5690516838336919
 30
0.0
 40
0.9116720826909993
 50
284.2243426943683744
 51
61.2277692906810529
  0
ARC
  5
16A0F
  8
0
 10
286.6431757094541126
 20
92.5687544841448471
 30
0.0
 40
0.8828974621001783
 50
83.2808466428483456
 51
89.9999999999967457
  0
ARC
  5
16A10
  8
0
 10
286.6431757094542263
 20
92.5687544841449892
 30
0.0
 40
0.8828974621000462
 50
73.1761377016182166
 51
83.2808466428483456
  0
ARC
  5
16A11
  8
0
 10
286.6431757094542263
 20
92.5687544841450176
 30
0.0
 40
0.8828974621000012
 50
59.9346041039381134
 51
73.1761377016182166
  0
ARC
  5
16A12
  8
0
 10
286.6431757094542263
 20
92.5687544841450887
 30
0.0
 40
0.8828974620999103
 50
46.9816973791141592
 51
59.9346041039381134
  0
ARC
  5
16A13
  8
0
 10
286.6431757094541126
 20
92.5687544841450176
 30
0.0
 40
0.8828974621000092
 50
284.4335273584770221
 51
46.9816973791141592
  0
LINE
  5
16A14
  8
0
 10
286.8632669129867736
 20
92.5256528809368461
 30
0.0
 11
286.8631757094540831
 21
89.3287544841450369
 31
0.0
  0
ARC
  5
16A15
  8
0
 10
286.8531549386935922
 20
89.3287632551404727
 30
0.0
 40
0.0100207745991384
 50
270.1187605108802927
 51
359.9498500759398212
  0
ARC
  5
16A16
  8
0
 10
286.6431757094542832
 20
92.5687544841450176
 30
0.0
 40
0.2242719020998042
 50
348.9196981883956141
 51
358.510322137553203
  0
ARC
  5
16A17
  8
0
 10
286.6431757094541126
 20
92.5687544841450176
 30
0.0
 40
0.2242719021001029
 50
358.5103221375524072
 51
13.8721757072981795
  0
ARC
  5
16A18
  8
0
 10
286.6431757094542263
 20
92.5687544841450602
 30
0.0
 40
0.2242719020999505
 50
13.8721757072973908
 51
51.4721758401357476
  0
ARC
  5
16A19
  8
0
 10
286.6431757094541126
 20
92.5687544841449039
 30
0.0
 40
0.2242719021001501
 50
51.4721758401357476
 51
69.4148587711162577
  0
ARC
  5
16A1A
  8
0
 10
286.6431757094542263
 20
92.568754484145245
 30
0.0
 40
0.2242719020997779
 50
69.4148587711162577
 51
86.9571711243589505
  0
ARC
  5
16A1B
  8
0
 10
286.6431757094541126
 20
92.568754484143966
 30
0.0
 40
0.2242719021010693
 50
86.9571711243589505
 51
89.9999999999934914
  0
ARC
  5
16A1C
  8
0
 10
286.6431839252240934
 20
86.4691517586909555
 30
0.0
 40
0.4901202027988678
 50
269.9990396121676213
 51
272.6594470565718211
  0
ARC
  5
16A1D
  8
0
 10
286.6433761380561123
 20
86.4650136526546049
 30
0.0
 40
0.485977635075719
 50
272.6594470565718211
 51
282.4488351986832981
  0
ARC
  5
16A1E
  8
0
 10
286.6553811192130752
 20
86.4195688830312747
 30
0.0
 40
0.439017662025662
 50
282.1974339803754788
 51
304.3519087847373044
  0
ARC
  5
16A1F
  8
0
 10
286.7105272974008017
 20
86.3417716618694726
 30
0.0
 40
0.3436755482142331
 50
304.0803257393941976
 51
333.3139976189989966
  0
ARC
  5
16A20
  8
0
 10
286.7781378549873921
 20
86.307893462069373
 30
0.0
 40
0.2680520830136484
 50
333.2938157919679156
 51
350.8443893792061203
  0
ARC
  5
16A21
  8
0
 10
286.7395431252746789
 20
86.3141137628266364
 30
0.0
 40
0.3071448611588292
 50
350.8443893792061203
 51
359.4877131435258093
  0
LINE
  5
16A22
  8
0
 10
287.0466757094541776
 20
86.3113675888450302
 30
0.0
 11
287.0466757094541776
 21
86.4877925186182352
 31
0.0
  0
ARC
  5
16A23
  8
0
 10
286.6431780052096769
 20
86.679748259343512
 30
0.0
 40
0.4924207023038262
 50
269.9997328765736029
 51
273.3284057311140032
  0
ARC
  5
16A24
  8
0
 10
286.6434379754779798
 20
86.6752781191919865
 30
0.0
 40
0.4879430089786125
 50
273.3284057311140032
 51
281.5188031187578872
  0
ARC
  5
16A25
  8
0
 10
286.6477227547179041
 20
86.6542530767456185
 30
0.0
 40
0.4664858017277541
 50
281.5188031187578872
 51
290.7525087564279147
  0
ARC
  5
16A26
  8
0
 10
286.6602533314651851
 20
86.6211835553360174
 30
0.0
 40
0.43112185681376
 50
290.7525087564279147
 51
302.1365469651416902
  0
ARC
  5
16A27
  8
0
 10
286.6878308297993954
 20
86.5772834863184926
 30
0.0
 40
0.3792784920105831
 50
302.1365469651420881
 51
314.3233501292709207
  0
ARC
  5
16A28
  8
0
 10
286.7087783354784278
 20
86.5558352737593282
 30
0.0
 40
0.349298101483539
 50
314.3233501292709207
 51
327.3943179919830868
  0
ARC
  5
16A29
  8
0
 10
286.7547094669212129
 20
86.5264546713858635
 30
0.0
 40
0.2947738992295283
 50
327.3943179919830868
 51
342.0419860668827141
  0
ARC
  5
16A2A
  8
0
 10
286.7679129269502027
 20
86.5221753015129309
 30
0.0
 40
0.2808942607887316
 50
342.0419860668827141
 51
348.8945514373976948
  0
ARC
  5
16A2B
  8
0
 10
286.7751300643856212
 20
86.5207586426954549
 30
0.0
 40
0.2735393987936503
 50
348.8945514373976948
 51
353.0780639424745004
  0
ARC
  5
16A2C
  8
0
 10
286.7742745020614166
 20
86.5208625094826544
 30
0.0
 40
0.2744012428630556
 50
353.0780639424745004
 51
359.9708675366809985
  0
LINE
  5
16A2D
  8
0
 10
287.0486757094540735
 20
86.5207229881450246
 30
0.0
 11
287.0486757094540735
 21
91.7544976928165283
 31
0.0
  0
ARC
  5
16A2E
  8
0
 10
286.2910885009249
 20
91.4225361487660138
 30
0.0
 40
0.2995624970055072
 50
63.8508910907371003
 51
82.1491088709311867
  0
ARC
  5
16A2F
  8
0
 10
286.4862677694094941
 20
92.0608181406465036
 30
0.0
 40
0.3747494764276996
 50
245.6923569271272925
 51
260.2971836417765985
  0
ARC
  5
16A30
  8
0
 10
286.9952629181345856
 20
91.4225361487660138
 30
0.0
 40
0.2995624970055072
 50
97.8508911290688275
 51
116.1491089092629068
  0
ARC
  5
16A31
  8
0
 10
286.8000836496501051
 20
92.0608181406465036
 30
0.0
 40
0.3747494764276996
 50
279.7028163464935915
 51
294.3076430728726791
  0
ENDSEC
  0
EOF
