  0
SECTION
  2
HEADER
  9
$ACADVER
  1
AC1009
  9
$INSBASE
 10
4052.0608048321719252
 20
56.7336608191228819
 30
0.0
  9
$EXTMIN
 10
4034.7088511440151706
 20
52.8565447086603584
 30
0.0
  9
$EXTMAX
 10
4057.847166000497964
 20
75.5882249173544949
 30
0.0
  9
$LIMMIN
 10
0.0
 20
0.0
  9
$LIMMAX
 10
11.6929133858000007
 20
8.2677165353999982
  9
$ORTHOMODE
 70
     0
  9
$REGENMODE
 70
     1
  9
$FILLMODE
 70
     1
  9
$QTEXTMODE
 70
     0
  9
$MIRRTEXT
 70
     0
  9
$DRAGMODE
 70
     2
  9
$LTSCALE
 40
0.6431102362
  9
$OSMODE
 70
  4095
  9
$ATTMODE
 70
     1
  9
$TEXTSIZE
 40
0.2
  9
$TRACEWID
 40
0.05
  9
$TEXTSTYLE
  7
STANDARD
  9
$CLAYER
  8
0
  9
$CELTYPE
  6
BYLAYER
  9
$CECOLOR
 62
   256
  9
$DIMSCALE
 40
1.0
  9
$DIMASZ
 40
0.1875
  9
$DIMEXO
 40
0.0625
  9
$DIMDLI
 40
0.4443307087
  9
$DIMRND
 40
0.0
  9
$DIMDLE
 40
0.0
  9
$DIMEXE
 40
0.125
  9
$DIMTP
 40
0.01
  9
$DIMTM
 40
0.01
  9
$DIMTXT
 40
2.0
  9
$DIMCEN
 40
0.1052362205
  9
$DIMTSZ
 40
0.0
  9
$DIMTOL
 70
     1
  9
$DIMLIM
 70
     0
  9
$DIMTIH
 70
     1
  9
$DIMTOH
 70
     1
  9
$DIMSE1
 70
     0
  9
$DIMSE2
 70
     0
  9
$DIMTAD
 70
     0
  9
$DIMZIN
 70
     0
  9
$DIMBLK
  1

  9
$DIMASO
 70
     1
  9
$DIMSHO
 70
     1
  9
$DIMPOST
  1
\X
  9
$DIMAPOST
  1

  9
$DIMALT
 70
     1
  9
$DIMALTD
 70
     2
  9
$DIMALTF
 40
25.3999999999999986
  9
$DIMLFAC
 40
1.0
  9
$DIMTOFL
 70
     0
  9
$DIMTVP
 40
0.0
  9
$DIMTIX
 70
     0
  9
$DIMSOXD
 70
     0
  9
$DIMSAH
 70
     0
  9
$DIMBLK1
  1

  9
$DIMBLK2
  1

  9
$DIMSTYLE
  2
STANDARD
  9
$DIMCLRD
 70
     0
  9
$DIMCLRE
 70
     0
  9
$DIMCLRT
 70
     0
  9
$DIMTFAC
 40
1.0
  9
$DIMGAP
 40
0.09
  9
$LUNITS
 70
     2
  9
$LUPREC
 70
     4
  9
$SKETCHINC
 40
0.1
  9
$FILLETRAD
 40
0.0
  9
$AUNITS
 70
     0
  9
$AUPREC
 70
     0
  9
$MENU
  1
.
  9
$ELEVATION
 40
0.0
  9
$PELEVATION
 40
0.0
  9
$THICKNESS
 40
0.0
  9
$LIMCHECK
 70
     0
  9
$BLIPMODE
 70
     0
  9
$CHAMFERA
 40
0.0
  9
$CHAMFERB
 40
0.0
  9
$SKPOLY
 70
     0
  9
$TDCREATE
 40
2458060.468368056230247
  9
$TDUPDATE
 40
2459104.6121412040665746
  9
$TDINDWG
 40
0.4197177083
  9
$TDUSRTIMER
 40
0.4197177083
  9
$USRTIMER
 70
     1
  9
$ANGBASE
 50
0.0
  9
$ANGDIR
 70
     0
  9
$PDMODE
 70
     0
  9
$PDSIZE
 40
0.3125
  9
$PLINEWID
 40
0.0
  9
$COORDS
 70
     1
  9
$SPLFRAME
 70
     0
  9
$SPLINETYPE
 70
     6
  9
$SPLINESEGS
 70
     8
  9
$ATTDIA
 70
     1
  9
$ATTREQ
 70
     1
  9
$HANDLING
 70
     1
  9
$HANDSEED
  5
9F5D
  9
$SURFTAB1
 70
     6
  9
$SURFTAB2
 70
     6
  9
$SURFTYPE
 70
     6
  9
$SURFU
 70
     6
  9
$SURFV
 70
     6
  9
$UCSNAME
  2

  9
$UCSORG
 10
0.0
 20
0.0
 30
0.0
  9
$UCSXDIR
 10
1.0
 20
0.0
 30
0.0
  9
$UCSYDIR
 10
0.0
 20
1.0
 30
0.0
  9
$PUCSNAME
  2

  9
$PUCSORG
 10
0.0
 20
0.0
 30
0.0
  9
$PUCSXDIR
 10
1.0
 20
0.0
 30
0.0
  9
$PUCSYDIR
 10
0.0
 20
1.0
 30
0.0
  9
$USERI1
 70
     0
  9
$USERI2
 70
     0
  9
$USERI3
 70
     0
  9
$USERI4
 70
     0
  9
$USERI5
 70
     0
  9
$USERR1
 40
0.0
  9
$USERR2
 40
0.0
  9
$USERR3
 40
0.0
  9
$USERR4
 40
0.0
  9
$USERR5
 40
0.0
  9
$WORLDVIEW
 70
     1
  9
$SHADEDGE
 70
     3
  9
$SHADEDIF
 70
    70
  9
$TILEMODE
 70
     1
  9
$MAXACTVP
 70
    64
  9
$PLIMCHECK
 70
     0
  9
$PEXTMIN
 10
1.0000000000000000E+20
 20
1.0000000000000000E+20
 30
1.0000000000000000E+20
  9
$PEXTMAX
 10
-1.0000000000000000E+20
 20
-1.0000000000000000E+20
 30
-1.0000000000000000E+20
  9
$PLIMMIN
 10
0.0
 20
0.0
  9
$PLIMMAX
 10
12.0
 20
9.0
  9
$UNITMODE
 70
     0
  9
$VISRETAIN
 70
     1
  9
$PLINEGEN
 70
     0
  9
$PSLTSCALE
 70
     1
  0
ENDSEC
  0
SECTION
  2
TABLES
  0
TABLE
  2
VPORT
 70
     1
  0
VPORT
  2
*ACTIVE
 70
     0
 10
0.0
 20
0.0
 11
1.0
 21
1.0
 12
262.9123990306896985
 22
-56.5956042604812026
 13
0.0
 23
0.0
 14
1.0
 24
1.0
 15
0.0
 25
0.0
 16
0.0
 26
0.0
 36
5.1040778033513332
 17
3792.35791015625
 27
120.1806564331053977
 37
0.0
 40
50.7097850523675788
 41
2.005224660397074
 42
50.0
 43
0.0
 44
0.0
 50
0.0
 51
0.0
 71
     0
 72
   100
 73
     1
 74
     1
 75
     0
 76
     0
 77
     0
 78
     0
  0
ENDTAB
  0
TABLE
  2
LTYPE
 70
     2
  0
LTYPE
  2
CONTINUOUS
 70
     0
  3
Solid line
 72
    65
 73
     0
 40
0.0
  0
LTYPE
  2
PHANTOM2
 70
     0
  3
___ _ _ ___ _ _ ___ _ _ ___ _ _
 72
    65
 73
     6
 40
1.25
 49
0.625
 49
-0.125
 49
0.125
 49
-0.125
 49
0.125
 49
-0.125
  0
ENDTAB
  0
TABLE
  2
LAYER
 70
     2
  0
LAYER
  2
0
 70
     0
 62
   255
  6
CONTINUOUS
  0
LAYER
  2
DEFPOINTS
 70
     0
 62
     7
  6
CONTINUOUS
  0
ENDTAB
  0
TABLE
  2
STYLE
 70
     1
  0
STYLE
  2
STANDARD
 70
     0
 40
0.0
 41
0.8
 50
0.0
 71
     0
 42
0.2
  3
txt
  4

  0
ENDTAB
  0
TABLE
  2
VIEW
 70
     0
  0
ENDTAB
  0
TABLE
  2
UCS
 70
     0
  0
ENDTAB
  0
TABLE
  2
APPID
 70
     9
  0
APPID
  2
ACAD
 70
     0
  0
APPID
  2
ACAD_MLEADERVER
 70
     0
  0
APPID
  2
ACAD_EXEMPT_FROM_CAD_STANDARDS
 70
     0
  0
APPID
  2
ACAD_NAV_VCDISPLAY
 70
     0
  0
APPID
  2
ACAECLAYERSTANDARD
 70
     0
  0
APPID
  2
ACCMTRANSPARENCY
 70
     0
  0
APPID
  2
ACAD_DSTYLE_DIMJAG
 70
     0
  0
APPID
  2
ACAD_DSTYLE_DIMTALN
 70
     0
  0
APPID
  2
ACDBATTR
 70
     0
  0
ENDTAB
  0
TABLE
  2
DIMSTYLE
 70
     1
  0
DIMSTYLE
  2
STANDARD
 70
     0
  3

  4

  5

  6

  7

 40
1.0
 41
0.1875
 42
0.0625
 43
0.38
 44
0.125
 45
0.0
 46
0.0
 47
0.01
 48
0.01
140
0.15625
141
0.09
142
0.0
143
25.3999999999999986
144
1.0
145
0.0
146
1.0
147
0.09
 71
     1
 72
     0
 73
     1
 74
     1
 75
     0
 76
     0
 77
     0
 78
     4
170
     0
171
     2
172
     0
173
     0
174
     0
175
     0
176
     0
177
     0
178
     0
  0
ENDTAB
  0
ENDSEC
  0
SECTION
  2
BLOCKS
  0
BLOCK
  8
0
  2
$MODEL_SPACE
 70
     0
 10
0.0
 20
0.0
 30
0.0
  3
$MODEL_SPACE
  1

  0
ENDBLK
  5
21
  8
0
  0
BLOCK
 67
     1
  8
0
  2
$PAPER_SPACE
 70
     0
 10
0.0
 20
0.0
 30
0.0
  3
$PAPER_SPACE
  1

  0
ENDBLK
  5
1D
 67
     1
  8
0
  0
BLOCK
  8
0
  2
_FILLED
 70
     0
 10
0.0
 20
0.0
 30
0.0
  3
_FILLED
  1

  0
SOLID
  5
69B4
  8
0
  6
BYBLOCK
 62
     0
 10
0.0
 20
0.0
 30
0.0
 11
-1.0
 21
0.1666666667
 31
0.0
 12
-1.0
 22
-0.1666666667
 32
0.0
 13
-1.0
 23
-0.1666666667
 33
0.0
  0
ENDBLK
  5
69B5
  8
0
  6
BYBLOCK
 62
     0
  0
BLOCK
  8
0
  2
A$CDFAF6206
 70
     0
 10
0.0
 20
0.0
 30
0.0
  3
A$CDFAF6206
  1

  0
LINE
  5
6A0E
  8
0
 10
7.4646650085734834
 20
10.9287685970688493
 30
0.0
 11
7.4646650085734896
 21
10.8905784766688498
 31
0.0
  0
ARC
  5
6A0F
  8
0
 10
7.7269027075262349
 20
10.8926811525838598
 30
0.0
 40
0.2622461286616791
 50
180.4593995232625048
 51
217.0214027758331099
  0
LINE
  5
6A10
  8
0
 10
9.767814609867095
 20
10.9287685970688493
 30
0.0
 11
9.767814609867095
 21
10.8905433757650094
 31
0.0
  0
ARC
  5
6A11
  8
0
 10
9.5068669568548287
 20
10.8922438613003703
 30
0.0
 40
0.2609531936261092
 50
322.8847083717149076
 51
359.6266329125650145
  0
LINE
  5
6A12
  8
0
 10
7.517522606271406
 20
10.7347792678688396
 30
0.0
 11
9.7149570120691777
 21
10.7347792678688396
 31
0.0
  0
LINE
  5
6A13
  8
0
 10
7.4646650085734834
 20
10.9287685970688493
 30
0.0
 11
9.7678146123202936
 21
10.9287685970688493
 31
0.0
  0
ARC
  5
6A14
  8
0
 10
4.0826771419203629
 20
8.527951346868889
 30
0.0
 40
4.0826771653999172
 50
13.3117747050523896
 51
32.7200330051415591
  0
ARC
  5
6A15
  8
0
 10
4.0826771460567306
 20
8.5279513475907933
 30
0.0
 40
4.0826771612084691
 50
359.6656501984817851
 51
13.3117747085593798
  0
ARC
  5
6A16
  8
0
 10
13.1498041284835097
 20
8.5279508235212234
 30
0.0
 40
4.0826788382043553
 50
147.2799733478981068
 51
166.6882233021349862
  0
ARC
  5
6A17
  8
0
 10
13.1498064934207992
 20
8.5279506557033251
 30
0.0
 40
4.0826811782395342
 50
166.688228652086309
 51
180.3343397625230011
  0
LINE
  5
6A18
  8
0
 10
8.1652847935202928
 20
8.504127000268852
 30
0.0
 11
9.0671948248202892
 21
8.5041270002687881
 31
0.0
  0
LINE
  5
6A19
  8
0
 10
8.1652847935202786
 20
8.5041270002667204
 30
0.0
 11
8.1652847935202928
 21
8.3607006934688481
 31
0.0
  0
ARC
  5
6A1A
  8
0
 10
5.6196779630382627
 20
8.3631022096452732
 30
0.0
 40
2.545607963272567
 50
342.0511668832173768
 51
359.945947387132378
  0
LINE
  5
6A1B
  8
0
 10
9.0671948248202892
 20
8.5041270002687881
 30
0.0
 11
9.0671948248202892
 21
8.2885990108688503
 31
0.0
  0
ARC
  5
6A1C
  8
0
 10
9.4521885297801163
 20
7.9614488056228501
 30
0.0
 40
0.5052201595850959
 50
139.6436242991769916
 51
174.6757930071850069
  0
ARC
  5
6A1D
  8
0
 10
9.9238413395551746
 20
8.1492417579399508
 30
0.0
 40
0.9848265662939324
 50
188.2263441834095943
 51
209.5593615864376034
  0
ARC
  5
6A1E
  8
0
 10
8.0788764238271256
 20
7.5665710856463297
 30
0.0
 40
0.0393715937169877
 50
162.1669117288323037
 51
227.2023190037006088
  0
ARC
  5
6A1F
  8
0
 10
8.7223682141740682
 20
8.2079667397440517
 30
0.0
 40
0.947895137885075
 50
225.0018610752970858
 51
261.4598823366255829
  0
ARC
  5
6A20
  8
0
 10
8.6645157662702701
 20
8.1695128573935332
 30
0.0
 40
0.9027466462812931
 50
264.7303071214498118
 51
281.8608311947915013
  0
ARC
  5
6A21
  8
0
 10
8.6645157662698935
 20
8.1695128573999671
 30
0.0
 40
0.9027466462876658
 50
299.1741886792128753
 51
299.1743179154552195
  0
ARC
  5
6A22
  8
0
 10
9.0843330931590316
 20
7.4150554710086141
 30
0.0
 40
0.0393703053609601
 50
251.9700352025496954
 51
252.4698971938937859
  0
ARC
  5
6A23
  8
0
 10
9.0843330931590316
 20
7.4150554710086141
 30
0.0
 40
0.0393703053609601
 50
297.2453716727138726
 51
6.8376113572703074
  0
LINE
  5
6A24
  8
0
 10
9.0671948248202892
 20
7.663402160468852
 30
0.0
 11
9.1234233799329516
 21
7.419742732911689
 31
0.0
  0
ARC
  5
6A25
  8
0
 10
8.8843741880892395
 20
9.8961379890094676
 30
0.0
 40
2.5255097382132701
 50
263.792800240752797
 51
274.9514951129821156
  0
ARC
  5
6A26
  8
0
 10
8.8258167405968848
 20
9.2763025889666508
 30
0.0
 40
1.9029970832759311
 50
246.0108363320686067
 51
263.5276935074397215
  0
ARC
  5
6A27
  8
0
 10
8.607491361665744
 20
8.3225444804829642
 30
0.0
 40
1.064510137163637
 50
283.1717405874071005
 51
297.7022170607311864
  0
LINE
  5
6A28
  8
0
 10
9.0671948248202892
 20
8.2885990108688503
 30
0.0
 11
26.2014378595979593
 21
8.2885990108689942
 31
0.0
  0
LINE
  5
6A29
  8
0
 10
26.2014378595979913
 20
7.6634021604689053
 30
0.0
 11
9.0671948248202892
 21
7.6634021604688618
 31
0.0
  0
LINE
  5
6A2A
  8
0
 10
27.8039676758446994
 20
10.9287685970690802
 30
0.0
 11
27.8039676758446888
 21
10.8905784766690807
 31
0.0
  0
ARC
  5
6A2B
  8
0
 10
27.5417299768919399
 20
10.8926811525840801
 30
0.0
 40
0.2622461286616791
 50
322.9785972241680838
 51
359.5406004767386889
  0
LINE
  5
6A2C
  8
0
 10
25.5008180745510913
 20
10.9287685970690305
 30
0.0
 11
25.5008180745510913
 21
10.8905433757651799
 31
0.0
  0
ARC
  5
6A2D
  8
0
 10
25.7617657275633505
 20
10.8922438613005497
 30
0.0
 40
0.2609531936261092
 50
180.3733670874362929
 51
217.1152916282862861
  0
LINE
  5
6A2E
  8
0
 10
27.7511100781467803
 20
10.7347792678690706
 30
0.0
 11
25.5536756723490015
 21
10.7347792678690208
 31
0.0
  0
LINE
  5
6A2F
  8
0
 10
27.8039676758446888
 20
10.9287685970686006
 30
0.0
 11
25.5008180745510806
 21
10.9287685970686006
 31
0.0
  0
ARC
  5
6A30
  8
0
 10
31.1859555424978616
 20
8.5279513468691981
 30
0.0
 40
4.0826771653999172
 50
147.2799669948597057
 51
166.6882252949490066
  0
ARC
  5
6A31
  8
0
 10
31.185955538361501
 20
8.5279513475911024
 30
0.0
 40
4.0826771612084691
 50
166.6882252914419098
 51
180.3343498015194086
  0
ARC
  5
6A32
  8
0
 10
22.1188285559344706
 20
8.5279508235212251
 30
0.0
 40
4.0826788382046102
 50
13.3117766978667795
 51
32.7200266521023977
  0
ARC
  5
6A33
  8
0
 10
22.1188261909974315
 20
8.5279506557034264
 30
0.0
 40
4.0826811782395342
 50
359.665660237478221
 51
13.31177134791497
  0
LINE
  5
6A34
  8
0
 10
27.1033478908979397
 20
8.5041270002690652
 30
0.0
 11
26.2014378595979416
 21
8.5041270002689835
 31
0.0
  0
LINE
  5
6A35
  8
0
 10
27.1033478908979504
 20
8.5041270002669354
 30
0.0
 11
27.1033478908979397
 21
8.3607006934690649
 31
0.0
  0
ARC
  5
6A36
  8
0
 10
29.6489547213799689
 20
8.3631022096455467
 30
0.0
 40
2.545607963272567
 50
180.0540526128687873
 51
197.9488331167837032
  0
LINE
  5
6A37
  8
0
 10
26.2014378595979416
 20
8.5041270002689835
 30
0.0
 11
26.2014378595979487
 21
8.2885990108690457
 31
0.0
  0
ARC
  5
6A38
  8
0
 10
25.8164441546381305
 20
7.9614488056230366
 30
0.0
 40
0.5052201595850959
 50
5.324206992816312
 51
40.3563757008241879
  0
ARC
  5
6A39
  8
0
 10
25.3447913448601803
 20
8.149241757940846
 30
0.0
 40
0.9848265662968968
 50
330.4406384136033807
 51
351.7736558165743759
  0
ARC
  5
6A3A
  8
0
 10
27.1897562605911212
 20
7.5665710856465473
 30
0.0
 40
0.0393715937169877
 50
312.7976809963004143
 51
17.8330882711689185
  0
ARC
  5
6A3B
  8
0
 10
26.5462644702441715
 20
8.2079667397442542
 30
0.0
 40
0.947895137885075
 50
278.5401176633754972
 51
314.9981389247041079
  0
ARC
  5
6A3C
  8
0
 10
26.6041169181479695
 20
8.1695128573937392
 30
0.0
 40
0.9027466462812931
 50
258.139168805210204
 51
275.2696928785518935
  0
ARC
  5
6A3D
  8
0
 10
26.6041169181483497
 20
8.1695128574001732
 30
0.0
 40
0.9027466462876658
 50
240.8256820845460027
 51
240.8258113207880058
  0
ARC
  5
6A3E
  8
0
 10
26.1842995912592293
 20
7.4150554710088086
 30
0.0
 40
0.0393703053609601
 50
287.5301028061073794
 51
288.0299647974517825
  0
ARC
  5
6A3F
  8
0
 10
26.1842995912592293
 20
7.4150554710088086
 30
0.0
 40
0.0393703053609601
 50
173.1623886427310026
 51
242.7546283272870085
  0
LINE
  5
6A40
  8
0
 10
26.2014378595981192
 20
7.6634021604690448
 30
0.0
 11
26.1452093044853093
 21
7.4197427329118826
 31
0.0
  0
ARC
  5
6A41
  8
0
 10
26.384258496328961
 20
9.8961379890096666
 30
0.0
 40
2.5255097382132701
 50
265.0485048870193054
 51
276.2071997592482262
  0
ARC
  5
6A42
  8
0
 10
26.4428159438213299
 20
9.2763025889668516
 30
0.0
 40
1.9029970832759311
 50
276.4723064925619838
 51
293.9891636679327007
  0
ARC
  5
6A43
  8
0
 10
26.6611413227524885
 20
8.3225444804831703
 30
0.0
 40
1.064510137163637
 50
242.2977829392704052
 51
256.8282594125943774
  0
LINE
  5
6A44
  8
0
 62
     4
 10
17.9031473532159602
 20
10.9287685970686006
 30
0.0
 11
24.6329820359843588
 21
20.0952817181593808
 31
0.0
  0
LINE
  5
6A45
  8
0
 62
     4
 10
17.9031473532159602
 20
-0.0000000300842942
 30
0.0
 11
22.3963351323106608
 21
4.993614497796286
 31
0.0
  0
ENDBLK
  5
6A49
  8
0
  0
ENDSEC
  0
SECTION
  2
ENTITIES
  0
ATTDEF
  5
3930
  8
DEFPOINTS
 10
4052.0620344842300256
 20
56.7371626670734415
 30
0.0
 40
0.001
  1
K-98423T-4
  3

  2
MODELNUMBER
 70
     0
1001
ACDBATTR
1070
     0
1070
     1
  0
ATTDEF
  5
3931
  8
DEFPOINTS
 10
4052.0620344842300256
 20
56.7354960004067834
 30
0.0
 40
0.001
  1
PURIST
  3

  2
TRADENAME
 70
     0
1001
ACDBATTR
1070
     0
1070
     1
  0
ATTDEF
  5
3932
  8
DEFPOINTS
 10
4052.0620344842300256
 20
56.7338293337401183
 30
0.0
 40
0.001
  1
BATHROOM SINK FAUCET
  3

  2
PRODUCT
 70
     0
1001
ACDBATTR
1070
     0
1070
     1
  0
LINE
  5
9E88
  8
0
 10
4047.2104042252722138
 20
67.4458655435229559
 30
0.0
 11
4051.1507654615720639
 21
67.4458655435229559
 31
0.0
  0
LINE
  5
9E89
  8
0
 10
4051.1507654615720639
 20
67.4458655435229559
 30
0.0
 11
4051.1507654615720639
 21
68.8872041262229686
 31
0.0
  0
LINE
  5
9E8A
  8
0
 10
4051.1507654615720639
 20
68.8872041262229686
 30
0.0
 11
4052.9708442016722074
 21
68.8872041262229686
 31
0.0
  0
LINE
  5
9E8B
  8
0
 10
4052.9708442016722074
 20
68.8872041262229686
 30
0.0
 11
4052.9708442017717971
 21
57.0828734175229613
 31
0.0
  0
LINE
  5
9E8C
  8
0
 10
4051.1507654615720639
 20
57.0828734175229613
 30
0.0
 11
4051.1507654615720639
 21
66.6277553073229569
 31
0.0
  0
ARC
  5
9E8D
  8
0
 10
4050.3377079000238155
 20
67.0368104254229564
 30
0.0
 40
0.9101586059769132
 50
333.2927020800270839
 51
26.7072979199728913
  0
LINE
  5
9E8E
  8
0
 10
4047.2104042252722138
 20
66.6313104254229529
 30
0.0
 11
4051.1525443486648328
 21
66.6313104254229529
 31
0.0
  0
ARC
  5
9E8F
  8
0
 10
4047.221169341096811
 20
65.6885351635368409
 30
0.0
 40
1.7573633523380661
 50
90.3509800972451416
 51
144.8734767604258025
  0
ARC
  5
9E90
  8
0
 10
4047.2104042252472027
 20
65.7008104255250629
 30
0.0
 40
0.9304999998979024
 50
89.999999998462755
 51
145.0000000051211089
  0
LINE
  5
9E91
  8
0
 10
4045.7838509401722149
 20
66.6996937893229642
 30
0.0
 11
4045.472890086460211
 21
66.2521087723311126
 31
0.0
  0
LINE
  5
9E92
  8
0
 10
4046.1339457861831761
 20
65.7892325881148139
 30
0.0
 11
4046.4481832480719277
 21
66.2345232994229605
 31
0.0
  0
LINE
  5
9E93
  8
0
 10
4045.4753458425088866
 20
66.2381814874800767
 30
0.0
 11
4046.1257542657667727
 21
65.7862191959805642
 31
0.0
  0
ARC
  5
9E94
  8
0
 10
4046.1244649918448886
 20
65.8023644171863111
 30
0.0
 40
0.0161966167771523
 50
274.5656565228850923
 51
305.8281766936506187
  0
ARC
  5
9E95
  8
0
 10
4045.4810816068497843
 20
66.2463730079088577
 30
0.0
 40
0.0099999999757527
 50
144.9999995488610125
 51
235.0000000575537911
  0
ARC
  5
9E96
  8
0
 10
4050.9708440662438989
 20
57.0828734737227776
 30
0.0
 40
0.1799213953268007
 50
270.0537691031730105
 51
359.9999821032262162
  0
ARC
  5
9E97
  8
0
 10
4050.9706510847590835
 20
56.8730293518406
 30
0.0
 40
0.0299249933269477
 50
89.3072098537022754
 51
179.9970399905074032
  0
ARC
  5
9E98
  8
0
 10
4050.970647351271964
 20
56.7635820789229513
 30
0.0
 40
0.0299212597999983
 50
179.9999999999922125
 51
270.0
  0
LINE
  5
9E99
  8
0
 10
4050.9407260914717881
 20
56.7635820789229513
 30
0.0
 11
4050.9407260914717881
 21
56.8730308978229573
 31
0.0
  0
LINE
  5
9E9A
  8
0
 10
4050.970647351271964
 20
56.7336608191229601
 30
0.0
 11
4053.1509623119718526
 21
56.7336608191229601
 31
0.0
  0
ARC
  5
9E9B
  8
0
 10
4053.1507643405680028
 20
57.0828721876064122
 30
0.0
 40
0.1799201389003544
 50
179.999608331629986
 51
270.0630442387422931
  0
ARC
  5
9E9C
  8
0
 10
4053.1509704220197818
 20
56.8730390078714123
 30
0.0
 40
0.0299131508509479
 50
359.9844659776554749
 51
90.0155340223424361
  0
ARC
  5
9E9D
  8
0
 10
4053.1509623119718526
 20
56.7635820789229513
 30
0.0
 40
0.0299212597999983
 50
270.0
 51
0.0000000000077351
  0
LINE
  5
9E9E
  8
0
 10
4053.1808835717720285
 20
56.7635820789229513
 30
0.0
 11
4053.1808835717720285
 21
56.8730308978229573
 31
0.0
  0
LINE
  5
9E9F
  8
0
 10
4050.971012913073082
 20
56.9029521576229627
 30
0.0
 11
4053.1509623119718526
 21
56.9029521576229627
 31
0.0
  0
ARC
  5
9EA0
  8
0
 10
4051.2078890940219935
 20
69.7426659699982849
 30
0.0
 40
0.0300000001246877
 50
90.0000000962214841
 51
177.9999789419445051
  0
ARC
  5
9EA1
  8
0
 10
4052.9137205693718897
 20
69.7426659701229568
 30
0.0
 40
0.0300000000000047
 50
2.0000208281101681
 51
90.0
  0
ARC
  5
9EA2
  8
0
 10
4053.8235627832032151
 20
69.5780840779656842
 30
0.0
 40
0.8919186456451139
 50
170.3498563099225009
 51
193.6501437164525043
  0
ARC
  5
9EA3
  8
0
 10
4052.2448106307169837
 20
69.547597826986177
 30
0.0
 40
0.7299999996556894
 50
347.8033527537348846
 51
12.1966475239471208
  0
ARC
  5
9EA4
  8
0
 10
4052.9387846931058448
 20
69.3975978271438692
 30
0.0
 40
0.0200000002036608
 50
315.7032383812618832
 51
347.8033621762178882
  0
ARC
  5
9EA5
  8
0
 10
4052.9387846932718276
 20
69.6975978270229461
 30
0.0
 40
0.0200000000000068
 50
12.1966475242064298
 51
79.1017086259608533
  0
ARC
  5
9EA6
  8
0
 10
4052.9368606112711859
 20
69.2805978270229446
 30
0.0
 40
0.0229999999999908
 50
269.9999999999739089
 51
1.9998806457246581
  0
LINE
  5
9EA7
  8
0
 10
4052.9568365238719707
 20
69.3675978270229621
 30
0.0
 11
4052.9598466019651823
 21
69.2814004675644242
 31
0.0
  0
LINE
  5
9EA8
  8
0
 10
4052.9437022938041082
 20
69.7437129658827644
 30
0.0
 11
4052.944265046772216
 21
69.7275978270229757
 31
0.0
  0
LINE
  5
9EA9
  8
0
 10
4051.2078890940219935
 20
69.7726659701229721
 30
0.0
 11
4052.9137205693718897
 21
69.7726659701229437
 31
0.0
  0
LINE
  5
9EAA
  8
0
 10
4051.1516360395880838
 20
68.9914005028229553
 30
0.0
 11
4051.1716592010729983
 21
69.5649068252499347
 31
0.0
  0
LINE
  5
9EAB
  8
0
 10
4051.1733580875547887
 20
69.6136597072728449
 30
0.0
 11
4051.1779073694719955
 21
69.7437129659229527
 31
0.0
  0
ARC
  5
9EAC
  8
0
 10
4051.1746220287491269
 20
68.9905978267315021
 30
0.0
 40
0.0229999997085456
 50
178.000030715615793
 51
270.0000003081797786
  0
ARC
  5
9EAD
  8
0
 10
4052.0352980442548869
 20
69.0875978271817957
 30
0.0
 40
0.1200000001588339
 50
270.0000000079729148
 51
293.9999999779299173
  0
ARC
  5
9EAE
  8
0
 10
4052.7381964456149035
 20
69.1359698951272037
 30
0.0
 40
0.1217035553599648
 50
89.598108600803883
 51
113.9178320475755015
  0
ARC
  5
9EAF
  8
0
 10
4052.8358048316717941
 20
68.9372434963229637
 30
0.0
 40
0.0599999999999881
 50
179.9999999999947136
 51
236.5107643569305935
  0
ARC
  5
9EB0
  8
0
 10
4051.2858048316720669
 20
68.9372434963229495
 30
0.0
 40
0.0599999999999826
 50
303.4892356430681843
 51
0.0000000000085493
  0
LINE
  5
9EB1
  8
0
 10
4051.1746220288719087
 20
68.9675978270229564
 30
0.0
 11
4052.0352980442721673
 21
68.9675978270229564
 31
0.0
  0
LINE
  5
9EB2
  8
0
 10
4051.3458048316711029
 20
68.9372434963229637
 30
0.0
 11
4051.3458048316711029
 21
68.9675978270229564
 31
0.0
  0
LINE
  5
9EB3
  8
0
 10
4052.0841064414471475
 20
68.9779723721007656
 30
0.0
 11
4052.6888546467721426
 21
69.2472225008229572
 31
0.0
  0
LINE
  5
9EB4
  8
0
 10
4052.599059959070928
 20
69.2072434963229597
 30
0.0
 11
4052.765775747472162
 21
69.2072201318229645
 31
0.0
  0
LINE
  5
9EB5
  8
0
 10
4052.765775747472162
 20
69.2072201318229645
 30
0.0
 11
4052.7757576357271319
 21
69.1972375009229665
 31
0.0
  0
LINE
  5
9EB6
  8
0
 10
4052.7757576357271319
 20
69.1972375009229665
 30
0.0
 11
4052.7758048316718487
 21
68.9372434963229637
 31
0.0
  0
LINE
  5
9EB7
  8
0
 10
4052.7758048316718487
 20
69.1972375009229665
 30
0.0
 11
4052.5765860319847889
 21
69.1972375009229665
 31
0.0
  0
LINE
  5
9EB8
  8
0
 10
4052.7390501072900406
 20
69.2576704565433374
 30
0.0
 11
4052.9368606112711859
 21
69.2575978270229626
 31
0.0
  0
ARC
  5
9EB9
  8
0
 10
4051.2186502519089117
 20
69.5875981756749553
 30
0.0
 40
0.0541868465740822
 50
146.443372819096794
 51
209.5634911921912078
  0
ARC
  5
9EBA
  8
0
 10
4051.2200798376670718
 20
69.5882278247078716
 30
0.0
 40
0.0531949488605716
 50
114.3752141203233066
 51
151.4393799886294119
  0
ARC
  5
9EBB
  8
0
 10
4051.2208779198440425
 20
69.5875977472733638
 30
0.0
 40
0.0541974189390599
 50
151.2577046338909952
 51
204.7507506539122915
  0
ARC
  5
9EBC
  8
0
 10
4051.2183564204487993
 20
69.5858151880449469
 30
0.0
 40
0.0511643423897915
 50
204.1201246814160868
 51
247.9737303477066916
  0
ARC
  5
9EBD
  8
0
 10
4051.0834531449709175
 20
69.5867790804019251
 30
0.0
 40
0.130105974679635
 50
342.3246986035421173
 51
20.1862554499667901
  0
ARC
  5
9EBE
  8
0
 10
4051.1990370718449412
 20
69.6317479164171829
 30
0.0
 40
0.0050641098612478
 50
52.0231230896233683
 51
88.5165537688896507
  0
ARC
  5
9EBF
  8
0
 10
4051.1936916617069073
 20
69.6251658338793646
 30
0.0
 40
0.0135427444611287
 50
28.7278279602606403
 51
51.3321112001401403
  0
ARC
  5
9EC0
  8
0
 10
4051.1991769683659186
 20
69.6324703306840007
 30
0.0
 40
0.0043400072529032
 50
90.1161254158370753
 51
104.0176654093751978
  0
ARC
  5
9EC1
  8
0
 10
4051.1876178052889372
 20
69.5545829980256372
 30
0.0
 40
0.0211046383093511
 50
317.9157796657657968
 51
339.7432681325327053
  0
ARC
  5
9EC2
  8
0
 10
4051.1986552982671128
 20
69.5445585307356851
 30
0.0
 40
0.0061945701911305
 50
274.7491893031252062
 51
318.3060113926650274
  0
ARC
  5
9EC3
  8
0
 10
4051.1326475505370581
 20
69.5878459718900331
 30
0.0
 40
0.0922042648454122
 50
327.5593449148299783
 51
32.0666315482546267
  0
LINE
  5
9EC4
  8
0
 10
4051.1991681721729037
 20
69.6368103290229641
 30
0.0
 11
4051.2107843267408498
 21
69.6367976895323864
 31
0.0
  0
LINE
  5
9EC5
  8
0
 10
4051.1991693337181459
 20
69.5383853251888127
 30
0.0
 11
4051.210463110171986
 21
69.5383852285229693
 31
0.0
  0
ARC
  5
9EC6
  8
0
 10
4051.4358048316721579
 20
70.3875978270229581
 30
0.0
 40
0.4050000000000012
 50
0.0000000000004071
 51
90.0
  0
ARC
  5
9EC7
  8
0
 10
4051.4358048316721579
 20
70.3875978270229723
 30
0.0
 40
0.844999999999997
 50
359.9999999999996021
 51
90.0
  0
ARC
  5
9EC8
  8
0
 10
4051.860810098121874
 20
70.3676000085013413
 30
0.0
 40
0.0200052665694543
 50
180.0062478299772124
 51
268.993751988380609
  0
ARC
  5
9EC9
  8
0
 10
4051.8604587768718375
 20
70.32759782702297
 30
0.0
 40
0.0199999999999923
 50
89.9999999999739515
 51
178.9999255235206022
  0
ARC
  5
9ECA
  8
0
 10
4052.2607995652251702
 20
70.3676000085000624
 30
0.0
 40
0.0200052665663704
 50
271.0062477164738084
 51
359.9937521736648023
  0
ARC
  5
9ECB
  8
0
 10
4052.2611508864069947
 20
70.3275978271097557
 30
0.0
 40
0.0199999999132086
 50
1.000074169158949
 51
90.000000101719138
  0
LINE
  5
9ECC
  8
0
 10
4051.8408048316719032
 20
70.3875978270229581
 30
0.0
 11
4051.8408048316719032
 21
70.3675978270268558
 31
0.0
  0
LINE
  5
9ECD
  8
0
 10
4052.2808048316719578
 20
70.3875978270229723
 30
0.0
 11
4052.2808048316719578
 21
70.3675978270229621
 31
0.0
  0
LINE
  5
9ECE
  8
0
 10
4051.8608053910870694
 20
70.347597827030782
 30
0.0
 11
4052.2611508868590136
 21
70.3475978270229518
 31
0.0
  0
LINE
  5
9ECF
  8
0
 10
4051.8365329294720141
 20
70.1028607175229581
 30
0.0
 11
4051.8404618234230838
 21
70.3279469011229565
 31
0.0
  0
LINE
  5
9ED0
  8
0
 10
4052.2811478397720748
 20
70.3279469011229565
 30
0.0
 11
4052.2850767339691629
 21
70.1028607077493291
 31
0.0
  0
ARC
  5
9ED1
  8
0
 10
4051.4865862359310995
 20
70.108969050182381
 30
0.0
 40
0.3500000000683218
 50
286.0820589212440268
 51
359.0000015709326817
  0
ARC
  5
9ED2
  8
0
 10
4052.6350234272717898
 20
70.1089690501229654
 30
0.0
 40
0.3499999999999984
 50
181.0000000197429983
 51
253.917941082443491
  0
ARC
  5
9ED3
  8
0
 10
4049.4667118251218199
 20
71.4303960907980837
 30
0.0
 40
0.0101009442532891
 50
16.642150638873531
 51
89.5090360445567654
  0
ARC
  5
9ED4
  8
0
 10
4049.0600392473320426
 20
71.3254322742999705
 30
0.0
 40
0.0099998255398558
 50
104.5136823242615947
 51
195.2837898572365134
  0
ARC
  5
9ED5
  8
0
 10
4049.7449294660518717
 20
71.5126029032802535
 30
0.0
 40
0.7200050762593391
 50
195.2848739125201121
 51
269.9998634317296933
  0
ARC
  5
9ED6
  8
0
 10
4049.7449316357128737
 20
71.5126095165437903
 30
0.0
 40
0.2800116895477959
 50
196.4558225548593953
 51
269.9992048819685238
  0
LINE
  5
9ED7
  8
0
 10
4049.0575331791319513
 20
71.335112983623489
 30
0.0
 11
4049.4667983784229364
 21
71.4404966642141943
 31
0.0
  0
LINE
  5
9ED8
  8
0
 10
4049.744927749872204
 20
70.7925978270229592
 30
0.0
 11
4051.4358048316721579
 21
70.7925978270229592
 31
0.0
  0
LINE
  5
9ED9
  8
0
 10
4049.744927749872204
 20
71.2325978270229712
 30
0.0
 11
4051.4358048316721579
 21
71.2325978270229712
 31
0.0
  0
ENDSEC
  0
EOF
