  0
SECTION
  2
HEADER
  9
$ACADVER
  1
AC1009
  9
$INSBASE
 10
4058.8444302552547924
 20
176.9138974092957142
 30
0.0
  9
$EXTMIN
 10
4050.4025538109708577
 20
175.2298545663344953
 30
-0.0015258207003583
  9
$EXTMAX
 10
4058.8850016407168368
 20
178.1465275346928081
 30
0.0000000349246037
  9
$LIMMIN
 10
0.0
 20
0.0
  9
$LIMMAX
 10
11.6929133858000007
 20
8.2677165353999982
  9
$ORTHOMODE
 70
     0
  9
$REGENMODE
 70
     1
  9
$FILLMODE
 70
     1
  9
$QTEXTMODE
 70
     0
  9
$MIRRTEXT
 70
     0
  9
$DRAGMODE
 70
     2
  9
$LTSCALE
 40
0.6431102362
  9
$OSMODE
 70
  4095
  9
$ATTMODE
 70
     1
  9
$TEXTSIZE
 40
0.2
  9
$TRACEWID
 40
0.05
  9
$TEXTSTYLE
  7
STANDARD
  9
$CLAYER
  8
0
  9
$CELTYPE
  6
BYLAYER
  9
$CECOLOR
 62
   256
  9
$DIMSCALE
 40
1.0
  9
$DIMASZ
 40
0.1875
  9
$DIMEXO
 40
0.0625
  9
$DIMDLI
 40
0.4443307087
  9
$DIMRND
 40
0.0
  9
$DIMDLE
 40
0.0
  9
$DIMEXE
 40
0.125
  9
$DIMTP
 40
0.01
  9
$DIMTM
 40
0.01
  9
$DIMTXT
 40
2.0
  9
$DIMCEN
 40
0.1052362205
  9
$DIMTSZ
 40
0.0
  9
$DIMTOL
 70
     1
  9
$DIMLIM
 70
     0
  9
$DIMTIH
 70
     1
  9
$DIMTOH
 70
     1
  9
$DIMSE1
 70
     0
  9
$DIMSE2
 70
     0
  9
$DIMTAD
 70
     0
  9
$DIMZIN
 70
     0
  9
$DIMBLK
  1

  9
$DIMASO
 70
     1
  9
$DIMSHO
 70
     1
  9
$DIMPOST
  1
\X
  9
$DIMAPOST
  1

  9
$DIMALT
 70
     1
  9
$DIMALTD
 70
     2
  9
$DIMALTF
 40
25.3999999999999986
  9
$DIMLFAC
 40
1.0
  9
$DIMTOFL
 70
     0
  9
$DIMTVP
 40
0.0
  9
$DIMTIX
 70
     0
  9
$DIMSOXD
 70
     0
  9
$DIMSAH
 70
     0
  9
$DIMBLK1
  1

  9
$DIMBLK2
  1

  9
$DIMSTYLE
  2
STANDARD
  9
$DIMCLRD
 70
     0
  9
$DIMCLRE
 70
     0
  9
$DIMCLRT
 70
     0
  9
$DIMTFAC
 40
1.0
  9
$DIMGAP
 40
0.09
  9
$LUNITS
 70
     2
  9
$LUPREC
 70
     4
  9
$SKETCHINC
 40
0.1
  9
$FILLETRAD
 40
0.0
  9
$AUNITS
 70
     0
  9
$AUPREC
 70
     0
  9
$MENU
  1
.
  9
$ELEVATION
 40
0.0
  9
$PELEVATION
 40
0.0
  9
$THICKNESS
 40
0.0
  9
$LIMCHECK
 70
     0
  9
$BLIPMODE
 70
     0
  9
$CHAMFERA
 40
0.0
  9
$CHAMFERB
 40
0.0
  9
$SKPOLY
 70
     0
  9
$TDCREATE
 40
2458060.468368056230247
  9
$TDUPDATE
 40
2459163.7221296299248934
  9
$TDINDWG
 40
0.4400302083
  9
$TDUSRTIMER
 40
0.4400302083
  9
$USRTIMER
 70
     1
  9
$ANGBASE
 50
0.0
  9
$ANGDIR
 70
     0
  9
$PDMODE
 70
     0
  9
$PDSIZE
 40
0.3125
  9
$PLINEWID
 40
0.0
  9
$COORDS
 70
     1
  9
$SPLFRAME
 70
     0
  9
$SPLINETYPE
 70
     6
  9
$SPLINESEGS
 70
     8
  9
$ATTDIA
 70
     1
  9
$ATTREQ
 70
     1
  9
$HANDLING
 70
     1
  9
$HANDSEED
  5
18CBE
  9
$SURFTAB1
 70
     6
  9
$SURFTAB2
 70
     6
  9
$SURFTYPE
 70
     6
  9
$SURFU
 70
     6
  9
$SURFV
 70
     6
  9
$UCSNAME
  2

  9
$UCSORG
 10
0.0
 20
0.0
 30
0.0
  9
$UCSXDIR
 10
1.0
 20
0.0
 30
0.0
  9
$UCSYDIR
 10
0.0
 20
1.0
 30
0.0
  9
$PUCSNAME
  2

  9
$PUCSORG
 10
0.0
 20
0.0
 30
0.0
  9
$PUCSXDIR
 10
1.0
 20
0.0
 30
0.0
  9
$PUCSYDIR
 10
0.0
 20
1.0
 30
0.0
  9
$USERI1
 70
     0
  9
$USERI2
 70
     0
  9
$USERI3
 70
     0
  9
$USERI4
 70
     0
  9
$USERI5
 70
     0
  9
$USERR1
 40
0.0
  9
$USERR2
 40
0.0
  9
$USERR3
 40
0.0
  9
$USERR4
 40
0.0
  9
$USERR5
 40
0.0
  9
$WORLDVIEW
 70
     1
  9
$SHADEDGE
 70
     3
  9
$SHADEDIF
 70
    70
  9
$TILEMODE
 70
     1
  9
$MAXACTVP
 70
    64
  9
$PLIMCHECK
 70
     0
  9
$PEXTMIN
 10
1.0000000000000000E+20
 20
1.0000000000000000E+20
 30
1.0000000000000000E+20
  9
$PEXTMAX
 10
-1.0000000000000000E+20
 20
-1.0000000000000000E+20
 30
-1.0000000000000000E+20
  9
$PLIMMIN
 10
0.0
 20
0.0
  9
$PLIMMAX
 10
12.0
 20
9.0
  9
$UNITMODE
 70
     0
  9
$VISRETAIN
 70
     1
  9
$PLINEGEN
 70
     0
  9
$PSLTSCALE
 70
     1
  0
ENDSEC
  0
SECTION
  2
TABLES
  0
TABLE
  2
VPORT
 70
     1
  0
VPORT
  2
*ACTIVE
 70
     0
 10
0.0
 20
0.0
 11
1.0
 21
1.0
 12
143.2784212760919047
 22
44.1085859275885497
 13
0.0
 23
0.0
 14
1.0
 24
1.0
 15
0.0
 25
0.0
 16
0.0
 26
0.0
 36
60.4960186965801583
 17
3911.3653564453120453
 27
132.5796051025390057
 37
0.0
 40
5.030570266458211
 41
1.861419068736142
 42
50.0
 43
0.0
 44
0.0
 50
0.0
 51
0.0
 71
     0
 72
   100
 73
     1
 74
     1
 75
     0
 76
     0
 77
     0
 78
     0
  0
ENDTAB
  0
TABLE
  2
LTYPE
 70
     2
  0
LTYPE
  2
CONTINUOUS
 70
     0
  3
Solid line
 72
    65
 73
     0
 40
0.0
  0
LTYPE
  2
PHANTOM2
 70
     0
  3
___ _ _ ___ _ _ ___ _ _ ___ _ _
 72
    65
 73
     6
 40
1.25
 49
0.625
 49
-0.125
 49
0.125
 49
-0.125
 49
0.125
 49
-0.125
  0
ENDTAB
  0
TABLE
  2
LAYER
 70
     2
  0
LAYER
  2
0
 70
     0
 62
   255
  6
CONTINUOUS
  0
LAYER
  2
DEFPOINTS
 70
     0
 62
     7
  6
CONTINUOUS
  0
ENDTAB
  0
TABLE
  2
STYLE
 70
     1
  0
STYLE
  2
STANDARD
 70
     0
 40
0.0
 41
0.8
 50
0.0
 71
     0
 42
0.2
  3
txt
  4

  0
ENDTAB
  0
TABLE
  2
VIEW
 70
     0
  0
ENDTAB
  0
TABLE
  2
UCS
 70
     0
  0
ENDTAB
  0
TABLE
  2
APPID
 70
    11
  0
APPID
  2
ACAD
 70
     0
  0
APPID
  2
ACAD_MLEADERVER
 70
     0
  0
APPID
  2
ACAD_EXEMPT_FROM_CAD_STANDARDS
 70
     0
  0
APPID
  2
ACAD_NAV_VCDISPLAY
 70
     0
  0
APPID
  2
ACAECLAYERSTANDARD
 70
     0
  0
APPID
  2
ACCMTRANSPARENCY
 70
     0
  0
APPID
  2
ACAD_DSTYLE_DIMJAG
 70
     0
  0
APPID
  2
ACAD_DSTYLE_DIMTALN
 70
     0
  0
APPID
  2
ACDBATTR
 70
     0
  0
APPID
  2
ACADANNOTATIVE
 70
     0
  0
APPID
  2
DCO15
 70
     0
  0
ENDTAB
  0
TABLE
  2
DIMSTYLE
 70
     1
  0
DIMSTYLE
  2
STANDARD
 70
     0
  3

  4

  5

  6

  7

 40
1.0
 41
0.1875
 42
0.0625
 43
0.38
 44
0.125
 45
0.0
 46
0.0
 47
0.01
 48
0.01
140
0.15625
141
0.09
142
0.0
143
25.3999999999999986
144
1.0
145
0.0
146
1.0
147
0.09
 71
     1
 72
     0
 73
     1
 74
     1
 75
     0
 76
     0
 77
     0
 78
     4
170
     0
171
     2
172
     0
173
     0
174
     0
175
     0
176
     0
177
     0
178
     0
  0
ENDTAB
  0
ENDSEC
  0
SECTION
  2
BLOCKS
  0
BLOCK
  8
0
  2
$MODEL_SPACE
 70
     0
 10
0.0
 20
0.0
 30
0.0
  3
$MODEL_SPACE
  1

  0
ENDBLK
  5
21
  8
0
  0
BLOCK
 67
     1
  8
0
  2
$PAPER_SPACE
 70
     0
 10
0.0
 20
0.0
 30
0.0
  3
$PAPER_SPACE
  1

  0
ENDBLK
  5
1D
 67
     1
  8
0
  0
ENDSEC
  0
SECTION
  2
ENTITIES
  0
LINE
  5
18C1C
  8
0
  6
CONTINUOUS
 62
     7
 10
4050.4436785874559064
 20
175.5497895210457102
 30
0.0
 11
4050.9243872488568741
 21
176.3824013462457003
 31
0.0
  0
LINE
  5
18C1D
  8
0
  6
CONTINUOUS
 62
     7
 10
4050.7669876014560941
 20
175.3381236166457029
 30
0.0
 11
4050.7976735409561115
 21
175.3204070812045927
 31
0.0
  0
LINE
  5
18C1E
  8
0
  6
CONTINUOUS
 62
     7
 10
4050.8249499316561923
 20
175.3046590497457089
 30
0.0
 11
4050.8556193226559117
 21
175.2869520685457019
 31
0.0
  0
LINE
  5
18C1F
  8
0
  6
CONTINUOUS
 62
     7
 10
4050.4472811996561177
 20
175.5363443891457109
 30
0.0
 11
4050.975761268955921
 21
175.2312262789457122
 31
0.0
  0
LINE
  5
18C20
  8
0
  6
CONTINUOUS
 62
     7
 10
4051.46991506225595
 20
176.0674407163456863
 30
0.0
 11
4050.9892064008549823
 21
175.2348288911456962
 31
0.0
  0
LINE
  5
18C21
  8
0
  6
CONTINUOUS
 62
     7
 10
4058.8444302552547924
 20
175.6934249683457097
 30
0.0
 11
4058.6082097828561928
 21
175.6934249683457097
 31
0.0
  0
LINE
  5
18C22
  8
0
  6
CONTINUOUS
 62
     7
 10
4058.5688397040557902
 20
176.5989367793457063
 30
0.0
 11
4052.3904932473560621
 21
176.5989367793457063
 31
0.0
  0
LINE
  5
18C23
  8
0
  6
CONTINUOUS
 62
     7
 10
4052.3904932473560621
 20
177.228858039145706
 30
0.0
 11
4058.5688397040557902
 21
177.228858039145706
 31
0.0
  0
LINE
  5
18C24
  8
0
  6
CONTINUOUS
 62
     7
 10
4058.6082097828561928
 20
178.1343698502456903
 30
0.0
 11
4058.8444302552547924
 21
178.1343698502456903
 31
0.0
  0
LINE
  5
18C25
  8
0
  6
CONTINUOUS
 62
     7
 10
4058.5688397040557902
 20
175.7327950470456983
 30
0.0
 11
4058.5688397040557902
 21
178.094999771445714
 31
0.0
  0
LINE
  5
18C26
  8
0
  6
CONTINUOUS
 62
     7
 10
4058.8444302552547924
 20
175.6934249683457097
 30
0.0
 11
4058.8444302552547924
 21
178.1343698502456903
 31
0.0
  0
ARC
  5
18C27
  8
0
  6
CONTINUOUS
 62
     7
 10
4052.3904932473560621
 20
175.5359446533456946
 30
0.0
 40
1.6929133858000001
 50
90.0
 51
150.0000000000027001
  0
ARC
  5
18C28
  8
0
  6
CONTINUOUS
 62
     7
 10
4052.3904932473560621
 20
175.5359446533456946
 30
0.0
 40
1.062992125999999
 50
90.0
 51
150.0000000000027001
  0
ARC
  5
18C29
  8
0
  6
CONTINUOUS
 62
     7
 10
4058.6082097828561928
 20
178.094999771445714
 30
0.0
 40
0.0393700787
 50
90.0
 51
180.0
  0
ARC
  5
18C2A
  8
0
  6
CONTINUOUS
 62
     7
 10
4058.6082097828561928
 20
175.7327950470456983
 30
0.0
 40
0.0393700787
 50
180.0
 51
270.0
  0
ARC
  5
18C2B
  8
0
  6
CONTINUOUS
 62
     7
 10
4050.4522024595557923
 20
175.5448682612457105
 30
0.0
 40
0.0098425197
 50
149.9999999950020992
 51
239.9999999953973884
  0
ARC
  5
18C2C
  8
0
  6
CONTINUOUS
 62
     7
 10
4050.9806825287560059
 20
175.2397501509456959
 30
0.0
 40
0.0098425197
 50
240.0000000061980074
 51
329.9999999949013727
  0
ARC
  5
18C2D
  8
0
  6
CONTINUOUS
 62
     7
 10
4050.8688172735560329
 20
175.286151325745692
 30
0.0
 40
0.0059055118
 50
60.0000000058344014
 51
150.0000000000027001
  0
ARC
  5
18C2E
  8
0
  6
CONTINUOUS
 62
     7
 10
4050.8176740410558523
 20
175.3156788847456937
 30
0.0
 40
0.0059055118
 50
330.0000000000026716
 51
60.0000000058376628
  0
ARC
  5
18C2F
  8
0
  6
CONTINUOUS
 62
     7
 10
4050.8279026875561613
 20
175.3097733729456991
 30
0.0
 40
0.0059055118
 50
150.0000000000027001
 51
240.000000000000199
  0
ARC
  5
18C30
  8
0
  6
CONTINUOUS
 62
     7
 10
4050.8585885924348986
 20
175.2920568826658894
 30
0.0
 40
0.0059055643436175
 50
239.8151184013356101
 51
329.999788843135093
  0
ARC
  5
18C31
  8
0
  6
CONTINUOUS
 62
     7
 10
4050.7597117108548446
 20
175.3491434517457037
 30
0.0
 40
0.0059055118
 50
330.0000000000026716
 51
60.0000000058360428
  0
ARC
  5
18C32
  8
0
  6
CONTINUOUS
 62
     7
 10
4050.8108549433559347
 20
175.319615892645686
 30
0.0
 40
0.0059055118
 50
60.0000000058352185
 51
150.0000000000027001
  0
ARC
  5
18C33
  8
0
  6
CONTINUOUS
 62
     7
 10
4050.8006262968560804
 20
175.3255214044457091
 30
0.0
 40
0.0059055118
 50
240.000000000000199
 51
330.0000000000026716
  0
ARC
  5
18C34
  8
0
  6
CONTINUOUS
 62
     7
 10
4050.7699403573569725
 20
175.3432379399457091
 30
0.0
 40
0.0059055118
 50
150.0000000000027001
 51
240.000000000000199
  0
ATTDEF
  5
18C36
  8
DEFPOINTS
 10
4058.8447599770051966
 20
176.9132327620536955
 30
0.0
 40
0.001
  1
K-98452T
  3

  2
MODELNUMBER
 70
     0
1001
ACDBATTR
1070
     0
1070
     1
  0
ATTDEF
  5
18C37
  8
DEFPOINTS
 10
4058.8446341673479765
 20
176.9115659216745087
 30
0.0
 40
0.001
  1
LOURE
  3

  2
TRADENAME
 70
     0
1001
ACDBATTR
1070
     0
1070
     1
  0
ATTDEF
  5
18C38
  8
DEFPOINTS
 10
4058.8447599770051966
 20
176.9098994287203936
 30
0.0
 40
0.001
  1
BATHROOM SINK FAUCET
  3

  2
PRODUCT
 70
     0
1001
ACDBATTR
1070
     0
1070
     1
  0
ENDSEC
  0
EOF
