  0
SECTION
  2
HEADER
  9
$ACADVER
  1
AC1009
  9
$INSBASE
 10
4060.4699877797370391
 20
170.2584907612983045
 30
0.0
  9
$EXTMIN
 10
4059.2495153387872051
 20
170.2539337074402113
 30
0.0
  9
$EXTMAX
 10
4061.6904602206868731
 20
178.3096718636982985
 30
0.0
  9
$LIMMIN
 10
0.0
 20
0.0
  9
$LIMMAX
 10
11.6929133858000007
 20
8.2677165353999982
  9
$ORTHOMODE
 70
     0
  9
$REGENMODE
 70
     1
  9
$FILLMODE
 70
     1
  9
$QTEXTMODE
 70
     0
  9
$MIRRTEXT
 70
     0
  9
$DRAGMODE
 70
     2
  9
$LTSCALE
 40
0.6431102362
  9
$OSMODE
 70
  4095
  9
$ATTMODE
 70
     1
  9
$TEXTSIZE
 40
0.2
  9
$TRACEWID
 40
0.05
  9
$TEXTSTYLE
  7
STANDARD
  9
$CLAYER
  8
0
  9
$CELTYPE
  6
BYLAYER
  9
$CECOLOR
 62
   256
  9
$DIMSCALE
 40
1.0
  9
$DIMASZ
 40
0.1875
  9
$DIMEXO
 40
0.0625
  9
$DIMDLI
 40
0.4443307087
  9
$DIMRND
 40
0.0
  9
$DIMDLE
 40
0.0
  9
$DIMEXE
 40
0.125
  9
$DIMTP
 40
0.01
  9
$DIMTM
 40
0.01
  9
$DIMTXT
 40
2.0
  9
$DIMCEN
 40
0.1052362205
  9
$DIMTSZ
 40
0.0
  9
$DIMTOL
 70
     1
  9
$DIMLIM
 70
     0
  9
$DIMTIH
 70
     1
  9
$DIMTOH
 70
     1
  9
$DIMSE1
 70
     0
  9
$DIMSE2
 70
     0
  9
$DIMTAD
 70
     0
  9
$DIMZIN
 70
     0
  9
$DIMBLK
  1

  9
$DIMASO
 70
     1
  9
$DIMSHO
 70
     1
  9
$DIMPOST
  1
\X
  9
$DIMAPOST
  1

  9
$DIMALT
 70
     1
  9
$DIMALTD
 70
     2
  9
$DIMALTF
 40
25.3999999999999986
  9
$DIMLFAC
 40
1.0
  9
$DIMTOFL
 70
     0
  9
$DIMTVP
 40
0.0
  9
$DIMTIX
 70
     0
  9
$DIMSOXD
 70
     0
  9
$DIMSAH
 70
     0
  9
$DIMBLK1
  1

  9
$DIMBLK2
  1

  9
$DIMSTYLE
  2
STANDARD
  9
$DIMCLRD
 70
     0
  9
$DIMCLRE
 70
     0
  9
$DIMCLRT
 70
     0
  9
$DIMTFAC
 40
1.0
  9
$DIMGAP
 40
0.09
  9
$LUNITS
 70
     2
  9
$LUPREC
 70
     4
  9
$SKETCHINC
 40
0.1
  9
$FILLETRAD
 40
0.0
  9
$AUNITS
 70
     0
  9
$AUPREC
 70
     0
  9
$MENU
  1
.
  9
$ELEVATION
 40
0.0
  9
$PELEVATION
 40
0.0
  9
$THICKNESS
 40
0.0
  9
$LIMCHECK
 70
     0
  9
$BLIPMODE
 70
     0
  9
$CHAMFERA
 40
0.0
  9
$CHAMFERB
 40
0.0
  9
$SKPOLY
 70
     0
  9
$TDCREATE
 40
2458060.468368056230247
  9
$TDUPDATE
 40
2459163.7972569451667368
  9
$TDINDWG
 40
0.4408172454
  9
$TDUSRTIMER
 40
0.4408172454
  9
$USRTIMER
 70
     1
  9
$ANGBASE
 50
0.0
  9
$ANGDIR
 70
     0
  9
$PDMODE
 70
     0
  9
$PDSIZE
 40
0.3125
  9
$PLINEWID
 40
0.0
  9
$COORDS
 70
     1
  9
$SPLFRAME
 70
     0
  9
$SPLINETYPE
 70
     6
  9
$SPLINESEGS
 70
     8
  9
$ATTDIA
 70
     1
  9
$ATTREQ
 70
     1
  9
$HANDLING
 70
     1
  9
$HANDSEED
  5
19697
  9
$SURFTAB1
 70
     6
  9
$SURFTAB2
 70
     6
  9
$SURFTYPE
 70
     6
  9
$SURFU
 70
     6
  9
$SURFV
 70
     6
  9
$UCSNAME
  2

  9
$UCSORG
 10
0.0
 20
0.0
 30
0.0
  9
$UCSXDIR
 10
1.0
 20
0.0
 30
0.0
  9
$UCSYDIR
 10
0.0
 20
1.0
 30
0.0
  9
$PUCSNAME
  2

  9
$PUCSORG
 10
0.0
 20
0.0
 30
0.0
  9
$PUCSXDIR
 10
1.0
 20
0.0
 30
0.0
  9
$PUCSYDIR
 10
0.0
 20
1.0
 30
0.0
  9
$USERI1
 70
     0
  9
$USERI2
 70
     0
  9
$USERI3
 70
     0
  9
$USERI4
 70
     0
  9
$USERI5
 70
     0
  9
$USERR1
 40
0.0
  9
$USERR2
 40
0.0
  9
$USERR3
 40
0.0
  9
$USERR4
 40
0.0
  9
$USERR5
 40
0.0
  9
$WORLDVIEW
 70
     1
  9
$SHADEDGE
 70
     3
  9
$SHADEDIF
 70
    70
  9
$TILEMODE
 70
     1
  9
$MAXACTVP
 70
    64
  9
$PLIMCHECK
 70
     0
  9
$PEXTMIN
 10
1.0000000000000000E+20
 20
1.0000000000000000E+20
 30
1.0000000000000000E+20
  9
$PEXTMAX
 10
-1.0000000000000000E+20
 20
-1.0000000000000000E+20
 30
-1.0000000000000000E+20
  9
$PLIMMIN
 10
0.0
 20
0.0
  9
$PLIMMAX
 10
12.0
 20
9.0
  9
$UNITMODE
 70
     0
  9
$VISRETAIN
 70
     1
  9
$PLINEGEN
 70
     0
  9
$PSLTSCALE
 70
     1
  0
ENDSEC
  0
SECTION
  2
TABLES
  0
TABLE
  2
VPORT
 70
     1
  0
VPORT
  2
*ACTIVE
 70
     0
 10
0.0
 20
0.0
 11
1.0
 21
1.0
 12
149.1046313168523909
 22
41.7021976735898079
 13
0.0
 23
0.0
 14
1.0
 24
1.0
 15
0.0
 25
0.0
 16
0.0
 26
0.0
 36
60.4960186965801583
 17
3911.3653564453120453
 27
132.5796051025390057
 37
0.0
 40
10.8664146172537102
 41
1.8614190687361409
 42
50.0
 43
0.0
 44
0.0
 50
0.0
 51
0.0
 71
     0
 72
   100
 73
     1
 74
     1
 75
     0
 76
     0
 77
     0
 78
     0
  0
ENDTAB
  0
TABLE
  2
LTYPE
 70
     2
  0
LTYPE
  2
CONTINUOUS
 70
     0
  3
Solid line
 72
    65
 73
     0
 40
0.0
  0
LTYPE
  2
PHANTOM2
 70
     0
  3
___ _ _ ___ _ _ ___ _ _ ___ _ _
 72
    65
 73
     6
 40
1.25
 49
0.625
 49
-0.125
 49
0.125
 49
-0.125
 49
0.125
 49
-0.125
  0
ENDTAB
  0
TABLE
  2
LAYER
 70
     2
  0
LAYER
  2
0
 70
     0
 62
   255
  6
CONTINUOUS
  0
LAYER
  2
DEFPOINTS
 70
     0
 62
     7
  6
CONTINUOUS
  0
ENDTAB
  0
TABLE
  2
STYLE
 70
     1
  0
STYLE
  2
STANDARD
 70
     0
 40
0.0
 41
0.8
 50
0.0
 71
     0
 42
0.2
  3
txt
  4

  0
ENDTAB
  0
TABLE
  2
VIEW
 70
     0
  0
ENDTAB
  0
TABLE
  2
UCS
 70
     0
  0
ENDTAB
  0
TABLE
  2
APPID
 70
    11
  0
APPID
  2
ACAD
 70
     0
  0
APPID
  2
ACAD_MLEADERVER
 70
     0
  0
APPID
  2
ACAD_EXEMPT_FROM_CAD_STANDARDS
 70
     0
  0
APPID
  2
ACAD_NAV_VCDISPLAY
 70
     0
  0
APPID
  2
ACAECLAYERSTANDARD
 70
     0
  0
APPID
  2
ACCMTRANSPARENCY
 70
     0
  0
APPID
  2
ACAD_DSTYLE_DIMJAG
 70
     0
  0
APPID
  2
ACAD_DSTYLE_DIMTALN
 70
     0
  0
APPID
  2
ACDBATTR
 70
     0
  0
APPID
  2
ACADANNOTATIVE
 70
     0
  0
APPID
  2
DCO15
 70
     0
  0
ENDTAB
  0
TABLE
  2
DIMSTYLE
 70
     1
  0
DIMSTYLE
  2
STANDARD
 70
     0
  3

  4

  5

  6

  7

 40
1.0
 41
0.1875
 42
0.0625
 43
0.38
 44
0.125
 45
0.0
 46
0.0
 47
0.01
 48
0.01
140
0.15625
141
0.09
142
0.0
143
25.3999999999999986
144
1.0
145
0.0
146
1.0
147
0.09
 71
     1
 72
     0
 73
     1
 74
     1
 75
     0
 76
     0
 77
     0
 78
     4
170
     0
171
     2
172
     0
173
     0
174
     0
175
     0
176
     0
177
     0
178
     0
  0
ENDTAB
  0
ENDSEC
  0
SECTION
  2
BLOCKS
  0
BLOCK
  8
0
  2
$MODEL_SPACE
 70
     0
 10
0.0
 20
0.0
 30
0.0
  3
$MODEL_SPACE
  1

  0
ENDBLK
  5
21
  8
0
  0
BLOCK
 67
     1
  8
0
  2
$PAPER_SPACE
 70
     0
 10
0.0
 20
0.0
 30
0.0
  3
$PAPER_SPACE
  1

  0
ENDBLK
  5
1D
 67
     1
  8
0
  0
ENDSEC
  0
SECTION
  2
ENTITIES
  0
LINE
  5
190C9
  8
0
  6
CONTINUOUS
 62
     7
 10
4059.2495153387872051
 20
170.2584907612983045
 30
0.0
 11
4061.6904602206868731
 21
170.2584907612983045
 31
0.0
  0
LINE
  5
190CA
  8
0
  6
CONTINUOUS
 62
     7
 10
4059.2888854174871085
 20
170.4750261942982945
 30
0.0
 11
4061.6510901419869697
 21
170.4750261942982945
 31
0.0
  0
LINE
  5
190CB
  8
0
  6
CONTINUOUS
 62
     7
 10
4059.2495153387872051
 20
170.4356561155983059
 30
0.0
 11
4059.2495153387872051
 21
170.2584907612983045
 31
0.0
  0
LINE
  5
190CC
  8
0
  6
CONTINUOUS
 62
     7
 10
4059.7022712442881129
 20
170.4750261942982945
 30
0.0
 11
4059.7022712442881129
 21
178.2899839045983015
 31
0.0
  0
LINE
  5
190CD
  8
0
  6
CONTINUOUS
 62
     7
 10
4059.7613263623870807
 20
175.7856201823983042
 30
0.0
 11
4059.7613263623870807
 21
175.4793928361982864
 31
0.0
  0
LINE
  5
190CE
  8
0
  6
CONTINUOUS
 62
     7
 10
4059.7692003781880885
 20
175.4947042035983031
 30
0.0
 11
4059.7692003781880885
 21
175.8064523837579998
 31
0.0
  0
LINE
  5
190CF
  8
0
  6
CONTINUOUS
 62
     7
 10
4059.8636885671880918
 20
175.7695563047983001
 30
0.0
 11
4059.8636885671880918
 21
175.6772618127982923
 31
0.0
  0
LINE
  5
190D0
  8
0
  6
CONTINUOUS
 62
     7
 10
4061.2377043151868747
 20
170.4750261942982945
 30
0.0
 11
4061.2377043151868747
 21
178.2899833059983052
 31
0.0
  0
LINE
  5
190D1
  8
0
  6
CONTINUOUS
 62
     7
 10
4059.7219562836871773
 20
175.413872617198308
 30
0.0
 11
4061.2180192757869008
 21
175.413872617198308
 31
0.0
  0
LINE
  5
190D2
  8
0
  6
CONTINUOUS
 62
     7
 10
4061.6904602206868731
 20
170.2584907612983045
 30
0.0
 11
4061.6904602206868731
 21
170.4356561155983059
 31
0.0
  0
LINE
  5
190D3
  8
0
  6
CONTINUOUS
 62
     7
 10
4059.8006964411870285
 20
175.4515539865982987
 30
0.0
 11
4061.1392791182870496
 21
175.4515539865982987
 31
0.0
  0
LINE
  5
190D4
  8
0
  6
CONTINUOUS
 62
     7
 10
4059.8085704568870824
 20
175.4657122309982924
 30
0.0
 11
4061.1314051025879053
 21
175.4657122309982924
 31
0.0
  0
LINE
  5
190D5
  8
0
  6
CONTINUOUS
 62
     7
 10
4059.9030586458870857
 20
175.6214942758983
 30
0.0
 11
4061.0369169135869925
 21
175.6214942758983
 31
0.0
  0
LINE
  5
190D6
  8
0
  6
CONTINUOUS
 62
     7
 10
4059.9030586460880841
 20
175.6464969820983129
 30
0.0
 11
4061.0369169133869036
 21
175.6464969820983129
 31
0.0
  0
LINE
  5
190D7
  8
0
  6
CONTINUOUS
 62
     7
 10
4061.0369169133869036
 20
175.800321135398292
 30
0.0
 11
4059.9030586460880841
 21
175.800321135398292
 31
0.0
  0
LINE
  5
190D8
  8
0
  6
CONTINUOUS
 62
     7
 10
4061.0369169135869925
 20
175.8009137566982929
 30
0.0
 11
4059.9030586458870857
 21
175.8009137566982929
 31
0.0
  0
LINE
  5
190D9
  8
0
  6
CONTINUOUS
 62
     7
 10
4059.820381480486958
 20
175.8273784568982876
 30
0.0
 11
4061.1195940789871202
 21
175.8273784568982876
 31
0.0
  0
LINE
  5
190DA
  8
0
  6
CONTINUOUS
 62
     7
 10
4059.7219562836871773
 20
175.8621770188983078
 30
0.0
 11
4061.2180192757869008
 21
175.8621770188983078
 31
0.0
  0
LINE
  5
190DB
  8
0
  6
CONTINUOUS
 62
     7
 10
4061.2180192757869008
 20
177.8831158092982889
 30
0.0
 11
4059.7219562836871773
 21
177.8831158092982889
 31
0.0
  0
LINE
  5
190DC
  8
0
  6
CONTINUOUS
 62
     7
 10
4061.2180192757869008
 20
178.3096718635983109
 30
0.0
 11
4059.7219562836871773
 21
178.3096718635983109
 31
0.0
  0
ARC
  5
190DD
  8
0
  6
CONTINUOUS
 62
     7
 10
4061.6510901419869697
 20
170.4356561155983059
 30
0.0
 40
0.0393700787
 50
0.0
 51
90.0
  0
ARC
  5
190DE
  8
0
  6
CONTINUOUS
 62
     7
 10
4059.2888854174871085
 20
170.4356561155983059
 30
0.0
 40
0.0393700787
 50
90.0
 51
180.0
  0
ARC
  5
190DF
  8
0
  6
CONTINUOUS
 62
     7
 10
4059.7219562838399725
 20
178.2899868239288139
 30
0.0
 40
0.019685039769545
 50
90.000000445542284
 51
180.008497077815008
  0
ARC
  5
190E0
  8
0
  6
CONTINUOUS
 62
     7
 10
4061.2180192755649841
 20
178.289986823761808
 30
0.0
 40
0.0196850399365649
 50
359.9897611079341004
 51
89.999999353103874
  0
LINE
  5
190E1
  8
0
  6
CONTINUOUS
 62
     7
 10
4059.8451399296868658
 20
175.7597726107983078
 30
0.0
 11
4059.8451769181870077
 21
175.6626626899983137
 31
0.0
  0
ARC
  5
190E2
  8
0
 10
4059.72190074227683
 20
175.835279514147004
 30
0.0
 40
0.0268975620957128
 50
89.8816885120467362
 51
106.5329672279640931
  0
ARC
  5
190E3
  8
0
 10
4059.7207220122909348
 20
175.8393218836708911
 30
0.0
 40
0.0226869011237546
 50
106.5843060288132023
 51
118.2499668746333015
  0
ARC
  5
190E4
  8
0
 10
4059.7180637256369664
 20
175.8440366810162914
 30
0.0
 40
0.0172758110859093
 50
117.8849571454097003
 51
136.9858942747679862
  0
ARC
  5
190E5
  8
0
 10
4059.7145619683651603
 20
175.8473114433971887
 30
0.0
 40
0.0124814051095855
 50
137.0117687224347094
 51
157.0099045056792022
  0
ARC
  5
190E6
  8
0
 10
4059.712530594942109
 20
175.8482126699678929
 30
0.0
 40
0.0102594490117422
 50
157.2123480861862959
 51
179.7491123974427012
  0
ARC
  5
190E7
  8
0
 10
4059.7215866912301863
 20
175.4351445435526102
 30
0.0
 40
0.0212751368833525
 50
226.7581126339707112
 51
270.9953944542863837
  0
ARC
  5
190E8
  8
0
 10
4059.7178727264931695
 20
175.4308476436042099
 30
0.0
 40
0.015602439069179
 50
180.6345538149118966
 51
225.8832971326932864
  0
ARC
  5
190E9
  8
0
 10
4059.7843843724331236
 20
175.4800908469752017
 30
0.0
 40
0.0230685726978696
 50
181.7339250777098982
 51
227.026369784080714
  0
ARC
  5
190EA
  8
0
 10
4059.798769593245197
 20
175.496106966756912
 30
0.0
 40
0.0445946272997394
 50
227.5305070838655013
 51
272.4764112211306042
  0
ARC
  5
190EB
  8
0
 10
4059.8083237254190863
 20
175.5167946429471897
 30
0.0
 40
0.0510830078101249
 50
248.3244584409385141
 51
270.2767402973357775
  0
ARC
  5
190EC
  8
0
 10
4059.8030654708309157
 20
175.5042050174407109
 30
0.0
 40
0.0374422005110426
 50
224.5479472737467006
 51
248.6863116007131111
  0
ARC
  5
190ED
  8
0
 10
4059.7937994688131766
 20
175.4953206710127915
 30
0.0
 40
0.0246068139308655
 50
181.4355650729355887
 51
224.9405372188469983
  0
ARC
  5
190EE
  8
0
 10
4059.8028629230079787
 20
175.7918298909497992
 30
0.0
 40
0.0336708988526398
 50
136.4322112458393974
 51
178.7236572027732109
  0
ARC
  5
190EF
  8
0
 10
4059.7946372191008777
 20
175.7849272598498942
 30
0.0
 40
0.0333180629192193
 50
140.1393566257968075
 51
178.8083220749414011
  0
ARC
  5
190F0
  8
0
 10
4059.8055854732729131
 20
175.7764767755319042
 30
0.0
 40
0.0471410929128177
 50
125.1189313003998933
 51
140.7839554283110886
  0
ARC
  5
190F1
  8
0
 10
4059.8139205126121851
 20
175.7646984980420086
 30
0.0
 40
0.0615702076698721
 50
111.8518049779458039
 51
125.1579886128964034
  0
ARC
  5
190F2
  8
0
 10
4059.8192185296647949
 20
175.7514177828655022
 30
0.0
 40
0.0758686634976171
 50
97.8550942659010445
 51
111.8323020867568971
  0
ARC
  5
190F3
  8
0
 10
4059.820362134899824
 20
175.7445429667882877
 30
0.0
 40
0.0828354923690248
 50
89.9866189456450059
 51
97.9888005669192239
  0
ARC
  5
190F4
  8
0
 10
4059.902906109531159
 20
175.6949970547258886
 30
0.0
 40
0.0485003124967649
 50
248.0500586336787023
 51
270.1801991543745771
  0
ARC
  5
190F5
  8
0
 10
4059.8991437801878419
 20
175.6859780469310124
 30
0.0
 40
0.0387289211248795
 50
225.5047213867630091
 51
248.2251148672413024
  0
ARC
  5
190F6
  8
0
 10
4059.8922868026929791
 20
175.6789908500709032
 30
0.0
 40
0.0289391808495118
 50
201.6866098663628861
 51
225.4931549517862095
  0
ARC
  5
190F7
  8
0
 10
4059.8884007549499984
 20
175.6773233580805993
 30
0.0
 40
0.0247122644022053
 50
180.1426938669708875
 51
201.4235604974794001
  0
ARC
  5
190F8
  8
0
 10
4059.9025221279939615
 20
175.6966737522245126
 30
0.0
 40
0.0751813907301642
 50
243.8522877797826993
 51
270.4088840542048047
  0
ARC
  5
190F9
  8
0
 10
4059.8891381692337745
 20
175.6711612576247887
 30
0.0
 40
0.0463880987511126
 50
210.8262280316214969
 51
244.8049159274389979
  0
ARC
  5
190FA
  8
0
 10
4059.8764860558958389
 20
175.6629287675592934
 30
0.0
 40
0.031310268305492
 50
180.4869107035688955
 51
209.7537317376944941
  0
ARC
  5
190FB
  8
0
 10
4059.8889851119652121
 20
175.7694027268287016
 30
0.0
 40
0.0252970109669079
 50
149.4659453348502041
 51
179.6521556024426047
  0
ARC
  5
190FC
  8
0
 10
4059.8946377198381015
 20
175.7660267916743067
 30
0.0
 40
0.0318809221881936
 50
127.3777579730306968
 51
149.4012906798488984
  0
ARC
  5
190FD
  8
0
 10
4059.900149264319225
 20
175.7590500952597949
 30
0.0
 40
0.0407710911894342
 50
110.0282455563474002
 51
127.5807204461678026
  0
ARC
  5
190FE
  8
0
 10
4059.902960778068973
 20
175.7513965924283923
 30
0.0
 40
0.0489246408567882
 50
89.885386421841531
 51
110.0520038029784047
  0
ARC
  5
190FF
  8
0
 10
4059.9029918708779405
 20
175.7203752001140913
 30
0.0
 40
0.0805385842660296
 50
89.9524957301843244
 51
104.6160613389246947
  0
ARC
  5
19100
  8
0
 10
4059.8993966165221536
 20
175.7335839892066076
 30
0.0
 40
0.0668501820432557
 50
104.4911058658879028
 51
120.4702621190844951
  0
ARC
  5
19101
  8
0
 10
4059.8874844163451598
 20
175.7524544876698087
 30
0.0
 40
0.0445507388755787
 50
119.5725755165150019
 51
149.8266940485904115
  0
ARC
  5
19102
  8
0
 10
4059.8750765011009207
 20
175.7601897970698133
 30
0.0
 40
0.0299394781586776
 50
150.6894567921854957
 51
180.7984035690182054
  0
ARC
  5
19103
  8
0
 10
4059.8713035882660733
 20
175.519223629550396
 30
0.0
 40
0.0172389893607023
 50
89.228389724111608
 51
122.3744172389967986
  0
ARC
  5
19104
  8
0
 10
4059.8784759338809636
 20
175.5267257295469108
 30
0.0
 40
0.0068656506586335
 50
350.0170261959028721
 51
17.8255646942772792
  0
ARC
  5
19105
  8
0
 10
4059.8774542711830691
 20
175.5269704351790949
 30
0.0
 40
0.0079145236307497
 50
323.1515603953786808
 51
349.554502739617817
  0
ARC
  5
19106
  8
0
 10
4059.8749170823589338
 20
175.5289132950279907
 30
0.0
 40
0.0111100279204189
 50
301.6264090746806801
 51
322.9804915264755891
  0
ARC
  5
19107
  8
0
 10
4059.8714860720288016
 20
175.5354642572405908
 30
0.0
 40
0.0184876531248613
 50
249.9182121147021007
 51
270.1782900583842775
  0
ARC
  5
19108
  8
0
 10
4059.8695274591341331
 20
175.5305309604273134
 30
0.0
 40
0.0131825766178786
 50
223.5512996858952022
 51
250.5511951727212931
  0
ARC
  5
19109
  8
0
 10
4059.8658104866481153
 20
175.5269881969863093
 30
0.0
 40
0.0080476973503088
 50
186.3111982218132994
 51
223.5040454053753081
  0
ARC
  5
1910A
  8
0
 10
4059.8649377576430197
 20
175.5267007572738862
 30
0.0
 40
0.0071511778164095
 50
154.2726404410855992
 51
184.7906496159135088
  0
ARC
  5
1910B
  8
0
 10
4059.8675119834329053
 20
175.5252941593491869
 30
0.0
 40
0.0100819210422961
 50
122.6483341477785984
 51
153.4217599213081087
  0
ARC
  5
1910C
  8
0
 10
4059.8721672705478341
 20
175.5186527472718865
 30
0.0
 40
0.0289334751393148
 50
55.5114033734182826
 51
89.2764619795063368
  0
ARC
  5
1910D
  8
0
 10
4059.8792996293100259
 20
175.5291425715545017
 30
0.0
 40
0.0162488259048989
 50
20.9328622824732911
 51
55.2962596402885609
  0
ARC
  5
1910E
  8
0
 10
4059.8829647649440631
 20
175.5308423865540988
 30
0.0
 40
0.0122214570789674
 50
355.9246945276710221
 51
19.6286528306235191
  0
ARC
  5
1910F
  8
0
 10
4059.8800543483612273
 20
175.5309475688883936
 30
0.0
 40
0.0151323329761961
 50
342.2280093890946091
 51
356.310597704012082
  0
ARC
  5
19110
  8
0
 10
4059.8787692954001614
 20
175.5314207289439139
 30
0.0
 40
0.0165005872815783
 50
320.5760510092146092
 51
342.0254179140031852
  0
ARC
  5
19111
  8
0
 10
4059.874751643189029
 20
175.5349631411459086
 30
0.0
 40
0.0218544997694999
 50
292.5372131709056021
 51
320.0910927641933768
  0
ARC
  5
19112
  8
0
 10
4059.8716607108790413
 20
175.5419819558725862
 30
0.0
 40
0.0295224555372933
 50
268.6923593592632074
 51
292.856827735931688
  0
ARC
  5
19113
  8
0
 10
4059.8688934852971215
 20
175.535931427473912
 30
0.0
 40
0.0229416127743103
 50
231.1342677831410981
 51
244.3315776295332
  0
ARC
  5
19114
  8
0
 10
4059.8657486365050318
 20
175.5322773178716034
 30
0.0
 40
0.0181237391633435
 50
204.2872149242857915
 51
231.6264768153669138
  0
ARC
  5
19115
  8
0
 10
4059.8629127333201723
 20
175.5308847279466988
 30
0.0
 40
0.0149663935905065
 50
176.7145128345750891
 51
203.8932772991227012
  0
ARC
  5
19116
  8
0
 10
4059.8609324407971144
 20
175.5306736313808926
 30
0.0
 40
0.0130054966334058
 50
146.1436081441474926
 51
175.2859131453955968
  0
ARC
  5
19117
  8
0
 10
4059.8657425875730951
 20
175.5272709062085141
 30
0.0
 40
0.0188962851505126
 50
120.7897639002468964
 51
145.7010630370454862
  0
ARC
  5
19118
  8
0
 10
4059.8712906337791537
 20
175.5173423166284863
 30
0.0
 40
0.0302670921759264
 50
87.6482218531213135
 51
120.1910272397954031
  0
ARC
  5
19119
  8
0
 10
4059.8713644011859287
 20
175.5414613338531922
 30
0.0
 40
0.0289966013830392
 50
244.6640758317086863
 51
269.2542323531046122
  0
ARC
  5
1911A
  8
0
 10
4059.8716265874231794
 20
175.5355688572340966
 30
0.0
 40
0.0185923488158952
 50
269.7442606393860274
 51
288.9192794619472124
  0
ARC
  5
1911B
  8
0
 10
4059.8727520733741585
 20
175.5322386121075056
 30
0.0
 40
0.0150771006022448
 50
288.9766678707892993
 51
302.0054758641663284
  0
ARC
  5
1911C
  8
0
 10
4059.8718616732930968
 20
175.5193498353523864
 30
0.0
 40
0.0171143241914516
 50
57.990326719175151
 51
91.0912301414281131
  0
ARC
  5
1911D
  8
0
 10
4059.8760783030638777
 20
175.5257595086169999
 30
0.0
 40
0.0094457867846938
 50
18.9530933820168492
 51
59.0700974018845315
  0
LINE
  5
1911E
  8
0
  6
CONTINUOUS
 62
     7
 10
4061.1786491970879069
 20
175.7856201823983042
 30
0.0
 11
4061.1786491970879069
 21
175.4793928361982864
 31
0.0
  0
LINE
  5
1911F
  8
0
  6
CONTINUOUS
 62
     7
 10
4061.1707751812868992
 20
175.4947042035983031
 30
0.0
 11
4061.1707751812868992
 21
175.8064523837579998
 31
0.0
  0
LINE
  5
19120
  8
0
  6
CONTINUOUS
 62
     7
 10
4061.0762869922868958
 20
175.7695563047983001
 30
0.0
 11
4061.0762869922868958
 21
175.6772618127982923
 31
0.0
  0
LINE
  5
19121
  8
0
  6
CONTINUOUS
 62
     7
 10
4061.0948356297872124
 20
175.7597726107983078
 30
0.0
 11
4061.0947986412870705
 21
175.6626626899983137
 31
0.0
  0
ARC
  5
19122
  8
0
 10
4061.2180748171967934
 20
175.835279514147004
 30
0.0
 40
0.0268975620957128
 50
73.46703277203585
 51
90.1183114879532781
  0
ARC
  5
19123
  8
0
 10
4061.2192535471840529
 20
175.8393218836708911
 30
0.0
 40
0.0226869011237546
 50
61.7500331253666701
 51
73.4156939711867267
  0
ARC
  5
19124
  8
0
 10
4061.2219118338371118
 20
175.8440366810162914
 30
0.0
 40
0.0172758110859093
 50
43.0141057252319499
 51
62.1150428545902997
  0
ARC
  5
19125
  8
0
 10
4061.2254135911089179
 20
175.8473114433971887
 30
0.0
 40
0.0124814051095855
 50
22.9900954943207587
 51
42.9882312775652622
  0
ARC
  5
19126
  8
0
 10
4061.2274449645328787
 20
175.8482126699678929
 30
0.0
 40
0.0102594490117422
 50
0.2508876025572549
 51
22.7876519138136899
  0
ARC
  5
19127
  8
0
 10
4061.2183888682448014
 20
175.4351445435526102
 30
0.0
 40
0.0212751368833525
 50
269.0046055457136163
 51
313.2418873660291752
  0
ARC
  5
19128
  8
0
 10
4061.2221028329809087
 20
175.4308476436042099
 30
0.0
 40
0.015602439069179
 50
314.1167028673066852
 51
359.3654461850879898
  0
ARC
  5
19129
  8
0
 10
4061.1555911870409545
 20
175.4800908469752017
 30
0.0
 40
0.0230685726978696
 50
312.973630215919286
 51
358.2660749222899881
  0
ARC
  5
1912A
  8
0
 10
4061.1412059662288812
 20
175.496106966756912
 30
0.0
 40
0.0445946272997394
 50
267.5235887788693958
 51
312.4694929161345271
  0
ARC
  5
1912B
  8
0
 10
4061.1316518340549919
 20
175.5167946429471897
 30
0.0
 40
0.0510830078101249
 50
269.7232597026642225
 51
291.6755415590614007
  0
ARC
  5
1912C
  8
0
 10
4061.1369100886440719
 20
175.5042050174407109
 30
0.0
 40
0.0374422005110426
 50
291.3136883992868889
 51
315.4520527262533278
  0
ARC
  5
1912D
  8
0
 10
4061.1461760906609015
 20
175.4953206710127915
 30
0.0
 40
0.0246068139308655
 50
315.0594627811530017
 51
358.5644349270643829
  0
ARC
  5
1912E
  8
0
 10
4061.137112636467009
 20
175.7918298909497992
 30
0.0
 40
0.0336708988526398
 50
1.276342797226752
 51
43.5677887541606097
  0
ARC
  5
1912F
  8
0
 10
4061.1453383403732005
 20
175.7849272598498942
 30
0.0
 40
0.0333180629192193
 50
1.19167792505859
 51
39.8606433742032209
  0
ARC
  5
19130
  8
0
 10
4061.1343900862020746
 20
175.7764767755319042
 30
0.0
 40
0.0471410929128177
 50
39.2160445716888404
 51
54.8810686996000214
  0
ARC
  5
19131
  8
0
 10
4061.1260550468618931
 20
175.7646984980420086
 30
0.0
 40
0.0615702076698721
 50
54.8420113871035326
 51
68.148195022054125
  0
ARC
  5
19132
  8
0
 10
4061.1207570298101928
 20
175.7514177828655022
 30
0.0
 40
0.0758686634976171
 50
68.1676979132431029
 51
82.1449057340989555
  0
ARC
  5
19133
  8
0
 10
4061.1196134245737994
 20
175.7445429667882877
 30
0.0
 40
0.0828354923690248
 50
82.0111994330807761
 51
90.0133810543549941
  0
ARC
  5
19134
  8
0
 10
4061.0370694499438287
 20
175.6949970547258886
 30
0.0
 40
0.0485003124967649
 50
269.8198008456254229
 51
291.9499413663212977
  0
ARC
  5
19135
  8
0
 10
4061.0408317792857815
 20
175.6859780469310124
 30
0.0
 40
0.0387289211248795
 50
291.7748851327586976
 51
314.4952786132370193
  0
ARC
  5
19136
  8
0
 10
4061.0476887567810991
 20
175.6789908500709032
 30
0.0
 40
0.0289391808495118
 50
314.5068450482137905
 51
338.3133901336370855
  0
ARC
  5
19137
  8
0
 10
4061.0515748045240798
 20
175.6773233580805993
 30
0.0
 40
0.0247122644022053
 50
338.5764395025205999
 51
359.8573061330291125
  0
ARC
  5
19138
  8
0
 10
4061.0374534314801167
 20
175.6966737522245126
 30
0.0
 40
0.0751813907301642
 50
269.5911159457950816
 51
296.1477122202172723
  0
ARC
  5
19139
  8
0
 10
4061.0508373902412131
 20
175.6711612576247887
 30
0.0
 40
0.0463880987511126
 50
295.1950840725609737
 51
329.1737719683785031
  0
ARC
  5
1913A
  8
0
 10
4061.063489503576875
 20
175.6629287675592934
 30
0.0
 40
0.031310268305492
 50
330.2462682623054775
 51
359.513089296431076
  0
ARC
  5
1913B
  8
0
 10
4061.0509904475097755
 20
175.7694027268287016
 30
0.0
 40
0.0252970109669079
 50
0.3478443975573246
 51
30.5340546651498101
  0
ARC
  5
1913C
  8
0
 10
4061.0453378396368862
 20
175.7660267916743067
 30
0.0
 40
0.0318809221881936
 50
30.5987093201510696
 51
52.622242026969289
  0
ARC
  5
1913D
  8
0
 10
4061.0398262951548531
 20
175.7590500952597949
 30
0.0
 40
0.0407710911894342
 50
52.4192795538321832
 51
69.9717544436526282
  0
ARC
  5
1913E
  8
0
 10
4061.0370147814060147
 20
175.7513965924283923
 30
0.0
 40
0.0489246408567882
 50
69.9479961970216095
 51
90.1146135781584832
  0
ARC
  5
1913F
  8
0
 10
4061.0369836885961377
 20
175.7203752001140913
 30
0.0
 40
0.0805385842660296
 50
75.3839386610752484
 51
90.0475042698156898
  0
ARC
  5
19140
  8
0
 10
4061.040578942952834
 20
175.7335839892066076
 30
0.0
 40
0.0668501820432557
 50
59.529737880915512
 51
75.5088941341121256
  0
ARC
  5
19141
  8
0
 10
4061.0524911431280088
 20
175.7524544876698087
 30
0.0
 40
0.0445507388755787
 50
30.1733059514095991
 51
60.4274244834849412
  0
ARC
  5
19142
  8
0
 10
4061.0648990583731575
 20
175.7601897970698133
 30
0.0
 40
0.0299394781586776
 50
359.2015964309816809
 51
29.3105432078144901
  0
ARC
  5
19143
  8
0
 10
4059.7218038079540747
 20
177.857052954011607
 30
0.0
 40
0.0260633012978912
 50
89.6648058622836857
 51
112.5877747822581938
  0
ARC
  5
19144
  8
0
 10
4059.7184819214221534
 20
177.8645571639628997
 30
0.0
 40
0.017859747030099
 50
111.9951730853744039
 51
138.5620446892133941
  0
ARC
  5
19145
  8
0
 10
4059.7134720650619784
 20
177.8689395011996055
 30
0.0
 40
0.0112037661101802
 50
138.4073619052470008
 51
178.6861901181698045
  0
ARC
  5
19146
  8
0
 10
4061.2181447012449098
 20
177.8568654881945861
 30
0.0
 40
0.0262506207468601
 50
68.3994488541119381
 51
90.2737602583228238
  0
ARC
  5
19147
  8
0
 10
4061.2212679057711284
 20
177.8642074220568929
 30
0.0
 40
0.0182756390870775
 50
44.4432737614877809
 51
69.0298005899133642
  0
ARC
  5
19148
  8
0
 10
4061.2263057537970781
 20
177.8688884763828923
 30
0.0
 40
0.0114027193762232
 50
1.547348340072991
 51
45.3754268060058408
  0
ARC
  5
19149
  8
0
 10
4059.9341976010368853
 20
175.5192258843358957
 30
0.0
 40
0.0172389893607023
 50
89.228389724111608
 51
122.3744172389967986
  0
ARC
  5
1914A
  8
0
 10
4059.9413699466517755
 20
175.5267279843324104
 30
0.0
 40
0.0068656506586335
 50
350.0170261959028721
 51
17.8255646942772792
  0
ARC
  5
1914B
  8
0
 10
4059.940348283953881
 20
175.5269726899645946
 30
0.0
 40
0.0079145236307497
 50
323.1515603953786808
 51
349.554502739617817
  0
ARC
  5
1914C
  8
0
 10
4059.9378110951302006
 20
175.5289155498134903
 30
0.0
 40
0.0111100279204189
 50
301.6264090746806801
 51
322.9804915264755891
  0
ARC
  5
1914D
  8
0
 10
4059.9343800848000683
 20
175.5354665120262041
 30
0.0
 40
0.0184876531248613
 50
249.9182121147021007
 51
270.1782900583842775
  0
ARC
  5
1914E
  8
0
 10
4059.9324214719049451
 20
175.5305332152128983
 30
0.0
 40
0.0131825766178786
 50
223.5512996858952022
 51
250.5511951727212931
  0
ARC
  5
1914F
  8
0
 10
4059.9287044994189273
 20
175.5269904517718942
 30
0.0
 40
0.0080476973503088
 50
186.3111982218132994
 51
223.5040454053753081
  0
ARC
  5
19150
  8
0
 10
4059.9278317704138317
 20
175.5267030120594995
 30
0.0
 40
0.0071511778164095
 50
154.2726404410855992
 51
184.7906496159135088
  0
ARC
  5
19151
  8
0
 10
4059.9304059962028077
 20
175.5252964141346865
 30
0.0
 40
0.0100819210422961
 50
122.6483341477785984
 51
153.4217599213081087
  0
ARC
  5
19152
  8
0
 10
4059.9350612833181913
 20
175.5186550020573861
 30
0.0
 40
0.0289334751393148
 50
55.5114033734182826
 51
89.2764619795063368
  0
ARC
  5
19153
  8
0
 10
4059.9421936420808379
 20
175.5291448263400014
 30
0.0
 40
0.0162488259048989
 50
20.9328622824732911
 51
55.2962596402885609
  0
ARC
  5
19154
  8
0
 10
4059.9458587777139655
 20
175.5308446413397121
 30
0.0
 40
0.0122214570789674
 50
355.9246945276710221
 51
19.6286528306235191
  0
ARC
  5
19155
  8
0
 10
4059.9429483611320393
 20
175.5309498236740069
 30
0.0
 40
0.0151323329761961
 50
342.2280093890946091
 51
356.310597704012082
  0
ARC
  5
19156
  8
0
 10
4059.9416633081709733
 20
175.5314229837294988
 30
0.0
 40
0.0165005872815783
 50
320.5760510092146092
 51
342.0254179140031852
  0
ARC
  5
19157
  8
0
 10
4059.937645655959841
 20
175.5349653959314082
 30
0.0
 40
0.0218544997694999
 50
292.5372131709056021
 51
320.0910927641933768
  0
ARC
  5
19158
  8
0
 10
4059.9345547236498533
 20
175.5419842106580859
 30
0.0
 40
0.0295224555372933
 50
268.6923593592632074
 51
292.856827735931688
  0
ARC
  5
19159
  8
0
 10
4059.9317874980679335
 20
175.5359336822594969
 30
0.0
 40
0.0229416127743103
 50
231.1342677831410981
 51
244.3315776295332
  0
ARC
  5
1915A
  8
0
 10
4059.9286426492758437
 20
175.532279572657103
 30
0.0
 40
0.0181237391633435
 50
204.2872149242857915
 51
231.6264768153669138
  0
ARC
  5
1915B
  8
0
 10
4059.9258067460909842
 20
175.5308869827323122
 30
0.0
 40
0.0149663935905065
 50
176.7145128345750891
 51
203.8932772991227012
  0
ARC
  5
1915C
  8
0
 10
4059.9238264535688359
 20
175.530675886166506
 30
0.0
 40
0.0130054966334058
 50
146.1436081441474926
 51
175.2859131453955968
  0
ARC
  5
1915D
  8
0
 10
4059.9286366003448165
 20
175.5272731609940138
 30
0.0
 40
0.0188962851505126
 50
120.7897639002468964
 51
145.7010630370454862
  0
ARC
  5
1915E
  8
0
 10
4059.9341846465499657
 20
175.5173445714139859
 30
0.0
 40
0.0302670921759264
 50
87.6482218531213135
 51
120.1910272397954031
  0
ARC
  5
1915F
  8
0
 10
4059.9342584139571954
 20
175.5414635886388055
 30
0.0
 40
0.0289966013830392
 50
244.6640758317086863
 51
269.2542323531046122
  0
ARC
  5
19160
  8
0
 10
4059.9345206001939914
 20
175.5355711120195963
 30
0.0
 40
0.0185923488158952
 50
269.7442606393860274
 51
288.9192794619472124
  0
ARC
  5
19161
  8
0
 10
4059.9356460861449705
 20
175.5322408668930905
 30
0.0
 40
0.0150771006022448
 50
288.9766678707892993
 51
302.0054758641663284
  0
ARC
  5
19162
  8
0
 10
4059.9347556860639088
 20
175.5193520901379998
 30
0.0
 40
0.0171143241914516
 50
57.990326719175151
 51
91.0912301414281131
  0
ARC
  5
19163
  8
0
 10
4059.9389723158337802
 20
175.5257617634026133
 30
0.0
 40
0.0094457867846938
 50
18.9530933820168492
 51
59.0700974018845315
  0
ARC
  5
19164
  8
0
 10
4059.9971897270311274
 20
175.5192258843360094
 30
0.0
 40
0.0172389893607023
 50
89.228389724111608
 51
122.3744172389967986
  0
ARC
  5
19165
  8
0
 10
4060.0043620726451081
 20
175.5267279843324104
 30
0.0
 40
0.0068656506586335
 50
350.0170261959028721
 51
17.8255646942772792
  0
ARC
  5
19166
  8
0
 10
4060.0033404099481231
 20
175.5269726899645946
 30
0.0
 40
0.0079145236307497
 50
323.1515603953786808
 51
349.554502739617817
  0
ARC
  5
19167
  8
0
 10
4060.0008032211239879
 20
175.5289155498134903
 30
0.0
 40
0.0111100279204189
 50
301.6264090746806801
 51
322.9804915264755891
  0
ARC
  5
19168
  8
0
 10
4059.9973722107938556
 20
175.5354665120262041
 30
0.0
 40
0.0184876531248613
 50
249.9182121147021007
 51
270.1782900583842775
  0
ARC
  5
19169
  8
0
 10
4059.9954135978978229
 20
175.5305332152128983
 30
0.0
 40
0.0131825766178786
 50
223.5512996858952022
 51
250.5511951727212931
  0
ARC
  5
1916A
  8
0
 10
4059.9916966254131694
 20
175.5269904517718942
 30
0.0
 40
0.0080476973503088
 50
186.3111982218132994
 51
223.5040454053753081
  0
ARC
  5
1916B
  8
0
 10
4059.9908238964080738
 20
175.5267030120594995
 30
0.0
 40
0.0071511778164095
 50
154.2726404410855992
 51
184.7906496159135088
  0
ARC
  5
1916C
  8
0
 10
4059.9933981221970498
 20
175.5252964141346865
 30
0.0
 40
0.0100819210422961
 50
122.6483341477785984
 51
153.4217599213081087
  0
ARC
  5
1916D
  8
0
 10
4059.9980534093119786
 20
175.5186550020573861
 30
0.0
 40
0.0289334751393148
 50
55.5114033734182826
 51
89.2764619795063368
  0
ARC
  5
1916E
  8
0
 10
4060.00518576807508
 20
175.5291448263400014
 30
0.0
 40
0.0162488259048989
 50
20.9328622824732911
 51
55.2962596402885609
  0
ARC
  5
1916F
  8
0
 10
4060.0088509037091171
 20
175.5308446413397121
 30
0.0
 40
0.0122214570789674
 50
355.9246945276710221
 51
19.6286528306235191
  0
ARC
  5
19170
  8
0
 10
4060.0059404871258266
 20
175.5309498236740069
 30
0.0
 40
0.0151323329761961
 50
342.2280093890946091
 51
356.310597704012082
  0
ARC
  5
19171
  8
0
 10
4060.0046554341638512
 20
175.5314229837294988
 30
0.0
 40
0.0165005872815783
 50
320.5760510092146092
 51
342.0254179140031852
  0
ARC
  5
19172
  8
0
 10
4060.0006377819531735
 20
175.5349653959314082
 30
0.0
 40
0.0218544997694999
 50
292.5372131709056021
 51
320.0910927641933768
  0
ARC
  5
19173
  8
0
 10
4059.9975468496431859
 20
175.5419842106580859
 30
0.0
 40
0.0295224555372933
 50
268.6923593592632074
 51
292.856827735931688
  0
ARC
  5
19174
  8
0
 10
4059.9947796240608113
 20
175.5359336822594969
 30
0.0
 40
0.0229416127743103
 50
231.1342677831410981
 51
244.3315776295332
  0
ARC
  5
19175
  8
0
 10
4059.9916347752700858
 20
175.532279572657103
 30
0.0
 40
0.0181237391633435
 50
204.2872149242857915
 51
231.6264768153669138
  0
ARC
  5
19176
  8
0
 10
4059.9887988720852263
 20
175.5308869827323122
 30
0.0
 40
0.0149663935905065
 50
176.7145128345750891
 51
203.8932772991227012
  0
ARC
  5
19177
  8
0
 10
4059.9868185795621685
 20
175.530675886166506
 30
0.0
 40
0.0130054966334058
 50
146.1436081441474926
 51
175.2859131453955968
  0
ARC
  5
19178
  8
0
 10
4059.9916287263381491
 20
175.5272731609940138
 30
0.0
 40
0.0188962851505126
 50
120.7897639002468964
 51
145.7010630370454862
  0
ARC
  5
19179
  8
0
 10
4059.9971767725442078
 20
175.5173445714140996
 30
0.0
 40
0.0302670921759264
 50
87.6482218531213135
 51
120.1910272397954031
  0
ARC
  5
1917A
  8
0
 10
4059.9972505399509828
 20
175.5414635886388055
 30
0.0
 40
0.0289966013830392
 50
244.6640758317086863
 51
269.2542323531046122
  0
ARC
  5
1917B
  8
0
 10
4059.9975127261877788
 20
175.5355711120195963
 30
0.0
 40
0.0185923488158952
 50
269.7442606393860274
 51
288.9192794619472124
  0
ARC
  5
1917C
  8
0
 10
4059.9986382121401221
 20
175.5322408668930905
 30
0.0
 40
0.0150771006022448
 50
288.9766678707892993
 51
302.0054758641663284
  0
ARC
  5
1917D
  8
0
 10
4059.9977478120581509
 20
175.5193520901379998
 30
0.0
 40
0.0171143241914516
 50
57.990326719175151
 51
91.0912301414281131
  0
ARC
  5
1917E
  8
0
 10
4060.0019644418289317
 20
175.5257617634026133
 30
0.0
 40
0.0094457867846938
 50
18.9530933820168492
 51
59.0700974018845315
  0
ARC
  5
1917F
  8
0
 10
4060.060181853019003
 20
175.5192258843360094
 30
0.0
 40
0.0172389893607023
 50
89.228389724111608
 51
122.3744172389967986
  0
ARC
  5
19180
  8
0
 10
4060.0673541986338932
 20
175.5267279843324104
 30
0.0
 40
0.0068656506586335
 50
350.0170261959028721
 51
17.8255646942772792
  0
ARC
  5
19181
  8
0
 10
4060.0663325359359987
 20
175.5269726899645946
 30
0.0
 40
0.0079145236307497
 50
323.1515603953786808
 51
349.554502739617817
  0
ARC
  5
19182
  8
0
 10
4060.0637953471118635
 20
175.5289155498134903
 30
0.0
 40
0.0111100279204189
 50
301.6264090746806801
 51
322.9804915264755891
  0
ARC
  5
19183
  8
0
 10
4060.060364336782186
 20
175.5354665120262041
 30
0.0
 40
0.0184876531248613
 50
249.9182121147021007
 51
270.1782900583842775
  0
ARC
  5
19184
  8
0
 10
4060.0584057238870628
 20
175.5305332152128983
 30
0.0
 40
0.0131825766178786
 50
223.5512996858952022
 51
250.5511951727212931
  0
ARC
  5
19185
  8
0
 10
4060.054688751401045
 20
175.5269904517718942
 30
0.0
 40
0.0080476973503088
 50
186.3111982218132994
 51
223.5040454053753081
  0
ARC
  5
19186
  8
0
 10
4060.0538160223959494
 20
175.5267030120594995
 30
0.0
 40
0.0071511778164095
 50
154.2726404410855992
 51
184.7906496159135088
  0
ARC
  5
19187
  8
0
 10
4060.0563902481849254
 20
175.5252964141346865
 30
0.0
 40
0.0100819210422961
 50
122.6483341477785984
 51
153.4217599213081087
  0
ARC
  5
19188
  8
0
 10
4060.0610455353012185
 20
175.5186550020573861
 30
0.0
 40
0.0289334751393148
 50
55.5114033734182826
 51
89.2764619795063368
  0
ARC
  5
19189
  8
0
 10
4060.0681778940620461
 20
175.5291448263400014
 30
0.0
 40
0.0162488259048989
 50
20.9328622824732911
 51
55.2962596402885609
  0
ARC
  5
1918A
  8
0
 10
4060.0718430296960832
 20
175.5308446413397121
 30
0.0
 40
0.0122214570789674
 50
355.9246945276710221
 51
19.6286528306235191
  0
ARC
  5
1918B
  8
0
 10
4060.068932613114157
 20
175.5309498236740069
 30
0.0
 40
0.0151323329761961
 50
342.2280093890946091
 51
356.310597704012082
  0
ARC
  5
1918C
  8
0
 10
4060.0676475601521815
 20
175.5314229837294988
 30
0.0
 40
0.0165005872815783
 50
320.5760510092146092
 51
342.0254179140031852
  0
ARC
  5
1918D
  8
0
 10
4060.0636299079419587
 20
175.5349653959314082
 30
0.0
 40
0.0218544997694999
 50
292.5372131709056021
 51
320.0910927641933768
  0
ARC
  5
1918E
  8
0
 10
4060.060538975631971
 20
175.5419842106580859
 30
0.0
 40
0.0295224555372933
 50
268.6923593592632074
 51
292.856827735931688
  0
ARC
  5
1918F
  8
0
 10
4060.0577717500500512
 20
175.5359336822594969
 30
0.0
 40
0.0229416127743103
 50
231.1342677831410981
 51
244.3315776295332
  0
ARC
  5
19190
  8
0
 10
4060.0546269012579614
 20
175.532279572657103
 30
0.0
 40
0.0181237391633435
 50
204.2872149242857915
 51
231.6264768153669138
  0
ARC
  5
19191
  8
0
 10
4060.0517909980721925
 20
175.5308869827323122
 30
0.0
 40
0.0149663935905065
 50
176.7145128345750891
 51
203.8932772991227012
  0
ARC
  5
19192
  8
0
 10
4060.0498107055500441
 20
175.530675886166506
 30
0.0
 40
0.0130054966334058
 50
146.1436081441474926
 51
175.2859131453955968
  0
ARC
  5
19193
  8
0
 10
4060.0546208523260248
 20
175.5272731609940138
 30
0.0
 40
0.0188962851505126
 50
120.7897639002468964
 51
145.7010630370454862
  0
ARC
  5
19194
  8
0
 10
4060.0601688985329929
 20
175.5173445714140996
 30
0.0
 40
0.0302670921759264
 50
87.6482218531213135
 51
120.1910272397954031
  0
ARC
  5
19195
  8
0
 10
4060.0602426659388584
 20
175.5414635886388055
 30
0.0
 40
0.0289966013830392
 50
244.6640758317086863
 51
269.2542323531046122
  0
ARC
  5
19196
  8
0
 10
4060.0605048521761091
 20
175.53557111201971
 30
0.0
 40
0.0185923488158952
 50
269.7442606393860274
 51
288.9192794619472124
  0
ARC
  5
19197
  8
0
 10
4060.0616303381279977
 20
175.5322408668930905
 30
0.0
 40
0.0150771006022448
 50
288.9766678707892993
 51
302.0054758641663284
  0
ARC
  5
19198
  8
0
 10
4060.0607399380460265
 20
175.5193520901379998
 30
0.0
 40
0.0171143241914516
 50
57.990326719175151
 51
91.0912301414281131
  0
ARC
  5
19199
  8
0
 10
4060.0649565678158979
 20
175.5257617634026133
 30
0.0
 40
0.0094457867846938
 50
18.9530933820168492
 51
59.0700974018845315
  0
ARC
  5
1919A
  8
0
 10
4060.1231739790091524
 20
175.5192258843360094
 30
0.0
 40
0.0172389893607023
 50
89.228389724111608
 51
122.3744172389967986
  0
ARC
  5
1919B
  8
0
 10
4060.1303463246240426
 20
175.5267279843324104
 30
0.0
 40
0.0068656506586335
 50
350.0170261959028721
 51
17.8255646942772792
  0
ARC
  5
1919C
  8
0
 10
4060.1293246619261481
 20
175.5269726899645946
 30
0.0
 40
0.0079145236307497
 50
323.1515603953786808
 51
349.554502739617817
  0
ARC
  5
1919D
  8
0
 10
4060.1267874731020129
 20
175.5289155498134903
 30
0.0
 40
0.0111100279204189
 50
301.6264090746806801
 51
322.9804915264755891
  0
ARC
  5
1919E
  8
0
 10
4060.1233564627727901
 20
175.5354665120262041
 30
0.0
 40
0.0184876531248613
 50
249.9182121147021007
 51
270.1782900583842775
  0
ARC
  5
1919F
  8
0
 10
4060.1213978498772121
 20
175.5305332152128983
 30
0.0
 40
0.0131825766178786
 50
223.5512996858952022
 51
250.5511951727212931
  0
ARC
  5
191A0
  8
0
 10
4060.1176808773911944
 20
175.5269904517718942
 30
0.0
 40
0.0080476973503088
 50
186.3111982218132994
 51
223.5040454053753081
  0
ARC
  5
191A1
  8
0
 10
4060.1168081483860988
 20
175.5267030120594995
 30
0.0
 40
0.0071511778164095
 50
154.2726404410855992
 51
184.7906496159135088
  0
ARC
  5
191A2
  8
0
 10
4060.1193823741759843
 20
175.5252964141346865
 30
0.0
 40
0.0100819210422961
 50
122.6483341477785984
 51
153.4217599213081087
  0
ARC
  5
191A3
  8
0
 10
4060.1240376612909131
 20
175.5186550020573861
 30
0.0
 40
0.0289334751393148
 50
55.5114033734182826
 51
89.2764619795063368
  0
ARC
  5
191A4
  8
0
 10
4060.1311700200521955
 20
175.5291448263400014
 30
0.0
 40
0.0162488259048989
 50
20.9328622824732911
 51
55.2962596402885609
  0
ARC
  5
191A5
  8
0
 10
4060.1348351556857779
 20
175.5308446413397121
 30
0.0
 40
0.0122214570789674
 50
355.9246945276710221
 51
19.6286528306235191
  0
ARC
  5
191A6
  8
0
 10
4060.1319247391052158
 20
175.5309498236740069
 30
0.0
 40
0.0151323329761961
 50
342.2280093890946091
 51
356.310597704012082
  0
ARC
  5
191A7
  8
0
 10
4060.1306396861418762
 20
175.5314229837294988
 30
0.0
 40
0.0165005872815783
 50
320.5760510092146092
 51
342.0254179140031852
  0
ARC
  5
191A8
  8
0
 10
4060.126622033932108
 20
175.5349653959314082
 30
0.0
 40
0.0218544997694999
 50
292.5372131709056021
 51
320.0910927641933768
  0
ARC
  5
191A9
  8
0
 10
4060.1235311016230298
 20
175.5419842106580859
 30
0.0
 40
0.0295224555372933
 50
268.6923593592632074
 51
292.856827735931688
  0
ARC
  5
191AA
  8
0
 10
4060.1207638760402006
 20
175.5359336822594969
 30
0.0
 40
0.0229416127743103
 50
231.1342677831410981
 51
244.3315776295332
  0
ARC
  5
191AB
  8
0
 10
4060.1176190272481108
 20
175.532279572657103
 30
0.0
 40
0.0181237391633435
 50
204.2872149242857915
 51
231.6264768153669138
  0
ARC
  5
191AC
  8
0
 10
4060.1147831240618871
 20
175.5308869827323122
 30
0.0
 40
0.0149663935905065
 50
176.7145128345750891
 51
203.8932772991227012
  0
ARC
  5
191AD
  8
0
 10
4060.1128028315401934
 20
175.530675886166506
 30
0.0
 40
0.0130054966334058
 50
146.1436081441474926
 51
175.2859131453955968
  0
ARC
  5
191AE
  8
0
 10
4060.1176129783161741
 20
175.5272731609940138
 30
0.0
 40
0.0188962851505126
 50
120.7897639002468964
 51
145.7010630370454862
  0
ARC
  5
191AF
  8
0
 10
4060.1231610245231423
 20
175.5173445714140996
 30
0.0
 40
0.0302670921759264
 50
87.6482218531213135
 51
120.1910272397954031
  0
ARC
  5
191B0
  8
0
 10
4060.1232347919290078
 20
175.5414635886388055
 30
0.0
 40
0.0289966013830392
 50
244.6640758317086863
 51
269.2542323531046122
  0
ARC
  5
191B1
  8
0
 10
4060.1234969781658037
 20
175.5355711120195963
 30
0.0
 40
0.0185923488158952
 50
269.7442606393860274
 51
288.9192794619472124
  0
ARC
  5
191B2
  8
0
 10
4060.124622464118147
 20
175.5322408668930905
 30
0.0
 40
0.0150771006022448
 50
288.9766678707892993
 51
302.0054758641663284
  0
ARC
  5
191B3
  8
0
 10
4060.1237320640361759
 20
175.5193520901379998
 30
0.0
 40
0.0171143241914516
 50
57.990326719175151
 51
91.0912301414281131
  0
ARC
  5
191B4
  8
0
 10
4060.1279486938060472
 20
175.5257617634026133
 30
0.0
 40
0.0094457867846938
 50
18.9530933820168492
 51
59.0700974018845315
  0
ARC
  5
191B5
  8
0
 10
4060.1861661049811119
 20
175.5192258843358957
 30
0.0
 40
0.0172389893607023
 50
89.228389724111608
 51
122.3744172389967986
  0
ARC
  5
191B6
  8
0
 10
4060.1933384505950926
 20
175.5267279843324104
 30
0.0
 40
0.0068656506586335
 50
350.0170261959028721
 51
17.8255646942772792
  0
ARC
  5
191B7
  8
0
 10
4060.1923167878971981
 20
175.5269726899645946
 30
0.0
 40
0.0079145236307497
 50
323.1515603953786808
 51
349.554502739617817
  0
ARC
  5
191B8
  8
0
 10
4060.1897795990730629
 20
175.5289155498134903
 30
0.0
 40
0.0111100279204189
 50
301.6264090746806801
 51
322.9804915264755891
  0
ARC
  5
191B9
  8
0
 10
4060.1863485887429306
 20
175.5354665120262041
 30
0.0
 40
0.0184876531248613
 50
249.9182121147021007
 51
270.1782900583842775
  0
ARC
  5
191BA
  8
0
 10
4060.1843899758468979
 20
175.5305332152128983
 30
0.0
 40
0.0131825766178786
 50
223.5512996858952022
 51
250.5511951727212931
  0
ARC
  5
191BB
  8
0
 10
4060.1806730033617896
 20
175.5269904517718942
 30
0.0
 40
0.0080476973503088
 50
186.3111982218132994
 51
223.5040454053753081
  0
ARC
  5
191BC
  8
0
 10
4060.1798002743571487
 20
175.5267030120594995
 30
0.0
 40
0.0071511778164095
 50
154.2726404410855992
 51
184.7906496159135088
  0
ARC
  5
191BD
  8
0
 10
4060.1823745001461248
 20
175.5252964141346865
 30
0.0
 40
0.0100819210422961
 50
122.6483341477785984
 51
153.4217599213081087
  0
ARC
  5
191BE
  8
0
 10
4060.1870297872610536
 20
175.5186550020573861
 30
0.0
 40
0.0289334751393148
 50
55.5114033734182826
 51
89.2764619795063368
  0
ARC
  5
191BF
  8
0
 10
4060.1941621460227907
 20
175.5291448263400014
 30
0.0
 40
0.0162488259048989
 50
20.9328622824732911
 51
55.2962596402885609
  0
ARC
  5
191C0
  8
0
 10
4060.1978272816568278
 20
175.5308446413397121
 30
0.0
 40
0.0122214570789674
 50
355.9246945276710221
 51
19.6286528306235191
  0
ARC
  5
191C1
  8
0
 10
4060.1949168650749016
 20
175.5309498236740069
 30
0.0
 40
0.0151323329761961
 50
342.2280093890946091
 51
356.310597704012082
  0
ARC
  5
191C2
  8
0
 10
4060.1936318121129261
 20
175.5314229837294988
 30
0.0
 40
0.0165005872815783
 50
320.5760510092146092
 51
342.0254179140031852
  0
ARC
  5
191C3
  8
0
 10
4060.189614159903158
 20
175.5349653959314082
 30
0.0
 40
0.0218544997694999
 50
292.5372131709056021
 51
320.0910927641933768
  0
ARC
  5
191C4
  8
0
 10
4060.1865232275918061
 20
175.5419842106580859
 30
0.0
 40
0.0295224555372933
 50
268.6923593592632074
 51
292.856827735931688
  0
ARC
  5
191C5
  8
0
 10
4060.1837560020098863
 20
175.5359336822594969
 30
0.0
 40
0.0229416127743103
 50
231.1342677831410981
 51
244.3315776295332
  0
ARC
  5
191C6
  8
0
 10
4060.1806111532191608
 20
175.532279572657103
 30
0.0
 40
0.0181237391633435
 50
204.2872149242857915
 51
231.6264768153669138
  0
ARC
  5
191C7
  8
0
 10
4060.1777752500352108
 20
175.5308869827323122
 30
0.0
 40
0.0149663935905065
 50
176.7145128345750891
 51
203.8932772991227012
  0
ARC
  5
191C8
  8
0
 10
4060.1757949575107887
 20
175.530675886166506
 30
0.0
 40
0.0130054966334058
 50
146.1436081441474926
 51
175.2859131453955968
  0
ARC
  5
191C9
  8
0
 10
4060.1806051042872241
 20
175.5272731609940138
 30
0.0
 40
0.0188962851505126
 50
120.7897639002468964
 51
145.7010630370454862
  0
ARC
  5
191CA
  8
0
 10
4060.186153150492828
 20
175.5173445714139859
 30
0.0
 40
0.0302670921759264
 50
87.6482218531213135
 51
120.1910272397954031
  0
ARC
  5
191CB
  8
0
 10
4060.1862269179000577
 20
175.5414635886388055
 30
0.0
 40
0.0289966013830392
 50
244.6640758317086863
 51
269.2542323531046122
  0
ARC
  5
191CC
  8
0
 10
4060.186489104138218
 20
175.5355711120195963
 30
0.0
 40
0.0185923488158952
 50
269.7442606393860274
 51
288.9192794619472124
  0
ARC
  5
191CD
  8
0
 10
4060.187614590089197
 20
175.5322408668930905
 30
0.0
 40
0.0150771006022448
 50
288.9766678707892993
 51
302.0054758641663284
  0
ARC
  5
191CE
  8
0
 10
4060.1867241900072258
 20
175.5193520901379998
 30
0.0
 40
0.0171143241914516
 50
57.990326719175151
 51
91.0912301414281131
  0
ARC
  5
191CF
  8
0
 10
4060.1909408197780067
 20
175.5257617634026133
 30
0.0
 40
0.0094457867846938
 50
18.9530933820168492
 51
59.0700974018845315
  0
ARC
  5
191D0
  8
0
 10
4060.2491582309621663
 20
175.5192258843360094
 30
0.0
 40
0.0172389893607023
 50
89.228389724111608
 51
122.3744172389967986
  0
ARC
  5
191D1
  8
0
 10
4060.2563305765770565
 20
175.5267279843324104
 30
0.0
 40
0.0068656506586335
 50
350.0170261959028721
 51
17.8255646942772792
  0
ARC
  5
191D2
  8
0
 10
4060.255308913879162
 20
175.5269726899645946
 30
0.0
 40
0.0079145236307497
 50
323.1515603953786808
 51
349.554502739617817
  0
ARC
  5
191D3
  8
0
 10
4060.2527717250541173
 20
175.5289155498134903
 30
0.0
 40
0.0111100279204189
 50
301.6264090746806801
 51
322.9804915264755891
  0
ARC
  5
191D4
  8
0
 10
4060.2493407147248945
 20
175.5354665120262041
 30
0.0
 40
0.0184876531248613
 50
249.9182121147021007
 51
270.1782900583842775
  0
ARC
  5
191D5
  8
0
 10
4060.2473821018288618
 20
175.5305332152128983
 30
0.0
 40
0.0131825766178786
 50
223.5512996858952022
 51
250.5511951727212931
  0
ARC
  5
191D6
  8
0
 10
4060.2436651293442083
 20
175.5269904517718942
 30
0.0
 40
0.0080476973503088
 50
186.3111982218132994
 51
223.5040454053753081
  0
ARC
  5
191D7
  8
0
 10
4060.2427924003382032
 20
175.5267030120594995
 30
0.0
 40
0.0071511778164095
 50
154.2726404410855992
 51
184.7906496159135088
  0
ARC
  5
191D8
  8
0
 10
4060.2453666261280887
 20
175.5252964141346865
 30
0.0
 40
0.0100819210422961
 50
122.6483341477785984
 51
153.4217599213081087
  0
ARC
  5
191D9
  8
0
 10
4060.2500219132430175
 20
175.5186550020573861
 30
0.0
 40
0.0289334751393148
 50
55.5114033734182826
 51
89.2764619795063368
  0
ARC
  5
191DA
  8
0
 10
4060.2571542720038451
 20
175.5291448263400014
 30
0.0
 40
0.0162488259048989
 50
20.9328622824732911
 51
55.2962596402885609
  0
ARC
  5
191DB
  8
0
 10
4060.2608194076387917
 20
175.5308446413397121
 30
0.0
 40
0.0122214570789674
 50
355.9246945276710221
 51
19.6286528306235191
  0
ARC
  5
191DC
  8
0
 10
4060.2579089910568655
 20
175.5309498236740069
 30
0.0
 40
0.0151323329761961
 50
342.2280093890946091
 51
356.310597704012082
  0
ARC
  5
191DD
  8
0
 10
4060.2566239380939805
 20
175.5314229837294988
 30
0.0
 40
0.0165005872815783
 50
320.5760510092146092
 51
342.0254179140031852
  0
ARC
  5
191DE
  8
0
 10
4060.2526062858842124
 20
175.5349653959314082
 30
0.0
 40
0.0218544997694999
 50
292.5372131709056021
 51
320.0910927641933768
  0
ARC
  5
191DF
  8
0
 10
4060.2495153535742247
 20
175.5419842106580859
 30
0.0
 40
0.0295224555372933
 50
268.6923593592632074
 51
292.856827735931688
  0
ARC
  5
191E0
  8
0
 10
4060.2467481279918502
 20
175.5359336822594969
 30
0.0
 40
0.0229416127743103
 50
231.1342677831410981
 51
244.3315776295332
  0
ARC
  5
191E1
  8
0
 10
4060.2436032792002152
 20
175.532279572657103
 30
0.0
 40
0.0181237391633435
 50
204.2872149242857915
 51
231.6264768153669138
  0
ARC
  5
191E2
  8
0
 10
4060.2407673760158104
 20
175.5308869827323122
 30
0.0
 40
0.0149663935905065
 50
176.7145128345750891
 51
203.8932772991227012
  0
ARC
  5
191E3
  8
0
 10
4060.2387870834932073
 20
175.530675886166506
 30
0.0
 40
0.0130054966334058
 50
146.1436081441474926
 51
175.2859131453955968
  0
ARC
  5
191E4
  8
0
 10
4060.2435972302678238
 20
175.5272731609940138
 30
0.0
 40
0.0188962851505126
 50
120.7897639002468964
 51
145.7010630370454862
  0
ARC
  5
191E5
  8
0
 10
4060.2491452764747919
 20
175.5173445714140996
 30
0.0
 40
0.0302670921759264
 50
87.6482218531213135
 51
120.1910272397954031
  0
ARC
  5
191E6
  8
0
 10
4060.2492190438820217
 20
175.5414635886388055
 30
0.0
 40
0.0289966013830392
 50
244.6640758317086863
 51
269.2542323531046122
  0
ARC
  5
191E7
  8
0
 10
4060.2494812301188176
 20
175.5355711120195963
 30
0.0
 40
0.0185923488158952
 50
269.7442606393860274
 51
288.9192794619472124
  0
ARC
  5
191E8
  8
0
 10
4060.2506067160697967
 20
175.5322408668930905
 30
0.0
 40
0.0150771006022448
 50
288.9766678707892993
 51
302.0054758641663284
  0
ARC
  5
191E9
  8
0
 10
4060.2497163159891898
 20
175.5193520901379998
 30
0.0
 40
0.0171143241914516
 50
57.990326719175151
 51
91.0912301414281131
  0
ARC
  5
191EA
  8
0
 10
4060.2539329457599706
 20
175.5257617634026133
 30
0.0
 40
0.0094457867846938
 50
18.9530933820168492
 51
59.0700974018845315
  0
ARC
  5
191EB
  8
0
 10
4060.3121503569409469
 20
175.5192258843360094
 30
0.0
 40
0.0172389893607023
 50
89.228389724111608
 51
122.3744172389967986
  0
ARC
  5
191EC
  8
0
 10
4060.3193227025558372
 20
175.5267279843324104
 30
0.0
 40
0.0068656506586335
 50
350.0170261959028721
 51
17.8255646942772792
  0
ARC
  5
191ED
  8
0
 10
4060.3183010398570332
 20
175.5269726899645946
 30
0.0
 40
0.0079145236307497
 50
323.1515603953786808
 51
349.554502739617817
  0
ARC
  5
191EE
  8
0
 10
4060.3157638510328979
 20
175.5289155498134903
 30
0.0
 40
0.0111100279204189
 50
301.6264090746806801
 51
322.9804915264755891
  0
ARC
  5
191EF
  8
0
 10
4060.3123328407041299
 20
175.5354665120262041
 30
0.0
 40
0.0184876531248613
 50
249.9182121147021007
 51
270.1782900583842775
  0
ARC
  5
191F0
  8
0
 10
4060.3103742278080972
 20
175.5305332152128983
 30
0.0
 40
0.0131825766178786
 50
223.5512996858952022
 51
250.5511951727212931
  0
ARC
  5
191F1
  8
0
 10
4060.3066572553229889
 20
175.5269904517718942
 30
0.0
 40
0.0080476973503088
 50
186.3111982218132994
 51
223.5040454053753081
  0
ARC
  5
191F2
  8
0
 10
4060.3057845263178933
 20
175.5267030120594995
 30
0.0
 40
0.0071511778164095
 50
154.2726404410855992
 51
184.7906496159135088
  0
ARC
  5
191F3
  8
0
 10
4060.3083587521068694
 20
175.5252964141346865
 30
0.0
 40
0.0100819210422961
 50
122.6483341477785984
 51
153.4217599213081087
  0
ARC
  5
191F4
  8
0
 10
4060.3130140392217982
 20
175.5186550020573861
 30
0.0
 40
0.0289334751393148
 50
55.5114033734182826
 51
89.2764619795063368
  0
ARC
  5
191F5
  8
0
 10
4060.32014639798399
 20
175.5291448263400014
 30
0.0
 40
0.0162488259048989
 50
20.9328622824732911
 51
55.2962596402885609
  0
ARC
  5
191F6
  8
0
 10
4060.3238115336180272
 20
175.5308446413397121
 30
0.0
 40
0.0122214570789674
 50
355.9246945276710221
 51
19.6286528306235191
  0
ARC
  5
191F7
  8
0
 10
4060.3209011170361009
 20
175.5309498236740069
 30
0.0
 40
0.0151323329761961
 50
342.2280093890946091
 51
356.310597704012082
  0
ARC
  5
191F8
  8
0
 10
4060.3196160640741255
 20
175.5314229837294988
 30
0.0
 40
0.0165005872815783
 50
320.5760510092146092
 51
342.0254179140031852
  0
ARC
  5
191F9
  8
0
 10
4060.3155984118639026
 20
175.5349653959314082
 30
0.0
 40
0.0218544997694999
 50
292.5372131709056021
 51
320.0910927641933768
  0
ARC
  5
191FA
  8
0
 10
4060.3125074795539149
 20
175.5419842106580859
 30
0.0
 40
0.0295224555372933
 50
268.6923593592632074
 51
292.856827735931688
  0
ARC
  5
191FB
  8
0
 10
4060.3097402539719951
 20
175.5359336822594969
 30
0.0
 40
0.0229416127743103
 50
231.1342677831410981
 51
244.3315776295332
  0
ARC
  5
191FC
  8
0
 10
4060.3065954051799054
 20
175.532279572657103
 30
0.0
 40
0.0181237391633435
 50
204.2872149242857915
 51
231.6264768153669138
  0
ARC
  5
191FD
  8
0
 10
4060.3037595019941364
 20
175.5308869827323122
 30
0.0
 40
0.0149663935905065
 50
176.7145128345750891
 51
203.8932772991227012
  0
ARC
  5
191FE
  8
0
 10
4060.3017792094710785
 20
175.530675886166506
 30
0.0
 40
0.0130054966334058
 50
146.1436081441474926
 51
175.2859131453955968
  0
ARC
  5
191FF
  8
0
 10
4060.3065893562470592
 20
175.5272731609940138
 30
0.0
 40
0.0188962851505126
 50
120.7897639002468964
 51
145.7010630370454862
  0
ARC
  5
19200
  8
0
 10
4060.3121374024540273
 20
175.5173445714140996
 30
0.0
 40
0.0302670921759264
 50
87.6482218531213135
 51
120.1910272397954031
  0
ARC
  5
19201
  8
0
 10
4060.3122111698598928
 20
175.5414635886388055
 30
0.0
 40
0.0289966013830392
 50
244.6640758317086863
 51
269.2542323531046122
  0
ARC
  5
19202
  8
0
 10
4060.312473356098053
 20
175.5355711120195963
 30
0.0
 40
0.0185923488158952
 50
269.7442606393860274
 51
288.9192794619472124
  0
ARC
  5
19203
  8
0
 10
4060.3135988420490321
 20
175.5322408668930905
 30
0.0
 40
0.0150771006022448
 50
288.9766678707892993
 51
302.0054758641663284
  0
ARC
  5
19204
  8
0
 10
4060.3127084419679704
 20
175.5193520901379998
 30
0.0
 40
0.0171143241914516
 50
57.990326719175151
 51
91.0912301414281131
  0
ARC
  5
19205
  8
0
 10
4060.3169250717378418
 20
175.5257617634026133
 30
0.0
 40
0.0094457867846938
 50
18.9530933820168492
 51
59.0700974018845315
  0
ARC
  5
19206
  8
0
 10
4060.375142482937008
 20
175.5192258843360094
 30
0.0
 40
0.0172389893607023
 50
89.228389724111608
 51
122.3744172389967986
  0
ARC
  5
19207
  8
0
 10
4060.3823148285518982
 20
175.5267279843324104
 30
0.0
 40
0.0068656506586335
 50
350.0170261959028721
 51
17.8255646942772792
  0
ARC
  5
19208
  8
0
 10
4060.3812931658530943
 20
175.5269726899645946
 30
0.0
 40
0.0079145236307497
 50
323.1515603953786808
 51
349.554502739617817
  0
ARC
  5
19209
  8
0
 10
4060.378755977028959
 20
175.5289155498134903
 30
0.0
 40
0.0111100279204189
 50
301.6264090746806801
 51
322.9804915264755891
  0
ARC
  5
1920A
  8
0
 10
4060.375324966700191
 20
175.5354665120262041
 30
0.0
 40
0.0184876531248613
 50
249.9182121147021007
 51
270.1782900583842775
  0
ARC
  5
1920B
  8
0
 10
4060.3733663538041583
 20
175.5305332152128983
 30
0.0
 40
0.0131825766178786
 50
223.5512996858952022
 51
250.5511951727212931
  0
ARC
  5
1920C
  8
0
 10
4060.36964938131905
 20
175.5269904517718942
 30
0.0
 40
0.0080476973503088
 50
186.3111982218132994
 51
223.5040454053753081
  0
ARC
  5
1920D
  8
0
 10
4060.3687766523130449
 20
175.5267030120594995
 30
0.0
 40
0.0071511778164095
 50
154.2726404410855992
 51
184.7906496159135088
  0
ARC
  5
1920E
  8
0
 10
4060.3713508781029304
 20
175.5252964141346865
 30
0.0
 40
0.0100819210422961
 50
122.6483341477785984
 51
153.4217599213081087
  0
ARC
  5
1920F
  8
0
 10
4060.3760061652192235
 20
175.5186550020573861
 30
0.0
 40
0.0289334751393148
 50
55.5114033734182826
 51
89.2764619795063368
  0
ARC
  5
19210
  8
0
 10
4060.3831385239800511
 20
175.5291448263400014
 30
0.0
 40
0.0162488259048989
 50
20.9328622824732911
 51
55.2962596402885609
  0
ARC
  5
19211
  8
0
 10
4060.3868036596140882
 20
175.5308446413397121
 30
0.0
 40
0.0122214570789674
 50
355.9246945276710221
 51
19.6286528306235191
  0
ARC
  5
19212
  8
0
 10
4060.3838932430330715
 20
175.5309498236740069
 30
0.0
 40
0.0151323329761961
 50
342.2280093890946091
 51
356.310597704012082
  0
ARC
  5
19213
  8
0
 10
4060.3826081900701865
 20
175.5314229837294988
 30
0.0
 40
0.0165005872815783
 50
320.5760510092146092
 51
342.0254179140031852
  0
ARC
  5
19214
  8
0
 10
4060.3785905378608732
 20
175.5349653959314082
 30
0.0
 40
0.0218544997694999
 50
292.5372131709056021
 51
320.0910927641933768
  0
ARC
  5
19215
  8
0
 10
4060.375499605549976
 20
175.5419842106580859
 30
0.0
 40
0.0295224555372933
 50
268.6923593592632074
 51
292.856827735931688
  0
ARC
  5
19216
  8
0
 10
4060.3727323799680562
 20
175.5359336822594969
 30
0.0
 40
0.0229416127743103
 50
231.1342677831410981
 51
244.3315776295332
  0
ARC
  5
19217
  8
0
 10
4060.3695875311759664
 20
175.532279572657103
 30
0.0
 40
0.0181237391633435
 50
204.2872149242857915
 51
231.6264768153669138
  0
ARC
  5
19218
  8
0
 10
4060.3667516279911069
 20
175.5308869827323122
 30
0.0
 40
0.0149663935905065
 50
176.7145128345750891
 51
203.8932772991227012
  0
ARC
  5
19219
  8
0
 10
4060.3647713354680491
 20
175.530675886166506
 30
0.0
 40
0.0130054966334058
 50
146.1436081441474926
 51
175.2859131453955968
  0
ARC
  5
1921A
  8
0
 10
4060.3695814822440298
 20
175.5272731609940138
 30
0.0
 40
0.0188962851505126
 50
120.7897639002468964
 51
145.7010630370454862
  0
ARC
  5
1921B
  8
0
 10
4060.3751295284500884
 20
175.5173445714140996
 30
0.0
 40
0.0302670921759264
 50
87.6482218531213135
 51
120.1910272397954031
  0
ARC
  5
1921C
  8
0
 10
4060.3752032958568634
 20
175.5414635886388055
 30
0.0
 40
0.0289966013830392
 50
244.6640758317086863
 51
269.2542323531046122
  0
ARC
  5
1921D
  8
0
 10
4060.3754654820950236
 20
175.5355711120195963
 30
0.0
 40
0.0185923488158952
 50
269.7442606393860274
 51
288.9192794619472124
  0
ARC
  5
1921E
  8
0
 10
4060.3765909680450932
 20
175.5322408668930905
 30
0.0
 40
0.0150771006022448
 50
288.9766678707892993
 51
302.0054758641663284
  0
ARC
  5
1921F
  8
0
 10
4060.375700567964941
 20
175.5193520901379998
 30
0.0
 40
0.0171143241914516
 50
57.990326719175151
 51
91.0912301414281131
  0
ARC
  5
19220
  8
0
 10
4060.3799171977339029
 20
175.5257617634026133
 30
0.0
 40
0.0094457867846938
 50
18.9530933820168492
 51
59.0700974018845315
  0
ARC
  5
19221
  8
0
 10
4060.4381346089198814
 20
175.5192258843360094
 30
0.0
 40
0.0172389893607023
 50
89.228389724111608
 51
122.3744172389967986
  0
ARC
  5
19222
  8
0
 10
4060.4453069545329527
 20
175.5267279843324104
 30
0.0
 40
0.0068656506586335
 50
350.0170261959028721
 51
17.8255646942772792
  0
ARC
  5
19223
  8
0
 10
4060.4442852918350582
 20
175.5269726899645946
 30
0.0
 40
0.0079145236307497
 50
323.1515603953786808
 51
349.554502739617817
  0
ARC
  5
19224
  8
0
 10
4060.4417481030118324
 20
175.5289155498134903
 30
0.0
 40
0.0111100279204189
 50
301.6264090746806801
 51
322.9804915264755891
  0
ARC
  5
19225
  8
0
 10
4060.4383170926821549
 20
175.5354665120262041
 30
0.0
 40
0.0184876531248613
 50
249.9182121147021007
 51
270.1782900583842775
  0
ARC
  5
19226
  8
0
 10
4060.4363584797861222
 20
175.5305332152128983
 30
0.0
 40
0.0131825766178786
 50
223.5512996858952022
 51
250.5511951727212931
  0
ARC
  5
19227
  8
0
 10
4060.4326415073010139
 20
175.5269904517718942
 30
0.0
 40
0.0080476973503088
 50
186.3111982218132994
 51
223.5040454053753081
  0
ARC
  5
19228
  8
0
 10
4060.4317687782959183
 20
175.5267030120594995
 30
0.0
 40
0.0071511778164095
 50
154.2726404410855992
 51
184.7906496159135088
  0
ARC
  5
19229
  8
0
 10
4060.4343430040848943
 20
175.5252964141346865
 30
0.0
 40
0.0100819210422961
 50
122.6483341477785984
 51
153.4217599213081087
  0
ARC
  5
1922A
  8
0
 10
4060.4389982912011874
 20
175.5186550020573861
 30
0.0
 40
0.0289334751393148
 50
55.5114033734182826
 51
89.2764619795063368
  0
ARC
  5
1922B
  8
0
 10
4060.446130649962015
 20
175.5291448263400014
 30
0.0
 40
0.0162488259048989
 50
20.9328622824732911
 51
55.2962596402885609
  0
ARC
  5
1922C
  8
0
 10
4060.4497957855960522
 20
175.5308446413397121
 30
0.0
 40
0.0122214570789674
 50
355.9246945276710221
 51
19.6286528306235191
  0
ARC
  5
1922D
  8
0
 10
4060.4468853690141259
 20
175.5309498236740069
 30
0.0
 40
0.0151323329761961
 50
342.2280093890946091
 51
356.310597704012082
  0
ARC
  5
1922E
  8
0
 10
4060.4456003160521504
 20
175.5314229837294988
 30
0.0
 40
0.0165005872815783
 50
320.5760510092146092
 51
342.0254179140031852
  0
ARC
  5
1922F
  8
0
 10
4060.4415826638419276
 20
175.5349653959314082
 30
0.0
 40
0.0218544997694999
 50
292.5372131709056021
 51
320.0910927641933768
  0
ARC
  5
19230
  8
0
 10
4060.4384917315319399
 20
175.5419842106580859
 30
0.0
 40
0.0295224555372933
 50
268.6923593592632074
 51
292.856827735931688
  0
ARC
  5
19231
  8
0
 10
4060.4357245059491106
 20
175.5359336822594969
 30
0.0
 40
0.0229416127743103
 50
231.1342677831410981
 51
244.3315776295332
  0
ARC
  5
19232
  8
0
 10
4060.4325796571579303
 20
175.532279572657103
 30
0.0
 40
0.0181237391633435
 50
204.2872149242857915
 51
231.6264768153669138
  0
ARC
  5
19233
  8
0
 10
4060.4297437539739803
 20
175.5308869827323122
 30
0.0
 40
0.0149663935905065
 50
176.7145128345750891
 51
203.8932772991227012
  0
ARC
  5
19234
  8
0
 10
4060.427763461450013
 20
175.530675886166506
 30
0.0
 40
0.0130054966334058
 50
146.1436081441474926
 51
175.2859131453955968
  0
ARC
  5
19235
  8
0
 10
4060.4325736082259937
 20
175.5272731609940138
 30
0.0
 40
0.0188962851505126
 50
120.7897639002468964
 51
145.7010630370454862
  0
ARC
  5
19236
  8
0
 10
4060.4381216544320523
 20
175.5173445714140996
 30
0.0
 40
0.0302670921759264
 50
87.6482218531213135
 51
120.1910272397954031
  0
ARC
  5
19237
  8
0
 10
4060.4381954218401916
 20
175.5414635886388055
 30
0.0
 40
0.0289966013830392
 50
244.6640758317086863
 51
269.2542323531046122
  0
ARC
  5
19238
  8
0
 10
4060.4384576080769875
 20
175.53557111201971
 30
0.0
 40
0.0185923488158952
 50
269.7442606393860274
 51
288.9192794619472124
  0
ARC
  5
19239
  8
0
 10
4060.4395830940270571
 20
175.5322408668930905
 30
0.0
 40
0.0150771006022448
 50
288.9766678707892993
 51
302.0054758641663284
  0
ARC
  5
1923A
  8
0
 10
4060.4386926939459954
 20
175.5193520901379998
 30
0.0
 40
0.0171143241914516
 50
57.990326719175151
 51
91.0912301414281131
  0
ARC
  5
1923B
  8
0
 10
4060.4429093237158668
 20
175.5257617634026133
 30
0.0
 40
0.0094457867846938
 50
18.9530933820168492
 51
59.0700974018845315
  0
ARC
  5
1923C
  8
0
 10
4060.501126734913214
 20
175.5192258843360094
 30
0.0
 40
0.0172389893607023
 50
89.228389724111608
 51
122.3744172389967986
  0
ARC
  5
1923D
  8
0
 10
4060.5082990805271947
 20
175.5267279843324104
 30
0.0
 40
0.0068656506586335
 50
350.0170261959028721
 51
17.8255646942772792
  0
ARC
  5
1923E
  8
0
 10
4060.5072774178288455
 20
175.5269726899645946
 30
0.0
 40
0.0079145236307497
 50
323.1515603953786808
 51
349.554502739617817
  0
ARC
  5
1923F
  8
0
 10
4060.504740229005165
 20
175.5289155498134903
 30
0.0
 40
0.0111100279204189
 50
301.6264090746806801
 51
322.9804915264755891
  0
ARC
  5
19240
  8
0
 10
4060.5013092186750328
 20
175.5354665120262041
 30
0.0
 40
0.0184876531248613
 50
249.9182121147021007
 51
270.1782900583842775
  0
ARC
  5
19241
  8
0
 10
4060.4993506057799095
 20
175.5305332152128983
 30
0.0
 40
0.0131825766178786
 50
223.5512996858952022
 51
250.5511951727212931
  0
ARC
  5
19242
  8
0
 10
4060.4956336332948013
 20
175.5269904517718942
 30
0.0
 40
0.0080476973503088
 50
186.3111982218132994
 51
223.5040454053753081
  0
ARC
  5
19243
  8
0
 10
4060.4947609042901604
 20
175.5267030120594995
 30
0.0
 40
0.0071511778164095
 50
154.2726404410855992
 51
184.7906496159135088
  0
ARC
  5
19244
  8
0
 10
4060.4973351300791364
 20
175.5252964141346865
 30
0.0
 40
0.0100819210422961
 50
122.6483341477785984
 51
153.4217599213081087
  0
ARC
  5
19245
  8
0
 10
4060.5019904171940652
 20
175.5186550020573861
 30
0.0
 40
0.0289334751393148
 50
55.5114033734182826
 51
89.2764619795063368
  0
ARC
  5
19246
  8
0
 10
4060.5091227759571666
 20
175.5291448263400014
 30
0.0
 40
0.0162488259048989
 50
20.9328622824732911
 51
55.2962596402885609
  0
ARC
  5
19247
  8
0
 10
4060.5127879115898395
 20
175.5308446413397121
 30
0.0
 40
0.0122214570789674
 50
355.9246945276710221
 51
19.6286528306235191
  0
ARC
  5
19248
  8
0
 10
4060.5098774950079132
 20
175.5309498236740069
 30
0.0
 40
0.0151323329761961
 50
342.2280093890946091
 51
356.310597704012082
  0
ARC
  5
19249
  8
0
 10
4060.5085924420459378
 20
175.5314229837294988
 30
0.0
 40
0.0165005872815783
 50
320.5760510092146092
 51
342.0254179140031852
  0
ARC
  5
1924A
  8
0
 10
4060.5045747898361697
 20
175.5349653959314082
 30
0.0
 40
0.0218544997694999
 50
292.5372131709056021
 51
320.0910927641933768
  0
ARC
  5
1924B
  8
0
 10
4060.5014838575248177
 20
175.5419842106580859
 30
0.0
 40
0.0295224555372933
 50
268.6923593592632074
 51
292.856827735931688
  0
ARC
  5
1924C
  8
0
 10
4060.4987166319428979
 20
175.5359336822594969
 30
0.0
 40
0.0229416127743103
 50
231.1342677831410981
 51
244.3315776295332
  0
ARC
  5
1924D
  8
0
 10
4060.4955717831508082
 20
175.532279572657103
 30
0.0
 40
0.0181237391633435
 50
204.2872149242857915
 51
231.6264768153669138
  0
ARC
  5
1924E
  8
0
 10
4060.4927358799668582
 20
175.5308869827323122
 30
0.0
 40
0.0149663935905065
 50
176.7145128345750891
 51
203.8932772991227012
  0
ARC
  5
1924F
  8
0
 10
4060.4907555874428908
 20
175.530675886166506
 30
0.0
 40
0.0130054966334058
 50
146.1436081441474926
 51
175.2859131453955968
  0
ARC
  5
19250
  8
0
 10
4060.4955657342188715
 20
175.5272731609940138
 30
0.0
 40
0.0188962851505126
 50
120.7897639002468964
 51
145.7010630370454862
  0
ARC
  5
19251
  8
0
 10
4060.5011137804258396
 20
175.5173445714140996
 30
0.0
 40
0.0302670921759264
 50
87.6482218531213135
 51
120.1910272397954031
  0
ARC
  5
19252
  8
0
 10
4060.5011875478330694
 20
175.5414635886388055
 30
0.0
 40
0.0289966013830392
 50
244.6640758317086863
 51
269.2542323531046122
  0
ARC
  5
19253
  8
0
 10
4060.5014497340698654
 20
175.5355711120195963
 30
0.0
 40
0.0185923488158952
 50
269.7442606393860274
 51
288.9192794619472124
  0
ARC
  5
19254
  8
0
 10
4060.5025752200208444
 20
175.5322408668930905
 30
0.0
 40
0.0150771006022448
 50
288.9766678707892993
 51
302.0054758641663284
  0
ARC
  5
19255
  8
0
 10
4060.5016848199397828
 20
175.5193520901379998
 30
0.0
 40
0.0171143241914516
 50
57.990326719175151
 51
91.0912301414281131
  0
ARC
  5
19256
  8
0
 10
4060.5059014497110184
 20
175.5257617634026133
 30
0.0
 40
0.0094457867846938
 50
18.9530933820168492
 51
59.0700974018845315
  0
ARC
  5
19257
  8
0
 10
4060.5641188608810808
 20
175.5192258843360094
 30
0.0
 40
0.0172389893607023
 50
89.228389724111608
 51
122.3744172389967986
  0
ARC
  5
19258
  8
0
 10
4060.5712912064950615
 20
175.5267279843324104
 30
0.0
 40
0.0068656506586335
 50
350.0170261959028721
 51
17.8255646942772792
  0
ARC
  5
19259
  8
0
 10
4060.570269543797167
 20
175.5269726899645946
 30
0.0
 40
0.0079145236307497
 50
323.1515603953786808
 51
349.554502739617817
  0
ARC
  5
1925A
  8
0
 10
4060.5677323549730318
 20
175.5289155498134903
 30
0.0
 40
0.0111100279204189
 50
301.6264090746806801
 51
322.9804915264755891
  0
ARC
  5
1925B
  8
0
 10
4060.5643013446428995
 20
175.5354665120262041
 30
0.0
 40
0.0184876531248613
 50
249.9182121147021007
 51
270.1782900583842775
  0
ARC
  5
1925C
  8
0
 10
4060.5623427317477763
 20
175.5305332152128983
 30
0.0
 40
0.0131825766178786
 50
223.5512996858952022
 51
250.5511951727212931
  0
ARC
  5
1925D
  8
0
 10
4060.5586257592622133
 20
175.5269904517718942
 30
0.0
 40
0.0080476973503088
 50
186.3111982218132994
 51
223.5040454053753081
  0
ARC
  5
1925E
  8
0
 10
4060.5577530302571176
 20
175.5267030120594995
 30
0.0
 40
0.0071511778164095
 50
154.2726404410855992
 51
184.7906496159135088
  0
ARC
  5
1925F
  8
0
 10
4060.5603272560470032
 20
175.5252964141346865
 30
0.0
 40
0.0100819210422961
 50
122.6483341477785984
 51
153.4217599213081087
  0
ARC
  5
19260
  8
0
 10
4060.5649825431610225
 20
175.5186550020573861
 30
0.0
 40
0.0289334751393148
 50
55.5114033734182826
 51
89.2764619795063368
  0
ARC
  5
19261
  8
0
 10
4060.5721149019241238
 20
175.5291448263400014
 30
0.0
 40
0.0162488259048989
 50
20.9328622824732911
 51
55.2962596402885609
  0
ARC
  5
19262
  8
0
 10
4060.575780037558161
 20
175.5308446413397121
 30
0.0
 40
0.0122214570789674
 50
355.9246945276710221
 51
19.6286528306235191
  0
ARC
  5
19263
  8
0
 10
4060.57286962097578
 20
175.5309498236740069
 30
0.0
 40
0.0151323329761961
 50
342.2280093890946091
 51
356.310597704012082
  0
ARC
  5
19264
  8
0
 10
4060.571584568012895
 20
175.5314229837294988
 30
0.0
 40
0.0165005872815783
 50
320.5760510092146092
 51
342.0254179140031852
  0
ARC
  5
19265
  8
0
 10
4060.5675669158031269
 20
175.5349653959314082
 30
0.0
 40
0.0218544997694999
 50
292.5372131709056021
 51
320.0910927641933768
  0
ARC
  5
19266
  8
0
 10
4060.564475983491775
 20
175.5419842106580859
 30
0.0
 40
0.0295224555372933
 50
268.6923593592632074
 51
292.856827735931688
  0
ARC
  5
19267
  8
0
 10
4060.5617087579112194
 20
175.5359336822594969
 30
0.0
 40
0.0229416127743103
 50
231.1342677831410981
 51
244.3315776295332
  0
ARC
  5
19268
  8
0
 10
4060.5585639091191297
 20
175.532279572657103
 30
0.0
 40
0.0181237391633435
 50
204.2872149242857915
 51
231.6264768153669138
  0
ARC
  5
19269
  8
0
 10
4060.5557280059351797
 20
175.5308869827323122
 30
0.0
 40
0.0149663935905065
 50
176.7145128345750891
 51
203.8932772991227012
  0
ARC
  5
1926A
  8
0
 10
4060.5537477134121218
 20
175.530675886166506
 30
0.0
 40
0.0130054966334058
 50
146.1436081441474926
 51
175.2859131453955968
  0
ARC
  5
1926B
  8
0
 10
4060.558557860187193
 20
175.5272731609940138
 30
0.0
 40
0.0188962851505126
 50
120.7897639002468964
 51
145.7010630370454862
  0
ARC
  5
1926C
  8
0
 10
4060.5641059063941611
 20
175.5173445714140996
 30
0.0
 40
0.0302670921759264
 50
87.6482218531213135
 51
120.1910272397954031
  0
ARC
  5
1926D
  8
0
 10
4060.5641796738000266
 20
175.5414635886388055
 30
0.0
 40
0.0289966013830392
 50
244.6640758317086863
 51
269.2542323531046122
  0
ARC
  5
1926E
  8
0
 10
4060.5644418600381869
 20
175.53557111201971
 30
0.0
 40
0.0185923488158952
 50
269.7442606393860274
 51
288.9192794619472124
  0
ARC
  5
1926F
  8
0
 10
4060.5655673459891659
 20
175.5322408668930905
 30
0.0
 40
0.0150771006022448
 50
288.9766678707892993
 51
302.0054758641663284
  0
ARC
  5
19270
  8
0
 10
4060.5646769459071947
 20
175.5193520901379998
 30
0.0
 40
0.0171143241914516
 50
57.990326719175151
 51
91.0912301414281131
  0
ARC
  5
19271
  8
0
 10
4060.5688935756788851
 20
175.5257617634026133
 30
0.0
 40
0.0094457867846938
 50
18.9530933820168492
 51
59.0700974018845315
  0
ARC
  5
19272
  8
0
 10
4060.6271109868621352
 20
175.5192258843360094
 30
0.0
 40
0.0172389893607023
 50
89.228389724111608
 51
122.3744172389967986
  0
ARC
  5
19273
  8
0
 10
4060.6342833324770254
 20
175.5267279843324104
 30
0.0
 40
0.0068656506586335
 50
350.0170261959028721
 51
17.8255646942772792
  0
ARC
  5
19274
  8
0
 10
4060.6332616697782214
 20
175.5269726899645946
 30
0.0
 40
0.0079145236307497
 50
323.1515603953786808
 51
349.554502739617817
  0
ARC
  5
19275
  8
0
 10
4060.6307244809540862
 20
175.5289155498134903
 30
0.0
 40
0.0111100279204189
 50
301.6264090746806801
 51
322.9804915264755891
  0
ARC
  5
19276
  8
0
 10
4060.6272934706239539
 20
175.5354665120262041
 30
0.0
 40
0.0184876531248613
 50
249.9182121147021007
 51
270.1782900583842775
  0
ARC
  5
19277
  8
0
 10
4060.6253348577288307
 20
175.5305332152128983
 30
0.0
 40
0.0131825766178786
 50
223.5512996858952022
 51
250.5511951727212931
  0
ARC
  5
19278
  8
0
 10
4060.6216178852441772
 20
175.5269904517718942
 30
0.0
 40
0.0080476973503088
 50
186.3111982218132994
 51
223.5040454053753081
  0
ARC
  5
19279
  8
0
 10
4060.6207451562390816
 20
175.5267030120594995
 30
0.0
 40
0.0071511778164095
 50
154.2726404410855992
 51
184.7906496159135088
  0
ARC
  5
1927A
  8
0
 10
4060.6233193820280576
 20
175.5252964141346865
 30
0.0
 40
0.0100819210422961
 50
122.6483341477785984
 51
153.4217599213081087
  0
ARC
  5
1927B
  8
0
 10
4060.6279746691429864
 20
175.5186550020573861
 30
0.0
 40
0.0289334751393148
 50
55.5114033734182826
 51
89.2764619795063368
  0
ARC
  5
1927C
  8
0
 10
4060.6351070279051783
 20
175.5291448263400014
 30
0.0
 40
0.0162488259048989
 50
20.9328622824732911
 51
55.2962596402885609
  0
ARC
  5
1927D
  8
0
 10
4060.6387721635378512
 20
175.5308446413397121
 30
0.0
 40
0.0122214570789674
 50
355.9246945276710221
 51
19.6286528306235191
  0
ARC
  5
1927E
  8
0
 10
4060.6358617469568344
 20
175.5309498236740069
 30
0.0
 40
0.0151323329761961
 50
342.2280093890946091
 51
356.310597704012082
  0
ARC
  5
1927F
  8
0
 10
4060.6345766939948589
 20
175.5314229837294988
 30
0.0
 40
0.0165005872815783
 50
320.5760510092146092
 51
342.0254179140031852
  0
ARC
  5
19280
  8
0
 10
4060.6305590417850908
 20
175.5349653959314082
 30
0.0
 40
0.0218544997694999
 50
292.5372131709056021
 51
320.0910927641933768
  0
ARC
  5
19281
  8
0
 10
4060.6274681094741936
 20
175.5419842106580859
 30
0.0
 40
0.0295224555372933
 50
268.6923593592632074
 51
292.856827735931688
  0
ARC
  5
19282
  8
0
 10
4060.6247008838918191
 20
175.5359336822594969
 30
0.0
 40
0.0229416127743103
 50
231.1342677831410981
 51
244.3315776295332
  0
ARC
  5
19283
  8
0
 10
4060.6215560351001841
 20
175.532279572657103
 30
0.0
 40
0.0181237391633435
 50
204.2872149242857915
 51
231.6264768153669138
  0
ARC
  5
19284
  8
0
 10
4060.6187201319148699
 20
175.5308869827323122
 30
0.0
 40
0.0149663935905065
 50
176.7145128345750891
 51
203.8932772991227012
  0
ARC
  5
19285
  8
0
 10
4060.6167398393931762
 20
175.530675886166506
 30
0.0
 40
0.0130054966334058
 50
146.1436081441474926
 51
175.2859131453955968
  0
ARC
  5
19286
  8
0
 10
4060.6215499861677927
 20
175.5272731609940138
 30
0.0
 40
0.0188962851505126
 50
120.7897639002468964
 51
145.7010630370454862
  0
ARC
  5
19287
  8
0
 10
4060.6270980323752156
 20
175.5173445714140996
 30
0.0
 40
0.0302670921759264
 50
87.6482218531213135
 51
120.1910272397954031
  0
ARC
  5
19288
  8
0
 10
4060.6271717997819906
 20
175.5414635886388055
 30
0.0
 40
0.0289966013830392
 50
244.6640758317086863
 51
269.2542323531046122
  0
ARC
  5
19289
  8
0
 10
4060.6274339860187865
 20
175.5355711120195963
 30
0.0
 40
0.0185923488158952
 50
269.7442606393860274
 51
288.9192794619472124
  0
ARC
  5
1928A
  8
0
 10
4060.6285594719702203
 20
175.5322408668930905
 30
0.0
 40
0.0150771006022448
 50
288.9766678707892993
 51
302.0054758641663284
  0
ARC
  5
1928B
  8
0
 10
4060.6276690718891587
 20
175.5193520901379998
 30
0.0
 40
0.0171143241914516
 50
57.990326719175151
 51
91.0912301414281131
  0
ARC
  5
1928C
  8
0
 10
4060.63188570165903
 20
175.5257617634026133
 30
0.0
 40
0.0094457867846938
 50
18.9530933820168492
 51
59.0700974018845315
  0
ARC
  5
1928D
  8
0
 10
4060.690103112853194
 20
175.5192258843360094
 30
0.0
 40
0.0172389893607023
 50
89.228389724111608
 51
122.3744172389967986
  0
ARC
  5
1928E
  8
0
 10
4060.6972754584671748
 20
175.5267279843324104
 30
0.0
 40
0.0068656506586335
 50
350.0170261959028721
 51
17.8255646942772792
  0
ARC
  5
1928F
  8
0
 10
4060.6962537957688255
 20
175.5269726899645946
 30
0.0
 40
0.0079145236307497
 50
323.1515603953786808
 51
349.554502739617817
  0
ARC
  5
19290
  8
0
 10
4060.693716606945145
 20
175.5289155498134903
 30
0.0
 40
0.0111100279204189
 50
301.6264090746806801
 51
322.9804915264755891
  0
ARC
  5
19291
  8
0
 10
4060.6902855966150128
 20
175.5354665120262041
 30
0.0
 40
0.0184876531248613
 50
249.9182121147021007
 51
270.1782900583842775
  0
ARC
  5
19292
  8
0
 10
4060.68832698371898
 20
175.5305332152128983
 30
0.0
 40
0.0131825766178786
 50
223.5512996858952022
 51
250.5511951727212931
  0
ARC
  5
19293
  8
0
 10
4060.6846100112338718
 20
175.5269904517718942
 30
0.0
 40
0.0080476973503088
 50
186.3111982218132994
 51
223.5040454053753081
  0
ARC
  5
19294
  8
0
 10
4060.6837372822287762
 20
175.5267030120594995
 30
0.0
 40
0.0071511778164095
 50
154.2726404410855992
 51
184.7906496159135088
  0
ARC
  5
19295
  8
0
 10
4060.686311508018207
 20
175.5252964141346865
 30
0.0
 40
0.0100819210422961
 50
122.6483341477785984
 51
153.4217599213081087
  0
ARC
  5
19296
  8
0
 10
4060.6909667951331357
 20
175.5186550020573861
 30
0.0
 40
0.0289334751393148
 50
55.5114033734182826
 51
89.2764619795063368
  0
ARC
  5
19297
  8
0
 10
4060.6980991538957824
 20
175.5291448263400014
 30
0.0
 40
0.0162488259048989
 50
20.9328622824732911
 51
55.2962596402885609
  0
ARC
  5
19298
  8
0
 10
4060.70176428952891
 20
175.5308446413397121
 30
0.0
 40
0.0122214570789674
 50
355.9246945276710221
 51
19.6286528306235191
  0
ARC
  5
19299
  8
0
 10
4060.6988538729469838
 20
175.5309498236740069
 30
0.0
 40
0.0151323329761961
 50
342.2280093890946091
 51
356.310597704012082
  0
ARC
  5
1929A
  8
0
 10
4060.6975688199850083
 20
175.5314229837294988
 30
0.0
 40
0.0165005872815783
 50
320.5760510092146092
 51
342.0254179140031852
  0
ARC
  5
1929B
  8
0
 10
4060.6935511677747854
 20
175.5349653959314082
 30
0.0
 40
0.0218544997694999
 50
292.5372131709056021
 51
320.0910927641933768
  0
ARC
  5
1929C
  8
0
 10
4060.6904602354638882
 20
175.5419842106580859
 30
0.0
 40
0.0295224555372933
 50
268.6923593592632074
 51
292.856827735931688
  0
ARC
  5
1929D
  8
0
 10
4060.6876930098819685
 20
175.5359336822594969
 30
0.0
 40
0.0229416127743103
 50
231.1342677831410981
 51
244.3315776295332
  0
ARC
  5
1929E
  8
0
 10
4060.6845481610898787
 20
175.532279572657103
 30
0.0
 40
0.0181237391633435
 50
204.2872149242857915
 51
231.6264768153669138
  0
ARC
  5
1929F
  8
0
 10
4060.6817122579059287
 20
175.5308869827323122
 30
0.0
 40
0.0149663935905065
 50
176.7145128345750891
 51
203.8932772991227012
  0
ARC
  5
192A0
  8
0
 10
4060.6797319653828708
 20
175.530675886166506
 30
0.0
 40
0.0130054966334058
 50
146.1436081441474926
 51
175.2859131453955968
  0
ARC
  5
192A1
  8
0
 10
4060.684542112157942
 20
175.5272731609940138
 30
0.0
 40
0.0188962851505126
 50
120.7897639002468964
 51
145.7010630370454862
  0
ARC
  5
192A2
  8
0
 10
4060.6900901583658197
 20
175.5173445714140996
 30
0.0
 40
0.0302670921759264
 50
87.6482218531213135
 51
120.1910272397954031
  0
ARC
  5
192A3
  8
0
 10
4060.6901639257721399
 20
175.5414635886388055
 30
0.0
 40
0.0289966013830392
 50
244.6640758317086863
 51
269.2542323531046122
  0
ARC
  5
192A4
  8
0
 10
4060.6904261120089359
 20
175.5355711120195963
 30
0.0
 40
0.0185923488158952
 50
269.7442606393860274
 51
288.9192794619472124
  0
ARC
  5
192A5
  8
0
 10
4060.6915515979608244
 20
175.5322408668930905
 30
0.0
 40
0.0150771006022448
 50
288.9766678707892993
 51
302.0054758641663284
  0
ARC
  5
192A6
  8
0
 10
4060.6906611978788533
 20
175.5193520901379998
 30
0.0
 40
0.0171143241914516
 50
57.990326719175151
 51
91.0912301414281131
  0
ARC
  5
192A7
  8
0
 10
4060.6948778276491794
 20
175.5257617634026133
 30
0.0
 40
0.0094457867846938
 50
18.9530933820168492
 51
59.0700974018845315
  0
ARC
  5
192A8
  8
0
 10
4060.7530952388378864
 20
175.5192258843358957
 30
0.0
 40
0.0172389893607023
 50
89.228389724111608
 51
122.3744172389967986
  0
ARC
  5
192A9
  8
0
 10
4060.7602675844518672
 20
175.5267279843324104
 30
0.0
 40
0.0068656506586335
 50
350.0170261959028721
 51
17.8255646942772792
  0
ARC
  5
192AA
  8
0
 10
4060.7592459217539727
 20
175.5269726899645946
 30
0.0
 40
0.0079145236307497
 50
323.1515603953786808
 51
349.554502739617817
  0
ARC
  5
192AB
  8
0
 10
4060.7567087329298374
 20
175.5289155498134903
 30
0.0
 40
0.0111100279204189
 50
301.6264090746806801
 51
322.9804915264755891
  0
ARC
  5
192AC
  8
0
 10
4060.7532777226001599
 20
175.5354665120262041
 30
0.0
 40
0.0184876531248613
 50
249.9182121147021007
 51
270.1782900583842775
  0
ARC
  5
192AD
  8
0
 10
4060.7513191097041272
 20
175.5305332152128983
 30
0.0
 40
0.0131825766178786
 50
223.5512996858952022
 51
250.5511951727212931
  0
ARC
  5
192AE
  8
0
 10
4060.7476021372190189
 20
175.5269904517718942
 30
0.0
 40
0.0080476973503088
 50
186.3111982218132994
 51
223.5040454053753081
  0
ARC
  5
192AF
  8
0
 10
4060.7467294082139233
 20
175.5267030120594995
 30
0.0
 40
0.0071511778164095
 50
154.2726404410855992
 51
184.7906496159135088
  0
ARC
  5
192B0
  8
0
 10
4060.7493036340028993
 20
175.5252964141346865
 30
0.0
 40
0.0100819210422961
 50
122.6483341477785984
 51
153.4217599213081087
  0
ARC
  5
192B1
  8
0
 10
4060.7539589211178281
 20
175.5186550020573861
 30
0.0
 40
0.0289334751393148
 50
55.5114033734182826
 51
89.2764619795063368
  0
ARC
  5
192B2
  8
0
 10
4060.7610912798809295
 20
175.5291448263400014
 30
0.0
 40
0.0162488259048989
 50
20.9328622824732911
 51
55.2962596402885609
  0
ARC
  5
192B3
  8
0
 10
4060.7647564155140572
 20
175.5308446413397121
 30
0.0
 40
0.0122214570789674
 50
355.9246945276710221
 51
19.6286528306235191
  0
ARC
  5
192B4
  8
0
 10
4060.7618459989321309
 20
175.5309498236740069
 30
0.0
 40
0.0151323329761961
 50
342.2280093890946091
 51
356.310597704012082
  0
ARC
  5
192B5
  8
0
 10
4060.7605609459701554
 20
175.5314229837294988
 30
0.0
 40
0.0165005872815783
 50
320.5760510092146092
 51
342.0254179140031852
  0
ARC
  5
192B6
  8
0
 10
4060.7565432937599326
 20
175.5349653959314082
 30
0.0
 40
0.0218544997694999
 50
292.5372131709056021
 51
320.0910927641933768
  0
ARC
  5
192B7
  8
0
 10
4060.7534523614490354
 20
175.5419842106580859
 30
0.0
 40
0.0295224555372933
 50
268.6923593592632074
 51
292.856827735931688
  0
ARC
  5
192B8
  8
0
 10
4060.7506851358671156
 20
175.5359336822594969
 30
0.0
 40
0.0229416127743103
 50
231.1342677831410981
 51
244.3315776295332
  0
ARC
  5
192B9
  8
0
 10
4060.7475402870759353
 20
175.532279572657103
 30
0.0
 40
0.0181237391633435
 50
204.2872149242857915
 51
231.6264768153669138
  0
ARC
  5
192BA
  8
0
 10
4060.7447043838919853
 20
175.5308869827323122
 30
0.0
 40
0.0149663935905065
 50
176.7145128345750891
 51
203.8932772991227012
  0
ARC
  5
192BB
  8
0
 10
4060.742724091368018
 20
175.530675886166506
 30
0.0
 40
0.0130054966334058
 50
146.1436081441474926
 51
175.2859131453955968
  0
ARC
  5
192BC
  8
0
 10
4060.7475342381449082
 20
175.5272731609940138
 30
0.0
 40
0.0188962851505126
 50
120.7897639002468964
 51
145.7010630370454862
  0
ARC
  5
192BD
  8
0
 10
4060.7530822843500573
 20
175.5173445714139859
 30
0.0
 40
0.0302670921759264
 50
87.6482218531213135
 51
120.1910272397954031
  0
ARC
  5
192BE
  8
0
 10
4060.7531560517568323
 20
175.5414635886388055
 30
0.0
 40
0.0289966013830392
 50
244.6640758317086863
 51
269.2542323531046122
  0
ARC
  5
192BF
  8
0
 10
4060.753418237994083
 20
175.5355711120195963
 30
0.0
 40
0.0185923488158952
 50
269.7442606393860274
 51
288.9192794619472124
  0
ARC
  5
192C0
  8
0
 10
4060.7545437239459716
 20
175.5322408668930905
 30
0.0
 40
0.0150771006022448
 50
288.9766678707892993
 51
302.0054758641663284
  0
ARC
  5
192C1
  8
0
 10
4060.7536533238640004
 20
175.5193520901379998
 30
0.0
 40
0.0171143241914516
 50
57.990326719175151
 51
91.0912301414281131
  0
ARC
  5
192C2
  8
0
 10
4060.7578699536347813
 20
175.5257617634026133
 30
0.0
 40
0.0094457867846938
 50
18.9530933820168492
 51
59.0700974018845315
  0
ARC
  5
192C3
  8
0
 10
4060.8160873648189408
 20
175.5192258843360094
 30
0.0
 40
0.0172389893607023
 50
89.228389724111608
 51
122.3744172389967986
  0
ARC
  5
192C4
  8
0
 10
4060.8232597104338311
 20
175.5267279843324104
 30
0.0
 40
0.0068656506586335
 50
350.0170261959028721
 51
17.8255646942772792
  0
ARC
  5
192C5
  8
0
 10
4060.8222380477359366
 20
175.5269726899645946
 30
0.0
 40
0.0079145236307497
 50
323.1515603953786808
 51
349.554502739617817
  0
ARC
  5
192C6
  8
0
 10
4060.8197008589108918
 20
175.5289155498134903
 30
0.0
 40
0.0111100279204189
 50
301.6264090746806801
 51
322.9804915264755891
  0
ARC
  5
192C7
  8
0
 10
4060.8162698485821238
 20
175.5354665120262041
 30
0.0
 40
0.0184876531248613
 50
249.9182121147021007
 51
270.1782900583842775
  0
ARC
  5
192C8
  8
0
 10
4060.8143112356860911
 20
175.5305332152128983
 30
0.0
 40
0.0131825766178786
 50
223.5512996858952022
 51
250.5511951727212931
  0
ARC
  5
192C9
  8
0
 10
4060.8105942632009828
 20
175.5269904517718942
 30
0.0
 40
0.0080476973503088
 50
186.3111982218132994
 51
223.5040454053753081
  0
ARC
  5
192CA
  8
0
 10
4060.8097215341949777
 20
175.5267030120594995
 30
0.0
 40
0.0071511778164095
 50
154.2726404410855992
 51
184.7906496159135088
  0
ARC
  5
192CB
  8
0
 10
4060.8122957599848633
 20
175.5252964141346865
 30
0.0
 40
0.0100819210422961
 50
122.6483341477785984
 51
153.4217599213081087
  0
ARC
  5
192CC
  8
0
 10
4060.816951047099792
 20
175.5186550020573861
 30
0.0
 40
0.0289334751393148
 50
55.5114033734182826
 51
89.2764619795063368
  0
ARC
  5
192CD
  8
0
 10
4060.8240834058619839
 20
175.5291448263400014
 30
0.0
 40
0.0162488259048989
 50
20.9328622824732911
 51
55.2962596402885609
  0
ARC
  5
192CE
  8
0
 10
4060.8277485414960211
 20
175.5308446413397121
 30
0.0
 40
0.0122214570789674
 50
355.9246945276710221
 51
19.6286528306235191
  0
ARC
  5
192CF
  8
0
 10
4060.8248381249140948
 20
175.5309498236740069
 30
0.0
 40
0.0151323329761961
 50
342.2280093890946091
 51
356.310597704012082
  0
ARC
  5
192D0
  8
0
 10
4060.8235530719521194
 20
175.5314229837294988
 30
0.0
 40
0.0165005872815783
 50
320.5760510092146092
 51
342.0254179140031852
  0
ARC
  5
192D1
  8
0
 10
4060.819535419740987
 20
175.5349653959314082
 30
0.0
 40
0.0218544997694999
 50
292.5372131709056021
 51
320.0910927641933768
  0
ARC
  5
192D2
  8
0
 10
4060.8164444874309993
 20
175.5419842106580859
 30
0.0
 40
0.0295224555372933
 50
268.6923593592632074
 51
292.856827735931688
  0
ARC
  5
192D3
  8
0
 10
4060.8136772618490795
 20
175.5359336822594969
 30
0.0
 40
0.0229416127743103
 50
231.1342677831410981
 51
244.3315776295332
  0
ARC
  5
192D4
  8
0
 10
4060.8105324130569898
 20
175.532279572657103
 30
0.0
 40
0.0181237391633435
 50
204.2872149242857915
 51
231.6264768153669138
  0
ARC
  5
192D5
  8
0
 10
4060.8076965098730398
 20
175.5308869827323122
 30
0.0
 40
0.0149663935905065
 50
176.7145128345750891
 51
203.8932772991227012
  0
ARC
  5
192D6
  8
0
 10
4060.8057162173499819
 20
175.530675886166506
 30
0.0
 40
0.0130054966334058
 50
146.1436081441474926
 51
175.2859131453955968
  0
ARC
  5
192D7
  8
0
 10
4060.8105263641259626
 20
175.5272731609940138
 30
0.0
 40
0.0188962851505126
 50
120.7897639002468964
 51
145.7010630370454862
  0
ARC
  5
192D8
  8
0
 10
4060.8160744103320212
 20
175.5173445714140996
 30
0.0
 40
0.0302670921759264
 50
87.6482218531213135
 51
120.1910272397954031
  0
ARC
  5
192D9
  8
0
 10
4060.8161481777387962
 20
175.5414635886388055
 30
0.0
 40
0.0289966013830392
 50
244.6640758317086863
 51
269.2542323531046122
  0
ARC
  5
192DA
  8
0
 10
4060.8164103639760469
 20
175.53557111201971
 30
0.0
 40
0.0185923488158952
 50
269.7442606393860274
 51
288.9192794619472124
  0
ARC
  5
192DB
  8
0
 10
4060.817535849927026
 20
175.5322408668930905
 30
0.0
 40
0.0150771006022448
 50
288.9766678707892993
 51
302.0054758641663284
  0
ARC
  5
192DC
  8
0
 10
4060.8166454498459643
 20
175.5193520901379998
 30
0.0
 40
0.0171143241914516
 50
57.990326719175151
 51
91.0912301414281131
  0
ARC
  5
192DD
  8
0
 10
4060.8208620796171999
 20
175.5257617634026133
 30
0.0
 40
0.0094457867846938
 50
18.9530933820168492
 51
59.0700974018845315
  0
ARC
  5
192DE
  8
0
 10
4060.8790794908200041
 20
175.5192258843360094
 30
0.0
 40
0.0172389893607023
 50
89.228389724111608
 51
122.3744172389967986
  0
ARC
  5
192DF
  8
0
 10
4060.8862518364339849
 20
175.5267279843324104
 30
0.0
 40
0.0068656506586335
 50
350.0170261959028721
 51
17.8255646942772792
  0
ARC
  5
192E0
  8
0
 10
4060.8852301737351809
 20
175.5269726899645946
 30
0.0
 40
0.0079145236307497
 50
323.1515603953786808
 51
349.554502739617817
  0
ARC
  5
192E1
  8
0
 10
4060.8826929849119551
 20
175.5289155498134903
 30
0.0
 40
0.0111100279204189
 50
301.6264090746806801
 51
322.9804915264755891
  0
ARC
  5
192E2
  8
0
 10
4060.8792619745818229
 20
175.5354665120262041
 30
0.0
 40
0.0184876531248613
 50
249.9182121147021007
 51
270.1782900583842775
  0
ARC
  5
192E3
  8
0
 10
4060.8773033616871544
 20
175.5305332152128983
 30
0.0
 40
0.0131825766178786
 50
223.5512996858952022
 51
250.5511951727212931
  0
ARC
  5
192E4
  8
0
 10
4060.8735863892020461
 20
175.5269904517718942
 30
0.0
 40
0.0080476973503088
 50
186.3111982218132994
 51
223.5040454053753081
  0
ARC
  5
192E5
  8
0
 10
4060.872713660196041
 20
175.5267030120594995
 30
0.0
 40
0.0071511778164095
 50
154.2726404410855992
 51
184.7906496159135088
  0
ARC
  5
192E6
  8
0
 10
4060.8752878859850171
 20
175.5252964141346865
 30
0.0
 40
0.0100819210422961
 50
122.6483341477785984
 51
153.4217599213081087
  0
ARC
  5
192E7
  8
0
 10
4060.8799431731008553
 20
175.5186550020573861
 30
0.0
 40
0.0289334751393148
 50
55.5114033734182826
 51
89.2764619795063368
  0
ARC
  5
192E8
  8
0
 10
4060.8870755318621377
 20
175.5291448263400014
 30
0.0
 40
0.0162488259048989
 50
20.9328622824732911
 51
55.2962596402885609
  0
ARC
  5
192E9
  8
0
 10
4060.8907406674961749
 20
175.5308446413397121
 30
0.0
 40
0.0122214570789674
 50
355.9246945276710221
 51
19.6286528306235191
  0
ARC
  5
192EA
  8
0
 10
4060.8878302509151581
 20
175.5309498236740069
 30
0.0
 40
0.0151323329761961
 50
342.2280093890946091
 51
356.310597704012082
  0
ARC
  5
192EB
  8
0
 10
4060.8865451979518184
 20
175.5314229837294988
 30
0.0
 40
0.0165005872815783
 50
320.5760510092146092
 51
342.0254179140031852
  0
ARC
  5
192EC
  8
0
 10
4060.8825275457420503
 20
175.5349653959314082
 30
0.0
 40
0.0218544997694999
 50
292.5372131709056021
 51
320.0910927641933768
  0
ARC
  5
192ED
  8
0
 10
4060.8794366134320626
 20
175.5419842106580859
 30
0.0
 40
0.0295224555372933
 50
268.6923593592632074
 51
292.856827735931688
  0
ARC
  5
192EE
  8
0
 10
4060.8766693878501428
 20
175.5359336822594969
 30
0.0
 40
0.0229416127743103
 50
231.1342677831410981
 51
244.3315776295332
  0
ARC
  5
192EF
  8
0
 10
4060.8735245390580531
 20
175.532279572657103
 30
0.0
 40
0.0181237391633435
 50
204.2872149242857915
 51
231.6264768153669138
  0
ARC
  5
192F0
  8
0
 10
4060.8706886358731936
 20
175.5308869827323122
 30
0.0
 40
0.0149663935905065
 50
176.7145128345750891
 51
203.8932772991227012
  0
ARC
  5
192F1
  8
0
 10
4060.8687083433501357
 20
175.530675886166506
 30
0.0
 40
0.0130054966334058
 50
146.1436081441474926
 51
175.2859131453955968
  0
ARC
  5
192F2
  8
0
 10
4060.8735184901261164
 20
175.5272731609940138
 30
0.0
 40
0.0188962851505126
 50
120.7897639002468964
 51
145.7010630370454862
  0
ARC
  5
192F3
  8
0
 10
4060.879066536332175
 20
175.5173445714140996
 30
0.0
 40
0.0302670921759264
 50
87.6482218531213135
 51
120.1910272397954031
  0
ARC
  5
192F4
  8
0
 10
4060.87914030373895
 20
175.5414635886388055
 30
0.0
 40
0.0289966013830392
 50
244.6640758317086863
 51
269.2542323531046122
  0
ARC
  5
192F5
  8
0
 10
4060.8794024899762007
 20
175.53557111201971
 30
0.0
 40
0.0185923488158952
 50
269.7442606393860274
 51
288.9192794619472124
  0
ARC
  5
192F6
  8
0
 10
4060.8805279759271798
 20
175.5322408668930905
 30
0.0
 40
0.0150771006022448
 50
288.9766678707892993
 51
302.0054758641663284
  0
ARC
  5
192F7
  8
0
 10
4060.8796375758461181
 20
175.5193520901379998
 30
0.0
 40
0.0171143241914516
 50
57.990326719175151
 51
91.0912301414281131
  0
ARC
  5
192F8
  8
0
 10
4060.8838542056159895
 20
175.5257617634026133
 30
0.0
 40
0.0094457867846938
 50
18.9530933820168492
 51
59.0700974018845315
  0
ARC
  5
192F9
  8
0
 10
4060.9420716167987848
 20
175.5192258843360094
 30
0.0
 40
0.0172389893607023
 50
89.228389724111608
 51
122.3744172389967986
  0
ARC
  5
192FA
  8
0
 10
4060.9492439624141298
 20
175.5267279843324104
 30
0.0
 40
0.0068656506586335
 50
350.0170261959028721
 51
17.8255646942772792
  0
ARC
  5
192FB
  8
0
 10
4060.9482222997157805
 20
175.5269726899645946
 30
0.0
 40
0.0079145236307497
 50
323.1515603953786808
 51
349.554502739617817
  0
ARC
  5
192FC
  8
0
 10
4060.9456851108911906
 20
175.5289155498134903
 30
0.0
 40
0.0111100279204189
 50
301.6264090746806801
 51
322.9804915264755891
  0
ARC
  5
192FD
  8
0
 10
4060.9422541005619678
 20
175.5354665120262041
 30
0.0
 40
0.0184876531248613
 50
249.9182121147021007
 51
270.1782900583842775
  0
ARC
  5
192FE
  8
0
 10
4060.9402954876659351
 20
175.5305332152128983
 30
0.0
 40
0.0131825766178786
 50
223.5512996858952022
 51
250.5511951727212931
  0
ARC
  5
192FF
  8
0
 10
4060.9365785151808268
 20
175.5269904517718942
 30
0.0
 40
0.0080476973503088
 50
186.3111982218132994
 51
223.5040454053753081
  0
ARC
  5
19300
  8
0
 10
4060.9357057861748217
 20
175.5267030120594995
 30
0.0
 40
0.0071511778164095
 50
154.2726404410855992
 51
184.7906496159135088
  0
ARC
  5
19301
  8
0
 10
4060.938280011965162
 20
175.5252964141346865
 30
0.0
 40
0.0100819210422961
 50
122.6483341477785984
 51
153.4217599213081087
  0
ARC
  5
19302
  8
0
 10
4060.9429352990800908
 20
175.5186550020573861
 30
0.0
 40
0.0289334751393148
 50
55.5114033734182826
 51
89.2764619795063368
  0
ARC
  5
19303
  8
0
 10
4060.9500676578418279
 20
175.5291448263400014
 30
0.0
 40
0.0162488259048989
 50
20.9328622824732911
 51
55.2962596402885609
  0
ARC
  5
19304
  8
0
 10
4060.9537327934767745
 20
175.5308446413397121
 30
0.0
 40
0.0122214570789674
 50
355.9246945276710221
 51
19.6286528306235191
  0
ARC
  5
19305
  8
0
 10
4060.9508223768939388
 20
175.5309498236740069
 30
0.0
 40
0.0151323329761961
 50
342.2280093890946091
 51
356.310597704012082
  0
ARC
  5
19306
  8
0
 10
4060.9495373239319633
 20
175.5314229837294988
 30
0.0
 40
0.0165005872815783
 50
320.5760510092146092
 51
342.0254179140031852
  0
ARC
  5
19307
  8
0
 10
4060.945519671720831
 20
175.5349653959314082
 30
0.0
 40
0.0218544997694999
 50
292.5372131709056021
 51
320.0910927641933768
  0
ARC
  5
19308
  8
0
 10
4060.9424287394108433
 20
175.5419842106580859
 30
0.0
 40
0.0295224555372933
 50
268.6923593592632074
 51
292.856827735931688
  0
ARC
  5
19309
  8
0
 10
4060.9396615138289235
 20
175.5359336822594969
 30
0.0
 40
0.0229416127743103
 50
231.1342677831410981
 51
244.3315776295332
  0
ARC
  5
1930A
  8
0
 10
4060.9365166650368337
 20
175.532279572657103
 30
0.0
 40
0.0181237391633435
 50
204.2872149242857915
 51
231.6264768153669138
  0
ARC
  5
1930B
  8
0
 10
4060.9336807618528837
 20
175.5308869827323122
 30
0.0
 40
0.0149663935905065
 50
176.7145128345750891
 51
203.8932772991227012
  0
ARC
  5
1930C
  8
0
 10
4060.9317004693298259
 20
175.530675886166506
 30
0.0
 40
0.0130054966334058
 50
146.1436081441474926
 51
175.2859131453955968
  0
ARC
  5
1930D
  8
0
 10
4060.9365106161048971
 20
175.5272731609940138
 30
0.0
 40
0.0188962851505126
 50
120.7897639002468964
 51
145.7010630370454862
  0
ARC
  5
1930E
  8
0
 10
4060.9420586623118652
 20
175.5173445714140996
 30
0.0
 40
0.0302670921759264
 50
87.6482218531213135
 51
120.1910272397954031
  0
ARC
  5
1930F
  8
0
 10
4060.9421324297190949
 20
175.5414635886388055
 30
0.0
 40
0.0289966013830392
 50
244.6640758317086863
 51
269.2542323531046122
  0
ARC
  5
19310
  8
0
 10
4060.9423946159558909
 20
175.53557111201971
 30
0.0
 40
0.0185923488158952
 50
269.7442606393860274
 51
288.9192794619472124
  0
ARC
  5
19311
  8
0
 10
4060.94352010190687
 20
175.5322408668930905
 30
0.0
 40
0.0150771006022448
 50
288.9766678707892993
 51
302.0054758641663284
  0
ARC
  5
19312
  8
0
 10
4060.9426297018258083
 20
175.5193520901379998
 30
0.0
 40
0.0171143241914516
 50
57.990326719175151
 51
91.0912301414281131
  0
ARC
  5
19313
  8
0
 10
4060.9468463315970439
 20
175.5257617634026133
 30
0.0
 40
0.0094457867846938
 50
18.9530933820168492
 51
59.0700974018845315
  0
ARC
  5
19314
  8
0
 10
4061.0050637427611946
 20
175.5192258843360094
 30
0.0
 40
0.0172389893607023
 50
89.228389724111608
 51
122.3744172389967986
  0
ARC
  5
19315
  8
0
 10
4061.0122360883769943
 20
175.5267279843324104
 30
0.0
 40
0.0068656506586335
 50
350.0170261959028721
 51
17.8255646942772792
  0
ARC
  5
19316
  8
0
 10
4061.0112144256781903
 20
175.5269726899645946
 30
0.0
 40
0.0079145236307497
 50
323.1515603953786808
 51
349.554502739617817
  0
ARC
  5
19317
  8
0
 10
4061.0086772368549646
 20
175.5289155498134903
 30
0.0
 40
0.0111100279204189
 50
301.6264090746806801
 51
322.9804915264755891
  0
ARC
  5
19318
  8
0
 10
4061.0052462265248323
 20
175.5354665120262041
 30
0.0
 40
0.0184876531248613
 50
249.9182121147021007
 51
270.1782900583842775
  0
ARC
  5
19319
  8
0
 10
4061.0032876136287996
 20
175.5305332152128983
 30
0.0
 40
0.0131825766178786
 50
223.5512996858952022
 51
250.5511951727212931
  0
ARC
  5
1931A
  8
0
 10
4060.9995706411427818
 20
175.5269904517718942
 30
0.0
 40
0.0080476973503088
 50
186.3111982218132994
 51
223.5040454053753081
  0
ARC
  5
1931B
  8
0
 10
4060.9986979121390505
 20
175.5267030120594995
 30
0.0
 40
0.0071511778164095
 50
154.2726404410855992
 51
184.7906496159135088
  0
ARC
  5
1931C
  8
0
 10
4061.0012721379280265
 20
175.5252964141346865
 30
0.0
 40
0.0100819210422961
 50
122.6483341477785984
 51
153.4217599213081087
  0
ARC
  5
1931D
  8
0
 10
4061.0059274250429553
 20
175.5186550020573861
 30
0.0
 40
0.0289334751393148
 50
55.5114033734182826
 51
89.2764619795063368
  0
ARC
  5
1931E
  8
0
 10
4061.0130597838051472
 20
175.5291448263400014
 30
0.0
 40
0.0162488259048989
 50
20.9328622824732911
 51
55.2962596402885609
  0
ARC
  5
1931F
  8
0
 10
4061.0167249194391843
 20
175.5308446413397121
 30
0.0
 40
0.0122214570789674
 50
355.9246945276710221
 51
19.6286528306235191
  0
ARC
  5
19320
  8
0
 10
4061.0138145028568033
 20
175.5309498236740069
 30
0.0
 40
0.0151323329761961
 50
342.2280093890946091
 51
356.310597704012082
  0
ARC
  5
19321
  8
0
 10
4061.0125294498961921
 20
175.5314229837294988
 30
0.0
 40
0.0165005872815783
 50
320.5760510092146092
 51
342.0254179140031852
  0
ARC
  5
19322
  8
0
 10
4061.0085117976850597
 20
175.5349653959314082
 30
0.0
 40
0.0218544997694999
 50
292.5372131709056021
 51
320.0910927641933768
  0
ARC
  5
19323
  8
0
 10
4061.005420865375072
 20
175.5419842106580859
 30
0.0
 40
0.0295224555372933
 50
268.6923593592632074
 51
292.856827735931688
  0
ARC
  5
19324
  8
0
 10
4061.002653639791788
 20
175.5359336822594969
 30
0.0
 40
0.0229416127743103
 50
231.1342677831410981
 51
244.3315776295332
  0
ARC
  5
19325
  8
0
 10
4060.9995087910010625
 20
175.532279572657103
 30
0.0
 40
0.0181237391633435
 50
204.2872149242857915
 51
231.6264768153669138
  0
ARC
  5
19326
  8
0
 10
4060.996672887816203
 20
175.5308869827323122
 30
0.0
 40
0.0149663935905065
 50
176.7145128345750891
 51
203.8932772991227012
  0
ARC
  5
19327
  8
0
 10
4060.9946925952931451
 20
175.530675886166506
 30
0.0
 40
0.0130054966334058
 50
146.1436081441474926
 51
175.2859131453955968
  0
ARC
  5
19328
  8
0
 10
4060.9995027420691258
 20
175.5272731609940138
 30
0.0
 40
0.0188962851505126
 50
120.7897639002468964
 51
145.7010630370454862
  0
ARC
  5
19329
  8
0
 10
4061.0050507882751845
 20
175.5173445714140996
 30
0.0
 40
0.0302670921759264
 50
87.6482218531213135
 51
120.1910272397954031
  0
ARC
  5
1932A
  8
0
 10
4061.00512455568105
 20
175.5414635886388055
 30
0.0
 40
0.0289966013830392
 50
244.6640758317086863
 51
269.2542323531046122
  0
ARC
  5
1932B
  8
0
 10
4061.0053867419192102
 20
175.5355711120195963
 30
0.0
 40
0.0185923488158952
 50
269.7442606393860274
 51
288.9192794619472124
  0
ARC
  5
1932C
  8
0
 10
4061.0065122278701892
 20
175.5322408668930905
 30
0.0
 40
0.0150771006022448
 50
288.9766678707892993
 51
302.0054758641663284
  0
ARC
  5
1932D
  8
0
 10
4061.0056218277891276
 20
175.5193520901379998
 30
0.0
 40
0.0171143241914516
 50
57.990326719175151
 51
91.0912301414281131
  0
ARC
  5
1932E
  8
0
 10
4061.0098384575589989
 20
175.5257617634026133
 30
0.0
 40
0.0094457867846938
 50
18.9530933820168492
 51
59.0700974018845315
  0
ARC
  5
1932F
  8
0
 10
4061.0680558687517987
 20
175.5192258843360094
 30
0.0
 40
0.0172389893607023
 50
89.228389724111608
 51
122.3744172389967986
  0
ARC
  5
19330
  8
0
 10
4061.0752282143671437
 20
175.5267279843324104
 30
0.0
 40
0.0068656506586335
 50
350.0170261959028721
 51
17.8255646942772792
  0
ARC
  5
19331
  8
0
 10
4061.0742065516678849
 20
175.5269726899645946
 30
0.0
 40
0.0079145236307497
 50
323.1515603953786808
 51
349.554502739617817
  0
ARC
  5
19332
  8
0
 10
4061.0716693628451139
 20
175.5289155498134903
 30
0.0
 40
0.0111100279204189
 50
301.6264090746806801
 51
322.9804915264755891
  0
ARC
  5
19333
  8
0
 10
4061.0682383525149817
 20
175.5354665120262041
 30
0.0
 40
0.0184876531248613
 50
249.9182121147021007
 51
270.1782900583842775
  0
ARC
  5
19334
  8
0
 10
4061.066279739618949
 20
175.5305332152128983
 30
0.0
 40
0.0131825766178786
 50
223.5512996858952022
 51
250.5511951727212931
  0
ARC
  5
19335
  8
0
 10
4061.0625627671338407
 20
175.5269904517718942
 30
0.0
 40
0.0080476973503088
 50
186.3111982218132994
 51
223.5040454053753081
  0
ARC
  5
19336
  8
0
 10
4061.0616900381291998
 20
175.5267030120594995
 30
0.0
 40
0.0071511778164095
 50
154.2726404410855992
 51
184.7906496159135088
  0
ARC
  5
19337
  8
0
 10
4061.0642642639181759
 20
175.5252964141346865
 30
0.0
 40
0.0100819210422961
 50
122.6483341477785984
 51
153.4217599213081087
  0
ARC
  5
19338
  8
0
 10
4061.0689195510340141
 20
175.5186550020573861
 30
0.0
 40
0.0289334751393148
 50
55.5114033734182826
 51
89.2764619795063368
  0
ARC
  5
19339
  8
0
 10
4061.076051909796206
 20
175.5291448263400014
 30
0.0
 40
0.0162488259048989
 50
20.9328622824732911
 51
55.2962596402885609
  0
ARC
  5
1933A
  8
0
 10
4061.0797170454288789
 20
175.5308446413397121
 30
0.0
 40
0.0122214570789674
 50
355.9246945276710221
 51
19.6286528306235191
  0
ARC
  5
1933B
  8
0
 10
4061.0768066288469527
 20
175.5309498236740069
 30
0.0
 40
0.0151323329761961
 50
342.2280093890946091
 51
356.310597704012082
  0
ARC
  5
1933C
  8
0
 10
4061.0755215758858867
 20
175.5314229837294988
 30
0.0
 40
0.0165005872815783
 50
320.5760510092146092
 51
342.0254179140031852
  0
ARC
  5
1933D
  8
0
 10
4061.0715039236752091
 20
175.5349653959314082
 30
0.0
 40
0.0218544997694999
 50
292.5372131709056021
 51
320.0910927641933768
  0
ARC
  5
1933E
  8
0
 10
4061.0684129913652214
 20
175.5419842106580859
 30
0.0
 40
0.0295224555372933
 50
268.6923593592632074
 51
292.856827735931688
  0
ARC
  5
1933F
  8
0
 10
4061.0656457657828469
 20
175.5359336822594969
 30
0.0
 40
0.0229416127743103
 50
231.1342677831410981
 51
244.3315776295332
  0
ARC
  5
19340
  8
0
 10
4061.0625009169921213
 20
175.532279572657103
 30
0.0
 40
0.0181237391633435
 50
204.2872149242857915
 51
231.6264768153669138
  0
ARC
  5
19341
  8
0
 10
4061.0596650138058976
 20
175.5308869827323122
 30
0.0
 40
0.0149663935905065
 50
176.7145128345750891
 51
203.8932772991227012
  0
ARC
  5
19342
  8
0
 10
4061.0576847212828397
 20
175.530675886166506
 30
0.0
 40
0.0130054966334058
 50
146.1436081441474926
 51
175.2859131453955968
  0
ARC
  5
19343
  8
0
 10
4061.0624948680601847
 20
175.5272731609940138
 30
0.0
 40
0.0188962851505126
 50
120.7897639002468964
 51
145.7010630370454862
  0
ARC
  5
19344
  8
0
 10
4061.0680429142648791
 20
175.5173445714140996
 30
0.0
 40
0.0302670921759264
 50
87.6482218531213135
 51
120.1910272397954031
  0
ARC
  5
19345
  8
0
 10
4061.0681166816721088
 20
175.5414635886388055
 30
0.0
 40
0.0289966013830392
 50
244.6640758317086863
 51
269.2542323531046122
  0
ARC
  5
19346
  8
0
 10
4061.0683788679098143
 20
175.5355711120195963
 30
0.0
 40
0.0185923488158952
 50
269.7442606393860274
 51
288.9192794619472124
  0
ARC
  5
19347
  8
0
 10
4061.0695043538598838
 20
175.5322408668930905
 30
0.0
 40
0.0150771006022448
 50
288.9766678707892993
 51
302.0054758641663284
  0
ARC
  5
19348
  8
0
 10
4061.0686139537788222
 20
175.5193520901379998
 30
0.0
 40
0.0171143241914516
 50
57.990326719175151
 51
91.0912301414281131
  0
ARC
  5
19349
  8
0
 10
4061.0728305835491483
 20
175.5257617634026133
 30
0.0
 40
0.0094457867846938
 50
18.9530933820168492
 51
59.0700974018845315
  0
ARC
  5
1934A
  8
0
 10
4059.9027015380538614
 20
175.5665519287360041
 30
0.0
 40
0.0172389893607023
 50
89.228389724111608
 51
122.3744172389967986
  0
ARC
  5
1934B
  8
0
 10
4059.9098738836669327
 20
175.5740540287324052
 30
0.0
 40
0.0068656506586335
 50
350.0170261959028721
 51
17.8255646942772792
  0
ARC
  5
1934C
  8
0
 10
4059.9088522209699477
 20
175.5742987343645893
 30
0.0
 40
0.0079145236307497
 50
323.1515603953786808
 51
349.554502739617817
  0
ARC
  5
1934D
  8
0
 10
4059.9063150321449029
 20
175.5762415942135135
 30
0.0
 40
0.0111100279204189
 50
301.6264090746806801
 51
322.9804915264755891
  0
ARC
  5
1934E
  8
0
 10
4059.9028840218152254
 20
175.5827925564261989
 30
0.0
 40
0.0184876531248613
 50
249.9182121147021007
 51
270.1782900583842775
  0
ARC
  5
1934F
  8
0
 10
4059.9009254089201022
 20
175.5778592596128931
 30
0.0
 40
0.0131825766178786
 50
223.5512996858952022
 51
250.5511951727212931
  0
ARC
  5
19350
  8
0
 10
4059.8972084364349939
 20
175.574316496171889
 30
0.0
 40
0.0080476973503088
 50
186.3111982218132994
 51
223.5040454053753081
  0
ARC
  5
19351
  8
0
 10
4059.8963357074298983
 20
175.5740290564594943
 30
0.0
 40
0.0071511778164095
 50
154.2726404410855992
 51
184.7906496159135088
  0
ARC
  5
19352
  8
0
 10
4059.8989099332188744
 20
175.5726224585347097
 30
0.0
 40
0.0100819210422961
 50
122.6483341477785984
 51
153.4217599213081087
  0
ARC
  5
19353
  8
0
 10
4059.9035652203338032
 20
175.5659810464574093
 30
0.0
 40
0.0289334751393148
 50
55.5114033734182826
 51
89.2764619795063368
  0
ARC
  5
19354
  8
0
 10
4059.9106975790969045
 20
175.5764708707399961
 30
0.0
 40
0.0162488259048989
 50
20.9328622824732911
 51
55.2962596402885609
  0
ARC
  5
19355
  8
0
 10
4059.9143627147309417
 20
175.5781706857397069
 30
0.0
 40
0.0122214570789674
 50
355.9246945276710221
 51
19.6286528306235191
  0
ARC
  5
19356
  8
0
 10
4059.9114522981481059
 20
175.578275868073888
 30
0.0
 40
0.0151323329761961
 50
342.2280093890946091
 51
356.310597704012082
  0
ARC
  5
19357
  8
0
 10
4059.9101672451861305
 20
175.5787490281294936
 30
0.0
 40
0.0165005872815783
 50
320.5760510092146092
 51
342.0254179140031852
  0
ARC
  5
19358
  8
0
 10
4059.9061495929759076
 20
175.582291440331403
 30
0.0
 40
0.0218544997694999
 50
292.5372131709056021
 51
320.0910927641933768
  0
ARC
  5
19359
  8
0
 10
4059.9030586606650104
 20
175.5893102550581091
 30
0.0
 40
0.0295224555372933
 50
268.6923593592632074
 51
292.856827735931688
  0
ARC
  5
1935A
  8
0
 10
4059.9002914350830906
 20
175.5832597266594917
 30
0.0
 40
0.0229416127743103
 50
231.1342677831410981
 51
244.3315776295332
  0
ARC
  5
1935B
  8
0
 10
4059.8971465862919104
 20
175.5796056170570978
 30
0.0
 40
0.0181237391633435
 50
204.2872149242857915
 51
231.6264768153669138
  0
ARC
  5
1935C
  8
0
 10
4059.8943106831079604
 20
175.5782130271323069
 30
0.0
 40
0.0149663935905065
 50
176.7145128345750891
 51
203.8932772991227012
  0
ARC
  5
1935D
  8
0
 10
4059.892330390583993
 20
175.5780019305665007
 30
0.0
 40
0.0130054966334058
 50
146.1436081441474926
 51
175.2859131453955968
  0
ARC
  5
1935E
  8
0
 10
4059.8971405373599737
 20
175.5745992053940085
 30
0.0
 40
0.0188962851505126
 50
120.7897639002468964
 51
145.7010630370454862
  0
ARC
  5
1935F
  8
0
 10
4059.9026885835660323
 20
175.5646706158140091
 30
0.0
 40
0.0302670921759264
 50
87.6482218531213135
 51
120.1910272397954031
  0
ARC
  5
19360
  8
0
 10
4059.9027623509728073
 20
175.5887896330388003
 30
0.0
 40
0.0289966013830392
 50
244.6640758317086863
 51
269.2542323531046122
  0
ARC
  5
19361
  8
0
 10
4059.903024537210058
 20
175.5828971564197047
 30
0.0
 40
0.0185923488158952
 50
269.7442606393860274
 51
288.9192794619472124
  0
ARC
  5
19362
  8
0
 10
4059.9041500231610371
 20
175.579566911293
 30
0.0
 40
0.0150771006022448
 50
288.9766678707892993
 51
302.0054758641663284
  0
ARC
  5
19363
  8
0
 10
4059.9032596230799754
 20
175.5666781345379093
 30
0.0
 40
0.0171143241914516
 50
57.990326719175151
 51
91.0912301414281131
  0
ARC
  5
19364
  8
0
 10
4059.907476252851211
 20
175.573087807802608
 30
0.0
 40
0.0094457867846938
 50
18.9530933820168492
 51
59.0700974018845315
  0
ARC
  5
19365
  8
0
 10
4059.9655955508242187
 20
175.5665541835215038
 30
0.0
 40
0.0172389893607023
 50
89.228389724111608
 51
122.3744172389967986
  0
ARC
  5
19366
  8
0
 10
4059.9727678964391089
 20
175.5740562835179901
 30
0.0
 40
0.0068656506586335
 50
350.0170261959028721
 51
17.8255646942772792
  0
ARC
  5
19367
  8
0
 10
4059.9717462337412144
 20
175.5743009891502027
 30
0.0
 40
0.0079145236307497
 50
323.1515603953786808
 51
349.554502739617817
  0
ARC
  5
19368
  8
0
 10
4059.9692090449170792
 20
175.5762438489990984
 30
0.0
 40
0.0111100279204189
 50
301.6264090746806801
 51
322.9804915264755891
  0
ARC
  5
19369
  8
0
 10
4059.9657780345869469
 20
175.5827948112118122
 30
0.0
 40
0.0184876531248613
 50
249.9182121147021007
 51
270.1782900583842775
  0
ARC
  5
1936A
  8
0
 10
4059.9638194216918237
 20
175.5778615143985064
 30
0.0
 40
0.0131825766178786
 50
223.5512996858952022
 51
250.5511951727212931
  0
ARC
  5
1936B
  8
0
 10
4059.9601024492058059
 20
175.5743187509573886
 30
0.0
 40
0.0080476973503088
 50
186.3111982218132994
 51
223.5040454053753081
  0
ARC
  5
1936C
  8
0
 10
4059.9592297202020745
 20
175.5740313112451076
 30
0.0
 40
0.0071511778164095
 50
154.2726404410855992
 51
184.7906496159135088
  0
ARC
  5
1936D
  8
0
 10
4059.9618039459910506
 20
175.5726247133202946
 30
0.0
 40
0.0100819210422961
 50
122.6483341477785984
 51
153.4217599213081087
  0
ARC
  5
1936E
  8
0
 10
4059.9664592331050699
 20
175.5659833012429942
 30
0.0
 40
0.0289334751393148
 50
55.5114033734182826
 51
89.2764619795063368
  0
ARC
  5
1936F
  8
0
 10
4059.9735915918681712
 20
175.5764731255256095
 30
0.0
 40
0.0162488259048989
 50
20.9328622824732911
 51
55.2962596402885609
  0
ARC
  5
19370
  8
0
 10
4059.9772567275008441
 20
175.5781729405252065
 30
0.0
 40
0.0122214570789674
 50
355.9246945276710221
 51
19.6286528306235191
  0
ARC
  5
19371
  8
0
 10
4059.9743463109189179
 20
175.5782781228595013
 30
0.0
 40
0.0151323329761961
 50
342.2280093890946091
 51
356.310597704012082
  0
ARC
  5
19372
  8
0
 10
4059.9730612579578519
 20
175.5787512829151069
 30
0.0
 40
0.0165005872815783
 50
320.5760510092146092
 51
342.0254179140031852
  0
ARC
  5
19373
  8
0
 10
4059.9690436057471743
 20
175.5822936951169879
 30
0.0
 40
0.0218544997694999
 50
292.5372131709056021
 51
320.0910927641933768
  0
ARC
  5
19374
  8
0
 10
4059.9659526734371866
 20
175.589312509843694
 30
0.0
 40
0.0295224555372933
 50
268.6923593592632074
 51
292.856827735931688
  0
ARC
  5
19375
  8
0
 10
4059.9631854478548121
 20
175.5832619814449913
 30
0.0
 40
0.0229416127743103
 50
231.1342677831410981
 51
244.3315776295332
  0
ARC
  5
19376
  8
0
 10
4059.9600405990631771
 20
175.5796078718427111
 30
0.0
 40
0.0181237391633435
 50
204.2872149242857915
 51
231.6264768153669138
  0
ARC
  5
19377
  8
0
 10
4059.9572046958778628
 20
175.5782152819178066
 30
0.0
 40
0.0149663935905065
 50
176.7145128345750891
 51
203.8932772991227012
  0
ARC
  5
19378
  8
0
 10
4059.955224403354805
 20
175.5780041853521141
 30
0.0
 40
0.0130054966334058
 50
146.1436081441474926
 51
175.2859131453955968
  0
ARC
  5
19379
  8
0
 10
4059.9600345501307856
 20
175.5746014601795935
 30
0.0
 40
0.0188962851505126
 50
120.7897639002468964
 51
145.7010630370454862
  0
ARC
  5
1937A
  8
0
 10
4059.9655825963368443
 20
175.564672870599594
 30
0.0
 40
0.0302670921759264
 50
87.6482218531213135
 51
120.1910272397954031
  0
ARC
  5
1937B
  8
0
 10
4059.9656563637431645
 20
175.5887918878242999
 30
0.0
 40
0.0289966013830392
 50
244.6640758317086863
 51
269.2542323531046122
  0
ARC
  5
1937C
  8
0
 10
4059.96591854998087
 20
175.5828994112052044
 30
0.0
 40
0.0185923488158952
 50
269.7442606393860274
 51
288.9192794619472124
  0
ARC
  5
1937D
  8
0
 10
4059.9670440359318491
 20
175.5795691660786133
 30
0.0
 40
0.0150771006022448
 50
288.9766678707892993
 51
302.0054758641663284
  0
ARC
  5
1937E
  8
0
 10
4059.9661536358498779
 20
175.5666803893234942
 30
0.0
 40
0.0171143241914516
 50
57.990326719175151
 51
91.0912301414281131
  0
ARC
  5
1937F
  8
0
 10
4059.9703702656211135
 20
175.5730900625881077
 30
0.0
 40
0.0094457867846938
 50
18.9530933820168492
 51
59.0700974018845315
  0
ARC
  5
19380
  8
0
 10
4060.028587676818006
 20
175.5665541835215038
 30
0.0
 40
0.0172389893607023
 50
89.228389724111608
 51
122.3744172389967986
  0
ARC
  5
19381
  8
0
 10
4060.0357600224319867
 20
175.5740562835179901
 30
0.0
 40
0.0068656506586335
 50
350.0170261959028721
 51
17.8255646942772792
  0
ARC
  5
19382
  8
0
 10
4060.0347383597350017
 20
175.5743009891502027
 30
0.0
 40
0.0079145236307497
 50
323.1515603953786808
 51
349.554502739617817
  0
ARC
  5
19383
  8
0
 10
4060.0322011709108665
 20
175.5762438489990984
 30
0.0
 40
0.0111100279204189
 50
301.6264090746806801
 51
322.9804915264755891
  0
ARC
  5
19384
  8
0
 10
4060.028770160581189
 20
175.5827948112118122
 30
0.0
 40
0.0184876531248613
 50
249.9182121147021007
 51
270.1782900583842775
  0
ARC
  5
19385
  8
0
 10
4060.0268115476851563
 20
175.5778615143985064
 30
0.0
 40
0.0131825766178786
 50
223.5512996858952022
 51
250.5511951727212931
  0
ARC
  5
19386
  8
0
 10
4060.023094575200048
 20
175.5743187509573886
 30
0.0
 40
0.0080476973503088
 50
186.3111982218132994
 51
223.5040454053753081
  0
ARC
  5
19387
  8
0
 10
4060.0222218461949524
 20
175.5740313112451076
 30
0.0
 40
0.0071511778164095
 50
154.2726404410855992
 51
184.7906496159135088
  0
ARC
  5
19388
  8
0
 10
4060.0247960719839284
 20
175.5726247133202946
 30
0.0
 40
0.0100819210422961
 50
122.6483341477785984
 51
153.4217599213081087
  0
ARC
  5
19389
  8
0
 10
4060.0294513590988572
 20
175.5659833012429942
 30
0.0
 40
0.0289334751393148
 50
55.5114033734182826
 51
89.2764619795063368
  0
ARC
  5
1938A
  8
0
 10
4060.0365837178610491
 20
175.5764731255256095
 30
0.0
 40
0.0162488259048989
 50
20.9328622824732911
 51
55.2962596402885609
  0
ARC
  5
1938B
  8
0
 10
4060.0402488534950862
 20
175.5781729405252065
 30
0.0
 40
0.0122214570789674
 50
355.9246945276710221
 51
19.6286528306235191
  0
ARC
  5
1938C
  8
0
 10
4060.03733843691316
 20
175.5782781228595013
 30
0.0
 40
0.0151323329761961
 50
342.2280093890946091
 51
356.310597704012082
  0
ARC
  5
1938D
  8
0
 10
4060.0360533839511845
 20
175.5787512829151069
 30
0.0
 40
0.0165005872815783
 50
320.5760510092146092
 51
342.0254179140031852
  0
ARC
  5
1938E
  8
0
 10
4060.0320357317400521
 20
175.5822936951169879
 30
0.0
 40
0.0218544997694999
 50
292.5372131709056021
 51
320.0910927641933768
  0
ARC
  5
1938F
  8
0
 10
4060.0289447994300644
 20
175.589312509843694
 30
0.0
 40
0.0295224555372933
 50
268.6923593592632074
 51
292.856827735931688
  0
ARC
  5
19390
  8
0
 10
4060.0261775738481447
 20
175.5832619814449913
 30
0.0
 40
0.0229416127743103
 50
231.1342677831410981
 51
244.3315776295332
  0
ARC
  5
19391
  8
0
 10
4060.0230327250569644
 20
175.5796078718427111
 30
0.0
 40
0.0181237391633435
 50
204.2872149242857915
 51
231.6264768153669138
  0
ARC
  5
19392
  8
0
 10
4060.0201968218721049
 20
175.5782152819178066
 30
0.0
 40
0.0149663935905065
 50
176.7145128345750891
 51
203.8932772991227012
  0
ARC
  5
19393
  8
0
 10
4060.0182165293490471
 20
175.5780041853521141
 30
0.0
 40
0.0130054966334058
 50
146.1436081441474926
 51
175.2859131453955968
  0
ARC
  5
19394
  8
0
 10
4060.0230266761250277
 20
175.5746014601795935
 30
0.0
 40
0.0188962851505126
 50
120.7897639002468964
 51
145.7010630370454862
  0
ARC
  5
19395
  8
0
 10
4060.0285747223310864
 20
175.564672870599594
 30
0.0
 40
0.0302670921759264
 50
87.6482218531213135
 51
120.1910272397954031
  0
ARC
  5
19396
  8
0
 10
4060.0286484897378614
 20
175.5887918878242999
 30
0.0
 40
0.0289966013830392
 50
244.6640758317086863
 51
269.2542323531046122
  0
ARC
  5
19397
  8
0
 10
4060.0289106759751121
 20
175.5828994112052044
 30
0.0
 40
0.0185923488158952
 50
269.7442606393860274
 51
288.9192794619472124
  0
ARC
  5
19398
  8
0
 10
4060.0300361619270006
 20
175.5795691660786133
 30
0.0
 40
0.0150771006022448
 50
288.9766678707892993
 51
302.0054758641663284
  0
ARC
  5
19399
  8
0
 10
4060.0291457618450295
 20
175.5666803893234942
 30
0.0
 40
0.0171143241914516
 50
57.990326719175151
 51
91.0912301414281131
  0
ARC
  5
1939A
  8
0
 10
4060.0333623916158103
 20
175.5730900625881077
 30
0.0
 40
0.0094457867846938
 50
18.9530933820168492
 51
59.0700974018845315
  0
ARC
  5
1939B
  8
0
 10
4060.0915798028058816
 20
175.5665541835215038
 30
0.0
 40
0.0172389893607023
 50
89.228389724111608
 51
122.3744172389967986
  0
ARC
  5
1939C
  8
0
 10
4060.0987521484198624
 20
175.5740562835179901
 30
0.0
 40
0.0068656506586335
 50
350.0170261959028721
 51
17.8255646942772792
  0
ARC
  5
1939D
  8
0
 10
4060.0977304857228773
 20
175.5743009891502027
 30
0.0
 40
0.0079145236307497
 50
323.1515603953786808
 51
349.554502739617817
  0
ARC
  5
1939E
  8
0
 10
4060.0951932968978326
 20
175.5762438489990984
 30
0.0
 40
0.0111100279204189
 50
301.6264090746806801
 51
322.9804915264755891
  0
ARC
  5
1939F
  8
0
 10
4060.0917622865690646
 20
175.5827948112118122
 30
0.0
 40
0.0184876531248613
 50
249.9182121147021007
 51
270.1782900583842775
  0
ARC
  5
193A0
  8
0
 10
4060.0898036736730319
 20
175.5778615143985064
 30
0.0
 40
0.0131825766178786
 50
223.5512996858952022
 51
250.5511951727212931
  0
ARC
  5
193A1
  8
0
 10
4060.0860867011879236
 20
175.5743187509573886
 30
0.0
 40
0.0080476973503088
 50
186.3111982218132994
 51
223.5040454053753081
  0
ARC
  5
193A2
  8
0
 10
4060.085213972182828
 20
175.5740313112451076
 30
0.0
 40
0.0071511778164095
 50
154.2726404410855992
 51
184.7906496159135088
  0
ARC
  5
193A3
  8
0
 10
4060.087788197971804
 20
175.5726247133202946
 30
0.0
 40
0.0100819210422961
 50
122.6483341477785984
 51
153.4217599213081087
  0
ARC
  5
193A4
  8
0
 10
4060.0924434850871876
 20
175.5659833012429942
 30
0.0
 40
0.0289334751393148
 50
55.5114033734182826
 51
89.2764619795063368
  0
ARC
  5
193A5
  8
0
 10
4060.0995758438489247
 20
175.5764731255256095
 30
0.0
 40
0.0162488259048989
 50
20.9328622824732911
 51
55.2962596402885609
  0
ARC
  5
193A6
  8
0
 10
4060.1032409794829618
 20
175.5781729405252065
 30
0.0
 40
0.0122214570789674
 50
355.9246945276710221
 51
19.6286528306235191
  0
ARC
  5
193A7
  8
0
 10
4060.1003305629010356
 20
175.5782781228595013
 30
0.0
 40
0.0151323329761961
 50
342.2280093890946091
 51
356.310597704012082
  0
ARC
  5
193A8
  8
0
 10
4060.0990455099390601
 20
175.5787512829151069
 30
0.0
 40
0.0165005872815783
 50
320.5760510092146092
 51
342.0254179140031852
  0
ARC
  5
193A9
  8
0
 10
4060.0950278577288373
 20
175.5822936951169879
 30
0.0
 40
0.0218544997694999
 50
292.5372131709056021
 51
320.0910927641933768
  0
ARC
  5
193AA
  8
0
 10
4060.0919369254188496
 20
175.589312509843694
 30
0.0
 40
0.0295224555372933
 50
268.6923593592632074
 51
292.856827735931688
  0
ARC
  5
193AB
  8
0
 10
4060.0891696998360203
 20
175.5832619814449913
 30
0.0
 40
0.0229416127743103
 50
231.1342677831410981
 51
244.3315776295332
  0
ARC
  5
193AC
  8
0
 10
4060.0860248510439305
 20
175.5796078718427111
 30
0.0
 40
0.0181237391633435
 50
204.2872149242857915
 51
231.6264768153669138
  0
ARC
  5
193AD
  8
0
 10
4060.083188947859071
 20
175.5782152819178066
 30
0.0
 40
0.0149663935905065
 50
176.7145128345750891
 51
203.8932772991227012
  0
ARC
  5
193AE
  8
0
 10
4060.0812086553369227
 20
175.5780041853521141
 30
0.0
 40
0.0130054966334058
 50
146.1436081441474926
 51
175.2859131453955968
  0
ARC
  5
193AF
  8
0
 10
4060.0860188021119939
 20
175.5746014601795935
 30
0.0
 40
0.0188962851505126
 50
120.7897639002468964
 51
145.7010630370454862
  0
ARC
  5
193B0
  8
0
 10
4060.0915668483198715
 20
175.564672870599594
 30
0.0
 40
0.0302670921759264
 50
87.6482218531213135
 51
120.1910272397954031
  0
ARC
  5
193B1
  8
0
 10
4060.0916406157261918
 20
175.5887918878242999
 30
0.0
 40
0.0289966013830392
 50
244.6640758317086863
 51
269.2542323531046122
  0
ARC
  5
193B2
  8
0
 10
4060.0919028019629877
 20
175.5828994112052044
 30
0.0
 40
0.0185923488158952
 50
269.7442606393860274
 51
288.9192794619472124
  0
ARC
  5
193B3
  8
0
 10
4060.0930282879148763
 20
175.5795691660786133
 30
0.0
 40
0.0150771006022448
 50
288.9766678707892993
 51
302.0054758641663284
  0
ARC
  5
193B4
  8
0
 10
4060.0921378878329051
 20
175.5666803893234942
 30
0.0
 40
0.0171143241914516
 50
57.990326719175151
 51
91.0912301414281131
  0
ARC
  5
193B5
  8
0
 10
4060.0963545176027765
 20
175.5730900625881077
 30
0.0
 40
0.0094457867846938
 50
18.9530933820168492
 51
59.0700974018845315
  0
ARC
  5
193B6
  8
0
 10
4060.1546700419821718
 20
175.5665519287360041
 30
0.0
 40
0.0172389893607023
 50
89.228389724111608
 51
122.3744172389967986
  0
ARC
  5
193B7
  8
0
 10
4060.1618423875961525
 20
175.5740540287324052
 30
0.0
 40
0.0068656506586335
 50
350.0170261959028721
 51
17.8255646942772792
  0
ARC
  5
193B8
  8
0
 10
4060.1608207248978033
 20
175.5742987343645893
 30
0.0
 40
0.0079145236307497
 50
323.1515603953786808
 51
349.554502739617817
  0
ARC
  5
193B9
  8
0
 10
4060.1582835360741228
 20
175.5762415942135135
 30
0.0
 40
0.0111100279204189
 50
301.6264090746806801
 51
322.9804915264755891
  0
ARC
  5
193BA
  8
0
 10
4060.1548525257439906
 20
175.5827925564261989
 30
0.0
 40
0.0184876531248613
 50
249.9182121147021007
 51
270.1782900583842775
  0
ARC
  5
193BB
  8
0
 10
4060.1528939128488673
 20
175.5778592596128931
 30
0.0
 40
0.0131825766178786
 50
223.5512996858952022
 51
250.5511951727212931
  0
ARC
  5
193BC
  8
0
 10
4060.1491769403628496
 20
175.574316496171889
 30
0.0
 40
0.0080476973503088
 50
186.3111982218132994
 51
223.5040454053753081
  0
ARC
  5
193BD
  8
0
 10
4060.1483042113591182
 20
175.5740290564594943
 30
0.0
 40
0.0071511778164095
 50
154.2726404410855992
 51
184.7906496159135088
  0
ARC
  5
193BE
  8
0
 10
4060.1508784371480942
 20
175.5726224585347097
 30
0.0
 40
0.0100819210422961
 50
122.6483341477785984
 51
153.4217599213081087
  0
ARC
  5
193BF
  8
0
 10
4060.1555337242621135
 20
175.5659810464574093
 30
0.0
 40
0.0289334751393148
 50
55.5114033734182826
 51
89.2764619795063368
  0
ARC
  5
193C0
  8
0
 10
4060.1626660830261244
 20
175.5764708707399961
 30
0.0
 40
0.0162488259048989
 50
20.9328622824732911
 51
55.2962596402885609
  0
ARC
  5
193C1
  8
0
 10
4060.1663312186587973
 20
175.5781706857397069
 30
0.0
 40
0.0122214570789674
 50
355.9246945276710221
 51
19.6286528306235191
  0
ARC
  5
193C2
  8
0
 10
4060.1634208020759615
 20
175.578275868073888
 30
0.0
 40
0.0151323329761961
 50
342.2280093890946091
 51
356.310597704012082
  0
ARC
  5
193C3
  8
0
 10
4060.1621357491148956
 20
175.5787490281294936
 30
0.0
 40
0.0165005872815783
 50
320.5760510092146092
 51
342.0254179140031852
  0
ARC
  5
193C4
  8
0
 10
4060.1581180969051275
 20
175.582291440331403
 30
0.0
 40
0.0218544997694999
 50
292.5372131709056021
 51
320.0910927641933768
  0
ARC
  5
193C5
  8
0
 10
4060.1550271645937755
 20
175.5893102550581091
 30
0.0
 40
0.0295224555372933
 50
268.6923593592632074
 51
292.856827735931688
  0
ARC
  5
193C6
  8
0
 10
4060.1522599390118557
 20
175.5832597266594917
 30
0.0
 40
0.0229416127743103
 50
231.1342677831410981
 51
244.3315776295332
  0
ARC
  5
193C7
  8
0
 10
4060.1491150902202207
 20
175.5796056170570978
 30
0.0
 40
0.0181237391633435
 50
204.2872149242857915
 51
231.6264768153669138
  0
ARC
  5
193C8
  8
0
 10
4060.146279187035816
 20
175.5782130271323069
 30
0.0
 40
0.0149663935905065
 50
176.7145128345750891
 51
203.8932772991227012
  0
ARC
  5
193C9
  8
0
 10
4060.1442988945118486
 20
175.5780019305665007
 30
0.0
 40
0.0130054966334058
 50
146.1436081441474926
 51
175.2859131453955968
  0
ARC
  5
193CA
  8
0
 10
4060.1491090412878293
 20
175.5745992053940085
 30
0.0
 40
0.0188962851505126
 50
120.7897639002468964
 51
145.7010630370454862
  0
ARC
  5
193CB
  8
0
 10
4060.1546570874947975
 20
175.5646706158140091
 30
0.0
 40
0.0302670921759264
 50
87.6482218531213135
 51
120.1910272397954031
  0
ARC
  5
193CC
  8
0
 10
4060.1547308549011177
 20
175.5887896330388003
 30
0.0
 40
0.0289966013830392
 50
244.6640758317086863
 51
269.2542323531046122
  0
ARC
  5
193CD
  8
0
 10
4060.1549930411388232
 20
175.5828971564197047
 30
0.0
 40
0.0185923488158952
 50
269.7442606393860274
 51
288.9192794619472124
  0
ARC
  5
193CE
  8
0
 10
4060.1561185270898022
 20
175.579566911293
 30
0.0
 40
0.0150771006022448
 50
288.9766678707892993
 51
302.0054758641663284
  0
ARC
  5
193CF
  8
0
 10
4060.1552281270078311
 20
175.5666781345379945
 30
0.0
 40
0.0171143241914516
 50
57.990326719175151
 51
91.0912301414281131
  0
ARC
  5
193D0
  8
0
 10
4060.1594447567799762
 20
175.573087807802608
 30
0.0
 40
0.0094457867846938
 50
18.9530933820168492
 51
59.0700974018845315
  0
ARC
  5
193D1
  8
0
 10
4060.2175640547520743
 20
175.5665541835215038
 30
0.0
 40
0.0172389893607023
 50
89.228389724111608
 51
122.3744172389967986
  0
ARC
  5
193D2
  8
0
 10
4060.2247364003669645
 20
175.5740562835179901
 30
0.0
 40
0.0068656506586335
 50
350.0170261959028721
 51
17.8255646942772792
  0
ARC
  5
193D3
  8
0
 10
4060.22371473766907
 20
175.5743009891502027
 30
0.0
 40
0.0079145236307497
 50
323.1515603953786808
 51
349.554502739617817
  0
ARC
  5
193D4
  8
0
 10
4060.2211775488458443
 20
175.5762438489990984
 30
0.0
 40
0.0111100279204189
 50
301.6264090746806801
 51
322.9804915264755891
  0
ARC
  5
193D5
  8
0
 10
4060.2177465385161668
 20
175.5827948112118122
 30
0.0
 40
0.0184876531248613
 50
249.9182121147021007
 51
270.1782900583842775
  0
ARC
  5
193D6
  8
0
 10
4060.215787925620134
 20
175.5778615143985064
 30
0.0
 40
0.0131825766178786
 50
223.5512996858952022
 51
250.5511951727212931
  0
ARC
  5
193D7
  8
0
 10
4060.2120709531341163
 20
175.5743187509573886
 30
0.0
 40
0.0080476973503088
 50
186.3111982218132994
 51
223.5040454053753081
  0
ARC
  5
193D8
  8
0
 10
4060.2111982241299302
 20
175.5740313112451076
 30
0.0
 40
0.0071511778164095
 50
154.2726404410855992
 51
184.7906496159135088
  0
ARC
  5
193D9
  8
0
 10
4060.2137724499189062
 20
175.5726247133202946
 30
0.0
 40
0.0100819210422961
 50
122.6483341477785984
 51
153.4217599213081087
  0
ARC
  5
193DA
  8
0
 10
4060.218427737033835
 20
175.5659833012429942
 30
0.0
 40
0.0289334751393148
 50
55.5114033734182826
 51
89.2764619795063368
  0
ARC
  5
193DB
  8
0
 10
4060.2255600957960269
 20
175.5764731255256095
 30
0.0
 40
0.0162488259048989
 50
20.9328622824732911
 51
55.2962596402885609
  0
ARC
  5
193DC
  8
0
 10
4060.229225231430064
 20
175.5781729405252065
 30
0.0
 40
0.0122214570789674
 50
355.9246945276710221
 51
19.6286528306235191
  0
ARC
  5
193DD
  8
0
 10
4060.2263148148481378
 20
175.5782781228595013
 30
0.0
 40
0.0151323329761961
 50
342.2280093890946091
 51
356.310597704012082
  0
ARC
  5
193DE
  8
0
 10
4060.2250297618861623
 20
175.5787512829151069
 30
0.0
 40
0.0165005872815783
 50
320.5760510092146092
 51
342.0254179140031852
  0
ARC
  5
193DF
  8
0
 10
4060.2210121096750299
 20
175.5822936951169879
 30
0.0
 40
0.0218544997694999
 50
292.5372131709056021
 51
320.0910927641933768
  0
ARC
  5
193E0
  8
0
 10
4060.2179211773650422
 20
175.589312509843694
 30
0.0
 40
0.0295224555372933
 50
268.6923593592632074
 51
292.856827735931688
  0
ARC
  5
193E1
  8
0
 10
4060.2151539517831225
 20
175.5832619814449913
 30
0.0
 40
0.0229416127743103
 50
231.1342677831410981
 51
244.3315776295332
  0
ARC
  5
193E2
  8
0
 10
4060.2120091029919422
 20
175.5796078718427111
 30
0.0
 40
0.0181237391633435
 50
204.2872149242857915
 51
231.6264768153669138
  0
ARC
  5
193E3
  8
0
 10
4060.2091731998061732
 20
175.5782152819178066
 30
0.0
 40
0.0149663935905065
 50
176.7145128345750891
 51
203.8932772991227012
  0
ARC
  5
193E4
  8
0
 10
4060.2071929072840248
 20
175.5780041853521141
 30
0.0
 40
0.0130054966334058
 50
146.1436081441474926
 51
175.2859131453955968
  0
ARC
  5
193E5
  8
0
 10
4060.2120030540600055
 20
175.5746014601795935
 30
0.0
 40
0.0188962851505126
 50
120.7897639002468964
 51
145.7010630370454862
  0
ARC
  5
193E6
  8
0
 10
4060.2175511002660642
 20
175.564672870599594
 30
0.0
 40
0.0302670921759264
 50
87.6482218531213135
 51
120.1910272397954031
  0
ARC
  5
193E7
  8
0
 10
4060.2176248676719297
 20
175.5887918878242999
 30
0.0
 40
0.0289966013830392
 50
244.6640758317086863
 51
269.2542323531046122
  0
ARC
  5
193E8
  8
0
 10
4060.2178870539100899
 20
175.5828994112052044
 30
0.0
 40
0.0185923488158952
 50
269.7442606393860274
 51
288.9192794619472124
  0
ARC
  5
193E9
  8
0
 10
4060.2190125398610689
 20
175.5795691660786133
 30
0.0
 40
0.0150771006022448
 50
288.9766678707892993
 51
302.0054758641663284
  0
ARC
  5
193EA
  8
0
 10
4060.2181221397790978
 20
175.5666803893234942
 30
0.0
 40
0.0171143241914516
 50
57.990326719175151
 51
91.0912301414281131
  0
ARC
  5
193EB
  8
0
 10
4060.2223387695498786
 20
175.5730900625881077
 30
0.0
 40
0.0094457867846938
 50
18.9530933820168492
 51
59.0700974018845315
  0
ARC
  5
193EC
  8
0
 10
4060.2805561807472259
 20
175.5665541835215038
 30
0.0
 40
0.0172389893607023
 50
89.228389724111608
 51
122.3744172389967986
  0
ARC
  5
193ED
  8
0
 10
4060.2877285263598424
 20
175.5740562835179901
 30
0.0
 40
0.0068656506586335
 50
350.0170261959028721
 51
17.8255646942772792
  0
ARC
  5
193EE
  8
0
 10
4060.2867068636628574
 20
175.5743009891502027
 30
0.0
 40
0.0079145236307497
 50
323.1515603953786808
 51
349.554502739617817
  0
ARC
  5
193EF
  8
0
 10
4060.2841696748391769
 20
175.5762438489990984
 30
0.0
 40
0.0111100279204189
 50
301.6264090746806801
 51
322.9804915264755891
  0
ARC
  5
193F0
  8
0
 10
4060.2807386645090446
 20
175.5827948112118122
 30
0.0
 40
0.0184876531248613
 50
249.9182121147021007
 51
270.1782900583842775
  0
ARC
  5
193F1
  8
0
 10
4060.2787800516130119
 20
175.5778615143985064
 30
0.0
 40
0.0131825766178786
 50
223.5512996858952022
 51
250.5511951727212931
  0
ARC
  5
193F2
  8
0
 10
4060.2750630791288131
 20
175.5743187509573886
 30
0.0
 40
0.0080476973503088
 50
186.3111982218132994
 51
223.5040454053753081
  0
ARC
  5
193F3
  8
0
 10
4060.274190350122808
 20
175.5740313112451076
 30
0.0
 40
0.0071511778164095
 50
154.2726404410855992
 51
184.7906496159135088
  0
ARC
  5
193F4
  8
0
 10
4060.276764575911784
 20
175.5726247133202946
 30
0.0
 40
0.0100819210422961
 50
122.6483341477785984
 51
153.4217599213081087
  0
ARC
  5
193F5
  8
0
 10
4060.2814198630280771
 20
175.5659833012429942
 30
0.0
 40
0.0289334751393148
 50
55.5114033734182826
 51
89.2764619795063368
  0
ARC
  5
193F6
  8
0
 10
4060.2885522217889047
 20
175.5764731255256095
 30
0.0
 40
0.0162488259048989
 50
20.9328622824732911
 51
55.2962596402885609
  0
ARC
  5
193F7
  8
0
 10
4060.2922173574238514
 20
175.5781729405252065
 30
0.0
 40
0.0122214570789674
 50
355.9246945276710221
 51
19.6286528306235191
  0
ARC
  5
193F8
  8
0
 10
4060.2893069408410156
 20
175.5782781228595013
 30
0.0
 40
0.0151323329761961
 50
342.2280093890946091
 51
356.310597704012082
  0
ARC
  5
193F9
  8
0
 10
4060.2880218878790402
 20
175.5787512829151069
 30
0.0
 40
0.0165005872815783
 50
320.5760510092146092
 51
342.0254179140031852
  0
ARC
  5
193FA
  8
0
 10
4060.2840042356688173
 20
175.5822936951169879
 30
0.0
 40
0.0218544997694999
 50
292.5372131709056021
 51
320.0910927641933768
  0
ARC
  5
193FB
  8
0
 10
4060.2809133033588296
 20
175.589312509843694
 30
0.0
 40
0.0295224555372933
 50
268.6923593592632074
 51
292.856827735931688
  0
ARC
  5
193FC
  8
0
 10
4060.2781460777760003
 20
175.5832619814449913
 30
0.0
 40
0.0229416127743103
 50
231.1342677831410981
 51
244.3315776295332
  0
ARC
  5
193FD
  8
0
 10
4060.27500122898482
 20
175.5796078718427111
 30
0.0
 40
0.0181237391633435
 50
204.2872149242857915
 51
231.6264768153669138
  0
ARC
  5
193FE
  8
0
 10
4060.2721653258008701
 20
175.5782152819178066
 30
0.0
 40
0.0149663935905065
 50
176.7145128345750891
 51
203.8932772991227012
  0
ARC
  5
193FF
  8
0
 10
4060.2701850332769027
 20
175.5780041853521141
 30
0.0
 40
0.0130054966334058
 50
146.1436081441474926
 51
175.2859131453955968
  0
ARC
  5
19400
  8
0
 10
4060.2749951800528834
 20
175.5746014601795935
 30
0.0
 40
0.0188962851505126
 50
120.7897639002468964
 51
145.7010630370454862
  0
ARC
  5
19401
  8
0
 10
4060.2805432262598515
 20
175.564672870599594
 30
0.0
 40
0.0302670921759264
 50
87.6482218531213135
 51
120.1910272397954031
  0
ARC
  5
19402
  8
0
 10
4060.2806169936670813
 20
175.5887918878242999
 30
0.0
 40
0.0289966013830392
 50
244.6640758317086863
 51
269.2542323531046122
  0
ARC
  5
19403
  8
0
 10
4060.2808791799038772
 20
175.5828994112052044
 30
0.0
 40
0.0185923488158952
 50
269.7442606393860274
 51
288.9192794619472124
  0
ARC
  5
19404
  8
0
 10
4060.2820046658548563
 20
175.5795691660786133
 30
0.0
 40
0.0150771006022448
 50
288.9766678707892993
 51
302.0054758641663284
  0
ARC
  5
19405
  8
0
 10
4060.2811142657728851
 20
175.5666803893234942
 30
0.0
 40
0.0171143241914516
 50
57.990326719175151
 51
91.0912301414281131
  0
ARC
  5
19406
  8
0
 10
4060.2853308955441207
 20
175.5730900625881077
 30
0.0
 40
0.0094457867846938
 50
18.9530933820168492
 51
59.0700974018845315
  0
ARC
  5
19407
  8
0
 10
4060.3435483067351015
 20
175.5665541835215038
 30
0.0
 40
0.0172389893607023
 50
89.228389724111608
 51
122.3744172389967986
  0
ARC
  5
19408
  8
0
 10
4060.3507206523490822
 20
175.5740562835179901
 30
0.0
 40
0.0068656506586335
 50
350.0170261959028721
 51
17.8255646942772792
  0
ARC
  5
19409
  8
0
 10
4060.3496989896511877
 20
175.5743009891502027
 30
0.0
 40
0.0079145236307497
 50
323.1515603953786808
 51
349.554502739617817
  0
ARC
  5
1940A
  8
0
 10
4060.3471618008270525
 20
175.5762438489990984
 30
0.0
 40
0.0111100279204189
 50
301.6264090746806801
 51
322.9804915264755891
  0
ARC
  5
1940B
  8
0
 10
4060.3437307904969202
 20
175.5827948112118122
 30
0.0
 40
0.0184876531248613
 50
249.9182121147021007
 51
270.1782900583842775
  0
ARC
  5
1940C
  8
0
 10
4060.341772177601797
 20
175.5778615143985064
 30
0.0
 40
0.0131825766178786
 50
223.5512996858952022
 51
250.5511951727212931
  0
ARC
  5
1940D
  8
0
 10
4060.3380552051171435
 20
175.5743187509573886
 30
0.0
 40
0.0080476973503088
 50
186.3111982218132994
 51
223.5040454053753081
  0
ARC
  5
1940E
  8
0
 10
4060.3371824761111384
 20
175.5740313112451076
 30
0.0
 40
0.0071511778164095
 50
154.2726404410855992
 51
184.7906496159135088
  0
ARC
  5
1940F
  8
0
 10
4060.3397567019010239
 20
175.5726247133202946
 30
0.0
 40
0.0100819210422961
 50
122.6483341477785984
 51
153.4217599213081087
  0
ARC
  5
19410
  8
0
 10
4060.3444119890159527
 20
175.5659833012429942
 30
0.0
 40
0.0289334751393148
 50
55.5114033734182826
 51
89.2764619795063368
  0
ARC
  5
19411
  8
0
 10
4060.3515443477781446
 20
175.5764731255256095
 30
0.0
 40
0.0162488259048989
 50
20.9328622824732911
 51
55.2962596402885609
  0
ARC
  5
19412
  8
0
 10
4060.3552094834121817
 20
175.5781729405252065
 30
0.0
 40
0.0122214570789674
 50
355.9246945276710221
 51
19.6286528306235191
  0
ARC
  5
19413
  8
0
 10
4060.3522990668288912
 20
175.5782781228595013
 30
0.0
 40
0.0151323329761961
 50
342.2280093890946091
 51
356.310597704012082
  0
ARC
  5
19414
  8
0
 10
4060.3510140138678253
 20
175.5787512829151069
 30
0.0
 40
0.0165005872815783
 50
320.5760510092146092
 51
342.0254179140031852
  0
ARC
  5
19415
  8
0
 10
4060.3469963616580571
 20
175.5822936951169879
 30
0.0
 40
0.0218544997694999
 50
292.5372131709056021
 51
320.0910927641933768
  0
ARC
  5
19416
  8
0
 10
4060.34390542934716
 20
175.589312509843694
 30
0.0
 40
0.0295224555372933
 50
268.6923593592632074
 51
292.856827735931688
  0
ARC
  5
19417
  8
0
 10
4060.3411382037647854
 20
175.5832619814449913
 30
0.0
 40
0.0229416127743103
 50
231.1342677831410981
 51
244.3315776295332
  0
ARC
  5
19418
  8
0
 10
4060.3379933549731504
 20
175.5796078718427111
 30
0.0
 40
0.0181237391633435
 50
204.2872149242857915
 51
231.6264768153669138
  0
ARC
  5
19419
  8
0
 10
4060.3351574517878362
 20
175.5782152819178066
 30
0.0
 40
0.0149663935905065
 50
176.7145128345750891
 51
203.8932772991227012
  0
ARC
  5
1941A
  8
0
 10
4060.3331771592647783
 20
175.5780041853521141
 30
0.0
 40
0.0130054966334058
 50
146.1436081441474926
 51
175.2859131453955968
  0
ARC
  5
1941B
  8
0
 10
4060.3379873060412137
 20
175.5746014601795935
 30
0.0
 40
0.0188962851505126
 50
120.7897639002468964
 51
145.7010630370454862
  0
ARC
  5
1941C
  8
0
 10
4060.3435353522481819
 20
175.564672870599594
 30
0.0
 40
0.0302670921759264
 50
87.6482218531213135
 51
120.1910272397954031
  0
ARC
  5
1941D
  8
0
 10
4060.3436091196540474
 20
175.5887918878242999
 30
0.0
 40
0.0289966013830392
 50
244.6640758317086863
 51
269.2542323531046122
  0
ARC
  5
1941E
  8
0
 10
4060.3438713058908434
 20
175.5828994112052044
 30
0.0
 40
0.0185923488158952
 50
269.7442606393860274
 51
288.9192794619472124
  0
ARC
  5
1941F
  8
0
 10
4060.3449967918431867
 20
175.5795691660786133
 30
0.0
 40
0.0150771006022448
 50
288.9766678707892993
 51
302.0054758641663284
  0
ARC
  5
19420
  8
0
 10
4060.3441063917612155
 20
175.5666803893234942
 30
0.0
 40
0.0171143241914516
 50
57.990326719175151
 51
91.0912301414281131
  0
ARC
  5
19421
  8
0
 10
4060.3483230215310869
 20
175.5730900625881077
 30
0.0
 40
0.0094457867846938
 50
18.9530933820168492
 51
59.0700974018845315
  0
ARC
  5
19422
  8
0
 10
4060.4066385459232151
 20
175.5665519287360041
 30
0.0
 40
0.0172389893607023
 50
89.228389724111608
 51
122.3744172389967986
  0
ARC
  5
19423
  8
0
 10
4060.4138108915371959
 20
175.5740540287324052
 30
0.0
 40
0.0068656506586335
 50
350.0170261959028721
 51
17.8255646942772792
  0
ARC
  5
19424
  8
0
 10
4060.4127892288379371
 20
175.5742987343645893
 30
0.0
 40
0.0079145236307497
 50
323.1515603953786808
 51
349.554502739617817
  0
ARC
  5
19425
  8
0
 10
4060.4102520400128924
 20
175.5762415942135135
 30
0.0
 40
0.0111100279204189
 50
301.6264090746806801
 51
322.9804915264755891
  0
ARC
  5
19426
  8
0
 10
4060.4068210296850339
 20
175.5827925564261989
 30
0.0
 40
0.0184876531248613
 50
249.9182121147021007
 51
270.1782900583842775
  0
ARC
  5
19427
  8
0
 10
4060.4048624167880917
 20
175.5778592596128931
 30
0.0
 40
0.0131825766178786
 50
223.5512996858952022
 51
250.5511951727212931
  0
ARC
  5
19428
  8
0
 10
4060.4011454443038929
 20
175.574316496171889
 30
0.0
 40
0.0080476973503088
 50
186.3111982218132994
 51
223.5040454053753081
  0
ARC
  5
19429
  8
0
 10
4060.4002727152978878
 20
175.5740290564594943
 30
0.0
 40
0.0071511778164095
 50
154.2726404410855992
 51
184.7906496159135088
  0
ARC
  5
1942A
  8
0
 10
4060.4028469410868638
 20
175.5726224585347097
 30
0.0
 40
0.0100819210422961
 50
122.6483341477785984
 51
153.4217599213081087
  0
ARC
  5
1942B
  8
0
 10
4060.4075022282031568
 20
175.5659810464574093
 30
0.0
 40
0.0289334751393148
 50
55.5114033734182826
 51
89.2764619795063368
  0
ARC
  5
1942C
  8
0
 10
4060.4146345869639845
 20
175.5764708707399961
 30
0.0
 40
0.0162488259048989
 50
20.9328622824732911
 51
55.2962596402885609
  0
ARC
  5
1942D
  8
0
 10
4060.4182997225989311
 20
175.5781706857397069
 30
0.0
 40
0.0122214570789674
 50
355.9246945276710221
 51
19.6286528306235191
  0
ARC
  5
1942E
  8
0
 10
4060.4153893060170049
 20
175.578275868073888
 30
0.0
 40
0.0151323329761961
 50
342.2280093890946091
 51
356.310597704012082
  0
ARC
  5
1942F
  8
0
 10
4060.4141042530541199
 20
175.5787490281294936
 30
0.0
 40
0.0165005872815783
 50
320.5760510092146092
 51
342.0254179140031852
  0
ARC
  5
19430
  8
0
 10
4060.4100866008448065
 20
175.582291440331403
 30
0.0
 40
0.0218544997694999
 50
292.5372131709056021
 51
320.0910927641933768
  0
ARC
  5
19431
  8
0
 10
4060.4069956685339093
 20
175.5893102550581091
 30
0.0
 40
0.0295224555372933
 50
268.6923593592632074
 51
292.856827735931688
  0
ARC
  5
19432
  8
0
 10
4060.4042284429519896
 20
175.5832597266594917
 30
0.0
 40
0.0229416127743103
 50
231.1342677831410981
 51
244.3315776295332
  0
ARC
  5
19433
  8
0
 10
4060.4010835941598998
 20
175.5796056170570978
 30
0.0
 40
0.0181237391633435
 50
204.2872149242857915
 51
231.6264768153669138
  0
ARC
  5
19434
  8
0
 10
4060.3982476909759498
 20
175.5782130271323069
 30
0.0
 40
0.0149663935905065
 50
176.7145128345750891
 51
203.8932772991227012
  0
ARC
  5
19435
  8
0
 10
4060.3962673984528919
 20
175.5780019305665007
 30
0.0
 40
0.0130054966334058
 50
146.1436081441474926
 51
175.2859131453955968
  0
ARC
  5
19436
  8
0
 10
4060.4010775452279631
 20
175.5745992053940085
 30
0.0
 40
0.0188962851505126
 50
120.7897639002468964
 51
145.7010630370454862
  0
ARC
  5
19437
  8
0
 10
4060.4066255914349313
 20
175.5646706158140091
 30
0.0
 40
0.0302670921759264
 50
87.6482218531213135
 51
120.1910272397954031
  0
ARC
  5
19438
  8
0
 10
4060.406699358842161
 20
175.5887896330388003
 30
0.0
 40
0.0289966013830392
 50
244.6640758317086863
 51
269.2542323531046122
  0
ARC
  5
19439
  8
0
 10
4060.406961545078957
 20
175.5828971564197047
 30
0.0
 40
0.0185923488158952
 50
269.7442606393860274
 51
288.9192794619472124
  0
ARC
  5
1943A
  8
0
 10
4060.4080870310308455
 20
175.579566911293
 30
0.0
 40
0.0150771006022448
 50
288.9766678707892993
 51
302.0054758641663284
  0
ARC
  5
1943B
  8
0
 10
4060.4071966309488744
 20
175.5666781345379945
 30
0.0
 40
0.0171143241914516
 50
57.990326719175151
 51
91.0912301414281131
  0
ARC
  5
1943C
  8
0
 10
4060.4114132607192005
 20
175.573087807802608
 30
0.0
 40
0.0094457867846938
 50
18.9530933820168492
 51
59.0700974018845315
  0
ARC
  5
1943D
  8
0
 10
4060.4695325586931176
 20
175.5665541835215038
 30
0.0
 40
0.0172389893607023
 50
89.228389724111608
 51
122.3744172389967986
  0
ARC
  5
1943E
  8
0
 10
4060.4767049043070983
 20
175.5740562835179901
 30
0.0
 40
0.0068656506586335
 50
350.0170261959028721
 51
17.8255646942772792
  0
ARC
  5
1943F
  8
0
 10
4060.4756832416101133
 20
175.5743009891502027
 30
0.0
 40
0.0079145236307497
 50
323.1515603953786808
 51
349.554502739617817
  0
ARC
  5
19440
  8
0
 10
4060.4731460527850686
 20
175.5762438489990984
 30
0.0
 40
0.0111100279204189
 50
301.6264090746806801
 51
322.9804915264755891
  0
ARC
  5
19441
  8
0
 10
4060.4697150424549363
 20
175.5827948112118122
 30
0.0
 40
0.0184876531248613
 50
249.9182121147021007
 51
270.1782900583842775
  0
ARC
  5
19442
  8
0
 10
4060.4677564295598131
 20
175.5778615143985064
 30
0.0
 40
0.0131825766178786
 50
223.5512996858952022
 51
250.5511951727212931
  0
ARC
  5
19443
  8
0
 10
4060.4640394570751596
 20
175.5743187509573886
 30
0.0
 40
0.0080476973503088
 50
186.3111982218132994
 51
223.5040454053753081
  0
ARC
  5
19444
  8
0
 10
4060.4631667280691545
 20
175.5740313112451076
 30
0.0
 40
0.0071511778164095
 50
154.2726404410855992
 51
184.7906496159135088
  0
ARC
  5
19445
  8
0
 10
4060.4657409538581305
 20
175.5726247133202946
 30
0.0
 40
0.0100819210422961
 50
122.6483341477785984
 51
153.4217599213081087
  0
ARC
  5
19446
  8
0
 10
4060.4703962409739688
 20
175.5659833012429942
 30
0.0
 40
0.0289334751393148
 50
55.5114033734182826
 51
89.2764619795063368
  0
ARC
  5
19447
  8
0
 10
4060.4775285997361607
 20
175.5764731255256095
 30
0.0
 40
0.0162488259048989
 50
20.9328622824732911
 51
55.2962596402885609
  0
ARC
  5
19448
  8
0
 10
4060.4811937353688336
 20
175.5781729405252065
 30
0.0
 40
0.0122214570789674
 50
355.9246945276710221
 51
19.6286528306235191
  0
ARC
  5
19449
  8
0
 10
4060.4782833187878168
 20
175.5782781228595013
 30
0.0
 40
0.0151323329761961
 50
342.2280093890946091
 51
356.310597704012082
  0
ARC
  5
1944A
  8
0
 10
4060.4769982658249319
 20
175.5787512829151069
 30
0.0
 40
0.0165005872815783
 50
320.5760510092146092
 51
342.0254179140031852
  0
ARC
  5
1944B
  8
0
 10
4060.4729806136151637
 20
175.5822936951169879
 30
0.0
 40
0.0218544997694999
 50
292.5372131709056021
 51
320.0910927641933768
  0
ARC
  5
1944C
  8
0
 10
4060.4698896813051761
 20
175.589312509843694
 30
0.0
 40
0.0295224555372933
 50
268.6923593592632074
 51
292.856827735931688
  0
ARC
  5
1944D
  8
0
 10
4060.4671224557228015
 20
175.5832619814449913
 30
0.0
 40
0.0229416127743103
 50
231.1342677831410981
 51
244.3315776295332
  0
ARC
  5
1944E
  8
0
 10
4060.4639776069311665
 20
175.5796078718427111
 30
0.0
 40
0.0181237391633435
 50
204.2872149242857915
 51
231.6264768153669138
  0
ARC
  5
1944F
  8
0
 10
4060.4611417037458523
 20
175.5782152819178066
 30
0.0
 40
0.0149663935905065
 50
176.7145128345750891
 51
203.8932772991227012
  0
ARC
  5
19450
  8
0
 10
4060.4591614112227944
 20
175.5780041853521141
 30
0.0
 40
0.0130054966334058
 50
146.1436081441474926
 51
175.2859131453955968
  0
ARC
  5
19451
  8
0
 10
4060.4639715579987751
 20
175.5746014601795935
 30
0.0
 40
0.0188962851505126
 50
120.7897639002468964
 51
145.7010630370454862
  0
ARC
  5
19452
  8
0
 10
4060.4695196042071075
 20
175.564672870599594
 30
0.0
 40
0.0302670921759264
 50
87.6482218531213135
 51
120.1910272397954031
  0
ARC
  5
19453
  8
0
 10
4060.4695933716120635
 20
175.5887918878242999
 30
0.0
 40
0.0289966013830392
 50
244.6640758317086863
 51
269.2542323531046122
  0
ARC
  5
19454
  8
0
 10
4060.4698555578502237
 20
175.5828994112052044
 30
0.0
 40
0.0185923488158952
 50
269.7442606393860274
 51
288.9192794619472124
  0
ARC
  5
19455
  8
0
 10
4060.4709810438012028
 20
175.5795691660786133
 30
0.0
 40
0.0150771006022448
 50
288.9766678707892993
 51
302.0054758641663284
  0
ARC
  5
19456
  8
0
 10
4060.4700906437187768
 20
175.5666803893234942
 30
0.0
 40
0.0171143241914516
 50
57.990326719175151
 51
91.0912301414281131
  0
ARC
  5
19457
  8
0
 10
4060.4743072734900124
 20
175.5730900625881077
 30
0.0
 40
0.0094457867846938
 50
18.9530933820168492
 51
59.0700974018845315
  0
ARC
  5
19458
  8
0
 10
4060.5325246846869049
 20
175.5665541835215038
 30
0.0
 40
0.0172389893607023
 50
89.228389724111608
 51
122.3744172389967986
  0
ARC
  5
19459
  8
0
 10
4060.5396970303008857
 20
175.5740562835179901
 30
0.0
 40
0.0068656506586335
 50
350.0170261959028721
 51
17.8255646942772792
  0
ARC
  5
1945A
  8
0
 10
4060.5386753676029912
 20
175.5743009891502027
 30
0.0
 40
0.0079145236307497
 50
323.1515603953786808
 51
349.554502739617817
  0
ARC
  5
1945B
  8
0
 10
4060.5361381787788559
 20
175.5762438489990984
 30
0.0
 40
0.0111100279204189
 50
301.6264090746806801
 51
322.9804915264755891
  0
ARC
  5
1945C
  8
0
 10
4060.5327071684500879
 20
175.5827948112118122
 30
0.0
 40
0.0184876531248613
 50
249.9182121147021007
 51
270.1782900583842775
  0
ARC
  5
1945D
  8
0
 10
4060.5307485555540552
 20
175.5778615143985064
 30
0.0
 40
0.0131825766178786
 50
223.5512996858952022
 51
250.5511951727212931
  0
ARC
  5
1945E
  8
0
 10
4060.5270315830689469
 20
175.5743187509573886
 30
0.0
 40
0.0080476973503088
 50
186.3111982218132994
 51
223.5040454053753081
  0
ARC
  5
1945F
  8
0
 10
4060.5261588540629418
 20
175.5740313112451076
 30
0.0
 40
0.0071511778164095
 50
154.2726404410855992
 51
184.7906496159135088
  0
ARC
  5
19460
  8
0
 10
4060.5287330798528274
 20
175.5726247133202946
 30
0.0
 40
0.0100819210422961
 50
122.6483341477785984
 51
153.4217599213081087
  0
ARC
  5
19461
  8
0
 10
4060.5333883669682109
 20
175.5659833012429942
 30
0.0
 40
0.0289334751393148
 50
55.5114033734182826
 51
89.2764619795063368
  0
ARC
  5
19462
  8
0
 10
4060.5405207257290385
 20
175.5764731255256095
 30
0.0
 40
0.0162488259048989
 50
20.9328622824732911
 51
55.2962596402885609
  0
ARC
  5
19463
  8
0
 10
4060.5441858613630757
 20
175.5781729405252065
 30
0.0
 40
0.0122214570789674
 50
355.9246945276710221
 51
19.6286528306235191
  0
ARC
  5
19464
  8
0
 10
4060.5412754447820589
 20
175.5782781228595013
 30
0.0
 40
0.0151323329761961
 50
342.2280093890946091
 51
356.310597704012082
  0
ARC
  5
19465
  8
0
 10
4060.539990391819174
 20
175.5787512829151069
 30
0.0
 40
0.0165005872815783
 50
320.5760510092146092
 51
342.0254179140031852
  0
ARC
  5
19466
  8
0
 10
4060.5359727396089511
 20
175.5822936951169879
 30
0.0
 40
0.0218544997694999
 50
292.5372131709056021
 51
320.0910927641933768
  0
ARC
  5
19467
  8
0
 10
4060.5328818072998729
 20
175.589312509843694
 30
0.0
 40
0.0295224555372933
 50
268.6923593592632074
 51
292.856827735931688
  0
ARC
  5
19468
  8
0
 10
4060.5301145817170436
 20
175.5832619814449913
 30
0.0
 40
0.0229416127743103
 50
231.1342677831410981
 51
244.3315776295332
  0
ARC
  5
19469
  8
0
 10
4060.5269697329249539
 20
175.5796078718427111
 30
0.0
 40
0.0181237391633435
 50
204.2872149242857915
 51
231.6264768153669138
  0
ARC
  5
1946A
  8
0
 10
4060.5241338297400944
 20
175.5782152819178066
 30
0.0
 40
0.0149663935905065
 50
176.7145128345750891
 51
203.8932772991227012
  0
ARC
  5
1946B
  8
0
 10
4060.5221535372170365
 20
175.5780041853521141
 30
0.0
 40
0.0130054966334058
 50
146.1436081441474926
 51
175.2859131453955968
  0
ARC
  5
1946C
  8
0
 10
4060.5269636839930172
 20
175.5746014601795935
 30
0.0
 40
0.0188962851505126
 50
120.7897639002468964
 51
145.7010630370454862
  0
ARC
  5
1946D
  8
0
 10
4060.5325117301999853
 20
175.564672870599594
 30
0.0
 40
0.0302670921759264
 50
87.6482218531213135
 51
120.1910272397954031
  0
ARC
  5
1946E
  8
0
 10
4060.5325854976072151
 20
175.5887918878242999
 30
0.0
 40
0.0289966013830392
 50
244.6640758317086863
 51
269.2542323531046122
  0
ARC
  5
1946F
  8
0
 10
4060.532847683844011
 20
175.5828994112052044
 30
0.0
 40
0.0185923488158952
 50
269.7442606393860274
 51
288.9192794619472124
  0
ARC
  5
19470
  8
0
 10
4060.5339731697949901
 20
175.5795691660786133
 30
0.0
 40
0.0150771006022448
 50
288.9766678707892993
 51
302.0054758641663284
  0
ARC
  5
19471
  8
0
 10
4060.5330827697139284
 20
175.5666803893234942
 30
0.0
 40
0.0171143241914516
 50
57.990326719175151
 51
91.0912301414281131
  0
ARC
  5
19472
  8
0
 10
4060.5372993994828903
 20
175.5730900625881077
 30
0.0
 40
0.0094457867846938
 50
18.9530933820168492
 51
59.0700974018845315
  0
ARC
  5
19473
  8
0
 10
4060.5955168106738711
 20
175.5665541835215038
 30
0.0
 40
0.0172389893607023
 50
89.228389724111608
 51
122.3744172389967986
  0
ARC
  5
19474
  8
0
 10
4060.602689156289216
 20
175.5740562835179901
 30
0.0
 40
0.0068656506586335
 50
350.0170261959028721
 51
17.8255646942772792
  0
ARC
  5
19475
  8
0
 10
4060.6016674935917763
 20
175.5743009891502027
 30
0.0
 40
0.0079145236307497
 50
323.1515603953786808
 51
349.554502739617817
  0
ARC
  5
19476
  8
0
 10
4060.5991303047671863
 20
175.5762438489990984
 30
0.0
 40
0.0111100279204189
 50
301.6264090746806801
 51
322.9804915264755891
  0
ARC
  5
19477
  8
0
 10
4060.595699294437054
 20
175.5827948112118122
 30
0.0
 40
0.0184876531248613
 50
249.9182121147021007
 51
270.1782900583842775
  0
ARC
  5
19478
  8
0
 10
4060.5937406815419308
 20
175.5778615143985064
 30
0.0
 40
0.0131825766178786
 50
223.5512996858952022
 51
250.5511951727212931
  0
ARC
  5
19479
  8
0
 10
4060.5900237090559131
 20
175.5743187509573886
 30
0.0
 40
0.0080476973503088
 50
186.3111982218132994
 51
223.5040454053753081
  0
ARC
  5
1947A
  8
0
 10
4060.5891509800508175
 20
175.5740313112451076
 30
0.0
 40
0.0071511778164095
 50
154.2726404410855992
 51
184.7906496159135088
  0
ARC
  5
1947B
  8
0
 10
4060.5917252058411577
 20
175.5726247133202946
 30
0.0
 40
0.0100819210422961
 50
122.6483341477785984
 51
153.4217599213081087
  0
ARC
  5
1947C
  8
0
 10
4060.596380492955177
 20
175.5659833012429942
 30
0.0
 40
0.0289334751393148
 50
55.5114033734182826
 51
89.2764619795063368
  0
ARC
  5
1947D
  8
0
 10
4060.6035128517169142
 20
175.5764731255256095
 30
0.0
 40
0.0162488259048989
 50
20.9328622824732911
 51
55.2962596402885609
  0
ARC
  5
1947E
  8
0
 10
4060.6071779873518608
 20
175.5781729405252065
 30
0.0
 40
0.0122214570789674
 50
355.9246945276710221
 51
19.6286528306235191
  0
ARC
  5
1947F
  8
0
 10
4060.604267570769025
 20
175.5782781228595013
 30
0.0
 40
0.0151323329761961
 50
342.2280093890946091
 51
356.310597704012082
  0
ARC
  5
19480
  8
0
 10
4060.6029825178079591
 20
175.5787512829151069
 30
0.0
 40
0.0165005872815783
 50
320.5760510092146092
 51
342.0254179140031852
  0
ARC
  5
19481
  8
0
 10
4060.5989648655968267
 20
175.5822936951169879
 30
0.0
 40
0.0218544997694999
 50
292.5372131709056021
 51
320.0910927641933768
  0
ARC
  5
19482
  8
0
 10
4060.595873933286839
 20
175.589312509843694
 30
0.0
 40
0.0295224555372933
 50
268.6923593592632074
 51
292.856827735931688
  0
ARC
  5
19483
  8
0
 10
4060.5931067077049192
 20
175.5832619814449913
 30
0.0
 40
0.0229416127743103
 50
231.1342677831410981
 51
244.3315776295332
  0
ARC
  5
19484
  8
0
 10
4060.5899618589141937
 20
175.5796078718427111
 30
0.0
 40
0.0181237391633435
 50
204.2872149242857915
 51
231.6264768153669138
  0
ARC
  5
19485
  8
0
 10
4060.5871259557288795
 20
175.5782152819178066
 30
0.0
 40
0.0149663935905065
 50
176.7145128345750891
 51
203.8932772991227012
  0
ARC
  5
19486
  8
0
 10
4060.5851456632058216
 20
175.5780041853521141
 30
0.0
 40
0.0130054966334058
 50
146.1436081441474926
 51
175.2859131453955968
  0
ARC
  5
19487
  8
0
 10
4060.5899558099808928
 20
175.5746014601795935
 30
0.0
 40
0.0188962851505126
 50
120.7897639002468964
 51
145.7010630370454862
  0
ARC
  5
19488
  8
0
 10
4060.5955038561878609
 20
175.564672870599594
 30
0.0
 40
0.0302670921759264
 50
87.6482218531213135
 51
120.1910272397954031
  0
ARC
  5
19489
  8
0
 10
4060.5955776235941812
 20
175.5887918878242999
 30
0.0
 40
0.0289966013830392
 50
244.6640758317086863
 51
269.2542323531046122
  0
ARC
  5
1948A
  8
0
 10
4060.5958398098309772
 20
175.5828994112052044
 30
0.0
 40
0.0185923488158952
 50
269.7442606393860274
 51
288.9192794619472124
  0
ARC
  5
1948B
  8
0
 10
4060.5969652957828657
 20
175.5795691660786133
 30
0.0
 40
0.0150771006022448
 50
288.9766678707892993
 51
302.0054758641663284
  0
ARC
  5
1948C
  8
0
 10
4060.5960748957008946
 20
175.5666803893234942
 30
0.0
 40
0.0171143241914516
 50
57.990326719175151
 51
91.0912301414281131
  0
ARC
  5
1948D
  8
0
 10
4060.6002915254721302
 20
175.5730900625881077
 30
0.0
 40
0.0094457867846938
 50
18.9530933820168492
 51
59.0700974018845315
  0
ARC
  5
1948E
  8
0
 10
4060.6586070498628942
 20
175.5665519287360041
 30
0.0
 40
0.0172389893607023
 50
89.228389724111608
 51
122.3744172389967986
  0
ARC
  5
1948F
  8
0
 10
4060.6657793954777844
 20
175.5740540287324052
 30
0.0
 40
0.0068656506586335
 50
350.0170261959028721
 51
17.8255646942772792
  0
ARC
  5
19490
  8
0
 10
4060.6647577327789804
 20
175.5742987343645893
 30
0.0
 40
0.0079145236307497
 50
323.1515603953786808
 51
349.554502739617817
  0
ARC
  5
19491
  8
0
 10
4060.6622205439562094
 20
175.5762415942135135
 30
0.0
 40
0.0111100279204189
 50
301.6264090746806801
 51
322.9804915264755891
  0
ARC
  5
19492
  8
0
 10
4060.6587895336260772
 20
175.5827925564261989
 30
0.0
 40
0.0184876531248613
 50
249.9182121147021007
 51
270.1782900583842775
  0
ARC
  5
19493
  8
0
 10
4060.6568309207300445
 20
175.5778592596128931
 30
0.0
 40
0.0131825766178786
 50
223.5512996858952022
 51
250.5511951727212931
  0
ARC
  5
19494
  8
0
 10
4060.6531139482440267
 20
175.574316496171889
 30
0.0
 40
0.0080476973503088
 50
186.3111982218132994
 51
223.5040454053753081
  0
ARC
  5
19495
  8
0
 10
4060.6522412192398406
 20
175.5740290564594943
 30
0.0
 40
0.0071511778164095
 50
154.2726404410855992
 51
184.7906496159135088
  0
ARC
  5
19496
  8
0
 10
4060.6548154450288166
 20
175.5726224585347097
 30
0.0
 40
0.0100819210422961
 50
122.6483341477785984
 51
153.4217599213081087
  0
ARC
  5
19497
  8
0
 10
4060.6594707321442002
 20
175.5659810464574093
 30
0.0
 40
0.0289334751393148
 50
55.5114033734182826
 51
89.2764619795063368
  0
ARC
  5
19498
  8
0
 10
4060.6666030909068468
 20
175.5764708707399961
 30
0.0
 40
0.0162488259048989
 50
20.9328622824732911
 51
55.2962596402885609
  0
ARC
  5
19499
  8
0
 10
4060.6702682265399744
 20
175.5781706857397069
 30
0.0
 40
0.0122214570789674
 50
355.9246945276710221
 51
19.6286528306235191
  0
ARC
  5
1949A
  8
0
 10
4060.6673578099580482
 20
175.578275868073888
 30
0.0
 40
0.0151323329761961
 50
342.2280093890946091
 51
356.310597704012082
  0
ARC
  5
1949B
  8
0
 10
4060.6660727569960727
 20
175.5787490281294936
 30
0.0
 40
0.0165005872815783
 50
320.5760510092146092
 51
342.0254179140031852
  0
ARC
  5
1949C
  8
0
 10
4060.6620551047858498
 20
175.582291440331403
 30
0.0
 40
0.0218544997694999
 50
292.5372131709056021
 51
320.0910927641933768
  0
ARC
  5
1949D
  8
0
 10
4060.6589641724749526
 20
175.5893102550581091
 30
0.0
 40
0.0295224555372933
 50
268.6923593592632074
 51
292.856827735931688
  0
ARC
  5
1949E
  8
0
 10
4060.6561969468930329
 20
175.5832597266594917
 30
0.0
 40
0.0229416127743103
 50
231.1342677831410981
 51
244.3315776295332
  0
ARC
  5
1949F
  8
0
 10
4060.6530520981018526
 20
175.5796056170570978
 30
0.0
 40
0.0181237391633435
 50
204.2872149242857915
 51
231.6264768153669138
  0
ARC
  5
194A0
  8
0
 10
4060.6502161949169931
 20
175.5782130271323069
 30
0.0
 40
0.0149663935905065
 50
176.7145128345750891
 51
203.8932772991227012
  0
ARC
  5
194A1
  8
0
 10
4060.6482359023939352
 20
175.5780019305665007
 30
0.0
 40
0.0130054966334058
 50
146.1436081441474926
 51
175.2859131453955968
  0
ARC
  5
194A2
  8
0
 10
4060.6530460491699159
 20
175.5745992053940085
 30
0.0
 40
0.0188962851505126
 50
120.7897639002468964
 51
145.7010630370454862
  0
ARC
  5
194A3
  8
0
 10
4060.6585940953759746
 20
175.5646706158140091
 30
0.0
 40
0.0302670921759264
 50
87.6482218531213135
 51
120.1910272397954031
  0
ARC
  5
194A4
  8
0
 10
4060.6586678627818401
 20
175.5887896330388003
 30
0.0
 40
0.0289966013830392
 50
244.6640758317086863
 51
269.2542323531046122
  0
ARC
  5
194A5
  8
0
 10
4060.6589300490209098
 20
175.5828971564197047
 30
0.0
 40
0.0185923488158952
 50
269.7442606393860274
 51
288.9192794619472124
  0
ARC
  5
194A6
  8
0
 10
4060.6600555349709794
 20
175.579566911293
 30
0.0
 40
0.0150771006022448
 50
288.9766678707892993
 51
302.0054758641663284
  0
ARC
  5
194A7
  8
0
 10
4060.6591651348899177
 20
175.5666781345379093
 30
0.0
 40
0.0171143241914516
 50
57.990326719175151
 51
91.0912301414281131
  0
ARC
  5
194A8
  8
0
 10
4060.6633817646611533
 20
175.573087807802608
 30
0.0
 40
0.0094457867846938
 50
18.9530933820168492
 51
59.0700974018845315
  0
ARC
  5
194A9
  8
0
 10
4060.7215010626341609
 20
175.5665541835215038
 30
0.0
 40
0.0172389893607023
 50
89.228389724111608
 51
122.3744172389967986
  0
ARC
  5
194AA
  8
0
 10
4060.7286734082481416
 20
175.5740562835179901
 30
0.0
 40
0.0068656506586335
 50
350.0170261959028721
 51
17.8255646942772792
  0
ARC
  5
194AB
  8
0
 10
4060.7276517455497924
 20
175.5743009891502027
 30
0.0
 40
0.0079145236307497
 50
323.1515603953786808
 51
349.554502739617817
  0
ARC
  5
194AC
  8
0
 10
4060.7251145567270214
 20
175.5762438489990984
 30
0.0
 40
0.0111100279204189
 50
301.6264090746806801
 51
322.9804915264755891
  0
ARC
  5
194AD
  8
0
 10
4060.7216835463968891
 20
175.5827948112118122
 30
0.0
 40
0.0184876531248613
 50
249.9182121147021007
 51
270.1782900583842775
  0
ARC
  5
194AE
  8
0
 10
4060.7197249335008564
 20
175.5778615143985064
 30
0.0
 40
0.0131825766178786
 50
223.5512996858952022
 51
250.5511951727212931
  0
ARC
  5
194AF
  8
0
 10
4060.7160079610162029
 20
175.5743187509573886
 30
0.0
 40
0.0080476973503088
 50
186.3111982218132994
 51
223.5040454053753081
  0
ARC
  5
194B0
  8
0
 10
4060.7151352320111073
 20
175.5740313112451076
 30
0.0
 40
0.0071511778164095
 50
154.2726404410855992
 51
184.7906496159135088
  0
ARC
  5
194B1
  8
0
 10
4060.7177094578000833
 20
175.5726247133202946
 30
0.0
 40
0.0100819210422961
 50
122.6483341477785984
 51
153.4217599213081087
  0
ARC
  5
194B2
  8
0
 10
4060.7223647449150121
 20
175.5659833012429942
 30
0.0
 40
0.0289334751393148
 50
55.5114033734182826
 51
89.2764619795063368
  0
ARC
  5
194B3
  8
0
 10
4060.729497103677204
 20
175.5764731255256095
 30
0.0
 40
0.0162488259048989
 50
20.9328622824732911
 51
55.2962596402885609
  0
ARC
  5
194B4
  8
0
 10
4060.7331622393107864
 20
175.5781729405252065
 30
0.0
 40
0.0122214570789674
 50
355.9246945276710221
 51
19.6286528306235191
  0
ARC
  5
194B5
  8
0
 10
4060.7302518227288601
 20
175.5782781228595013
 30
0.0
 40
0.0151323329761961
 50
342.2280093890946091
 51
356.310597704012082
  0
ARC
  5
194B6
  8
0
 10
4060.7289667697668847
 20
175.5787512829151069
 30
0.0
 40
0.0165005872815783
 50
320.5760510092146092
 51
342.0254179140031852
  0
ARC
  5
194B7
  8
0
 10
4060.7249491175562071
 20
175.5822936951169879
 30
0.0
 40
0.0218544997694999
 50
292.5372131709056021
 51
320.0910927641933768
  0
ARC
  5
194B8
  8
0
 10
4060.7218581852462194
 20
175.589312509843694
 30
0.0
 40
0.0295224555372933
 50
268.6923593592632074
 51
292.856827735931688
  0
ARC
  5
194B9
  8
0
 10
4060.7190909596638448
 20
175.5832619814449913
 30
0.0
 40
0.0229416127743103
 50
231.1342677831410981
 51
244.3315776295332
  0
ARC
  5
194BA
  8
0
 10
4060.7159461108731193
 20
175.5796078718427111
 30
0.0
 40
0.0181237391633435
 50
204.2872149242857915
 51
231.6264768153669138
  0
ARC
  5
194BB
  8
0
 10
4060.7131102076878051
 20
175.5782152819178066
 30
0.0
 40
0.0149663935905065
 50
176.7145128345750891
 51
203.8932772991227012
  0
ARC
  5
194BC
  8
0
 10
4060.711129915165202
 20
175.5780041853521141
 30
0.0
 40
0.0130054966334058
 50
146.1436081441474926
 51
175.2859131453955968
  0
ARC
  5
194BD
  8
0
 10
4060.7159400619411826
 20
175.5746014601795935
 30
0.0
 40
0.0188962851505126
 50
120.7897639002468964
 51
145.7010630370454862
  0
ARC
  5
194BE
  8
0
 10
4060.7214881081467865
 20
175.564672870599594
 30
0.0
 40
0.0302670921759264
 50
87.6482218531213135
 51
120.1910272397954031
  0
ARC
  5
194BF
  8
0
 10
4060.7215618755540163
 20
175.5887918878242999
 30
0.0
 40
0.0289966013830392
 50
244.6640758317086863
 51
269.2542323531046122
  0
ARC
  5
194C0
  8
0
 10
4060.7218240617908123
 20
175.5828994112052044
 30
0.0
 40
0.0185923488158952
 50
269.7442606393860274
 51
288.9192794619472124
  0
ARC
  5
194C1
  8
0
 10
4060.7229495477417913
 20
175.5795691660786133
 30
0.0
 40
0.0150771006022448
 50
288.9766678707892993
 51
302.0054758641663284
  0
ARC
  5
194C2
  8
0
 10
4060.7220591476611844
 20
175.5666803893234942
 30
0.0
 40
0.0171143241914516
 50
57.990326719175151
 51
91.0912301414281131
  0
ARC
  5
194C3
  8
0
 10
4060.7262757774310558
 20
175.5730900625881077
 30
0.0
 40
0.0094457867846938
 50
18.9530933820168492
 51
59.0700974018845315
  0
ARC
  5
194C4
  8
0
 10
4060.7844931886279483
 20
175.5665541835215038
 30
0.0
 40
0.0172389893607023
 50
89.228389724111608
 51
122.3744172389967986
  0
ARC
  5
194C5
  8
0
 10
4060.7916655342410195
 20
175.5740562835179901
 30
0.0
 40
0.0068656506586335
 50
350.0170261959028721
 51
17.8255646942772792
  0
ARC
  5
194C6
  8
0
 10
4060.7906438715440345
 20
175.5743009891502027
 30
0.0
 40
0.0079145236307497
 50
323.1515603953786808
 51
349.554502739617817
  0
ARC
  5
194C7
  8
0
 10
4060.7881066827198993
 20
175.5762438489990984
 30
0.0
 40
0.0111100279204189
 50
301.6264090746806801
 51
322.9804915264755891
  0
ARC
  5
194C8
  8
0
 10
4060.7846756723902217
 20
175.5827948112118122
 30
0.0
 40
0.0184876531248613
 50
249.9182121147021007
 51
270.1782900583842775
  0
ARC
  5
194C9
  8
0
 10
4060.7827170594950985
 20
175.5778615143985064
 30
0.0
 40
0.0131825766178786
 50
223.5512996858952022
 51
250.5511951727212931
  0
ARC
  5
194CA
  8
0
 10
4060.7790000870099902
 20
175.5743187509573886
 30
0.0
 40
0.0080476973503088
 50
186.3111982218132994
 51
223.5040454053753081
  0
ARC
  5
194CB
  8
0
 10
4060.7781273580048946
 20
175.5740313112451076
 30
0.0
 40
0.0071511778164095
 50
154.2726404410855992
 51
184.7906496159135088
  0
ARC
  5
194CC
  8
0
 10
4060.7807015837938707
 20
175.5726247133202946
 30
0.0
 40
0.0100819210422961
 50
122.6483341477785984
 51
153.4217599213081087
  0
ARC
  5
194CD
  8
0
 10
4060.7853568709087995
 20
175.5659833012429942
 30
0.0
 40
0.0289334751393148
 50
55.5114033734182826
 51
89.2764619795063368
  0
ARC
  5
194CE
  8
0
 10
4060.7924892296709913
 20
175.5764731255256095
 30
0.0
 40
0.0162488259048989
 50
20.9328622824732911
 51
55.2962596402885609
  0
ARC
  5
194CF
  8
0
 10
4060.7961543653050285
 20
175.5781729405252065
 30
0.0
 40
0.0122214570789674
 50
355.9246945276710221
 51
19.6286528306235191
  0
ARC
  5
194D0
  8
0
 10
4060.7932439487221927
 20
175.5782781228595013
 30
0.0
 40
0.0151323329761961
 50
342.2280093890946091
 51
356.310597704012082
  0
ARC
  5
194D1
  8
0
 10
4060.7919588957611268
 20
175.5787512829151069
 30
0.0
 40
0.0165005872815783
 50
320.5760510092146092
 51
342.0254179140031852
  0
ARC
  5
194D2
  8
0
 10
4060.7879412435509039
 20
175.5822936951169879
 30
0.0
 40
0.0218544997694999
 50
292.5372131709056021
 51
320.0910927641933768
  0
ARC
  5
194D3
  8
0
 10
4060.7848503112400067
 20
175.589312509843694
 30
0.0
 40
0.0295224555372933
 50
268.6923593592632074
 51
292.856827735931688
  0
ARC
  5
194D4
  8
0
 10
4060.7820830856580869
 20
175.5832619814449913
 30
0.0
 40
0.0229416127743103
 50
231.1342677831410981
 51
244.3315776295332
  0
ARC
  5
194D5
  8
0
 10
4060.7789382368659972
 20
175.5796078718427111
 30
0.0
 40
0.0181237391633435
 50
204.2872149242857915
 51
231.6264768153669138
  0
ARC
  5
194D6
  8
0
 10
4060.7761023336811377
 20
175.5782152819178066
 30
0.0
 40
0.0149663935905065
 50
176.7145128345750891
 51
203.8932772991227012
  0
ARC
  5
194D7
  8
0
 10
4060.7741220411580798
 20
175.5780041853521141
 30
0.0
 40
0.0130054966334058
 50
146.1436081441474926
 51
175.2859131453955968
  0
ARC
  5
194D8
  8
0
 10
4060.7789321879340605
 20
175.5746014601795935
 30
0.0
 40
0.0188962851505126
 50
120.7897639002468964
 51
145.7010630370454862
  0
ARC
  5
194D9
  8
0
 10
4060.7844802341410286
 20
175.564672870599594
 30
0.0
 40
0.0302670921759264
 50
87.6482218531213135
 51
120.1910272397954031
  0
ARC
  5
194DA
  8
0
 10
4060.7845540015478036
 20
175.5887918878242999
 30
0.0
 40
0.0289966013830392
 50
244.6640758317086863
 51
269.2542323531046122
  0
ARC
  5
194DB
  8
0
 10
4060.7848161877850544
 20
175.5828994112052044
 30
0.0
 40
0.0185923488158952
 50
269.7442606393860274
 51
288.9192794619472124
  0
ARC
  5
194DC
  8
0
 10
4060.7859416737360334
 20
175.5795691660786133
 30
0.0
 40
0.0150771006022448
 50
288.9766678707892993
 51
302.0054758641663284
  0
ARC
  5
194DD
  8
0
 10
4060.7850512736540622
 20
175.5666803893234942
 30
0.0
 40
0.0171143241914516
 50
57.990326719175151
 51
91.0912301414281131
  0
ARC
  5
194DE
  8
0
 10
4060.7892679034248431
 20
175.5730900625881077
 30
0.0
 40
0.0094457867846938
 50
18.9530933820168492
 51
59.0700974018845315
  0
ARC
  5
194DF
  8
0
 10
4060.8474853146158239
 20
175.5665541835215038
 30
0.0
 40
0.0172389893607023
 50
89.228389724111608
 51
122.3744172389967986
  0
ARC
  5
194E0
  8
0
 10
4060.8546576602311688
 20
175.5740562835179901
 30
0.0
 40
0.0068656506586335
 50
350.0170261959028721
 51
17.8255646942772792
  0
ARC
  5
194E1
  8
0
 10
4060.8536359975319101
 20
175.5743009891502027
 30
0.0
 40
0.0079145236307497
 50
323.1515603953786808
 51
349.554502739617817
  0
ARC
  5
194E2
  8
0
 10
4060.8510988087077749
 20
175.5762438489990984
 30
0.0
 40
0.0111100279204189
 50
301.6264090746806801
 51
322.9804915264755891
  0
ARC
  5
194E3
  8
0
 10
4060.8476677983790069
 20
175.5827948112118122
 30
0.0
 40
0.0184876531248613
 50
249.9182121147021007
 51
270.1782900583842775
  0
ARC
  5
194E4
  8
0
 10
4060.8457091854829741
 20
175.5778615143985064
 30
0.0
 40
0.0131825766178786
 50
223.5512996858952022
 51
250.5511951727212931
  0
ARC
  5
194E5
  8
0
 10
4060.8419922129978659
 20
175.5743187509573886
 30
0.0
 40
0.0080476973503088
 50
186.3111982218132994
 51
223.5040454053753081
  0
ARC
  5
194E6
  8
0
 10
4060.8411194839918608
 20
175.5740313112451076
 30
0.0
 40
0.0071511778164095
 50
154.2726404410855992
 51
184.7906496159135088
  0
ARC
  5
194E7
  8
0
 10
4060.843693709782201
 20
175.5726247133202946
 30
0.0
 40
0.0100819210422961
 50
122.6483341477785984
 51
153.4217599213081087
  0
ARC
  5
194E8
  8
0
 10
4060.8483489968980393
 20
175.5659833012429942
 30
0.0
 40
0.0289334751393148
 50
55.5114033734182826
 51
89.2764619795063368
  0
ARC
  5
194E9
  8
0
 10
4060.855481355658867
 20
175.5764731255256095
 30
0.0
 40
0.0162488259048989
 50
20.9328622824732911
 51
55.2962596402885609
  0
ARC
  5
194EA
  8
0
 10
4060.8591464912919946
 20
175.5781729405252065
 30
0.0
 40
0.0122214570789674
 50
355.9246945276710221
 51
19.6286528306235191
  0
ARC
  5
194EB
  8
0
 10
4060.8562360747109778
 20
175.5782781228595013
 30
0.0
 40
0.0151323329761961
 50
342.2280093890946091
 51
356.310597704012082
  0
ARC
  5
194EC
  8
0
 10
4060.8549510217490024
 20
175.5787512829151069
 30
0.0
 40
0.0165005872815783
 50
320.5760510092146092
 51
342.0254179140031852
  0
ARC
  5
194ED
  8
0
 10
4060.8509333695387795
 20
175.5822936951169879
 30
0.0
 40
0.0218544997694999
 50
292.5372131709056021
 51
320.0910927641933768
  0
ARC
  5
194EE
  8
0
 10
4060.8478424372287918
 20
175.589312509843694
 30
0.0
 40
0.0295224555372933
 50
268.6923593592632074
 51
292.856827735931688
  0
ARC
  5
194EF
  8
0
 10
4060.845075211646872
 20
175.5832619814449913
 30
0.0
 40
0.0229416127743103
 50
231.1342677831410981
 51
244.3315776295332
  0
ARC
  5
194F0
  8
0
 10
4060.8419303628547823
 20
175.5796078718427111
 30
0.0
 40
0.0181237391633435
 50
204.2872149242857915
 51
231.6264768153669138
  0
ARC
  5
194F1
  8
0
 10
4060.8390944596690133
 20
175.5782152819178066
 30
0.0
 40
0.0149663935905065
 50
176.7145128345750891
 51
203.8932772991227012
  0
ARC
  5
194F2
  8
0
 10
4060.8371141671468649
 20
175.5780041853521141
 30
0.0
 40
0.0130054966334058
 50
146.1436081441474926
 51
175.2859131453955968
  0
ARC
  5
194F3
  8
0
 10
4060.8419243139228456
 20
175.5746014601795935
 30
0.0
 40
0.0188962851505126
 50
120.7897639002468964
 51
145.7010630370454862
  0
ARC
  5
194F4
  8
0
 10
4060.8474723601289043
 20
175.564672870599594
 30
0.0
 40
0.0302670921759264
 50
87.6482218531213135
 51
120.1910272397954031
  0
ARC
  5
194F5
  8
0
 10
4060.8475461275352245
 20
175.5887918878242999
 30
0.0
 40
0.0289966013830392
 50
244.6640758317086863
 51
269.2542323531046122
  0
ARC
  5
194F6
  8
0
 10
4060.84780831377293
 20
175.5828994112052044
 30
0.0
 40
0.0185923488158952
 50
269.7442606393860274
 51
288.9192794619472124
  0
ARC
  5
194F7
  8
0
 10
4060.848933799723909
 20
175.5795691660786133
 30
0.0
 40
0.0150771006022448
 50
288.9766678707892993
 51
302.0054758641663284
  0
ARC
  5
194F8
  8
0
 10
4060.8480433996428474
 20
175.5666803893234942
 30
0.0
 40
0.0171143241914516
 50
57.990326719175151
 51
91.0912301414281131
  0
ARC
  5
194F9
  8
0
 10
4060.8522600294118092
 20
175.5730900625881077
 30
0.0
 40
0.0094457867846938
 50
18.9530933820168492
 51
59.0700974018845315
  0
ARC
  5
194FA
  8
0
 10
4060.9105755538148514
 20
175.5665519287360041
 30
0.0
 40
0.0172389893607023
 50
89.228389724111608
 51
122.3744172389967986
  0
ARC
  5
194FB
  8
0
 10
4060.9177478994288322
 20
175.5740540287324052
 30
0.0
 40
0.0068656506586335
 50
350.0170261959028721
 51
17.8255646942772792
  0
ARC
  5
194FC
  8
0
 10
4060.9167262367300282
 20
175.5742987343645893
 30
0.0
 40
0.0079145236307497
 50
323.1515603953786808
 51
349.554502739617817
  0
ARC
  5
194FD
  8
0
 10
4060.9141890479058929
 20
175.5762415942135135
 30
0.0
 40
0.0111100279204189
 50
301.6264090746806801
 51
322.9804915264755891
  0
ARC
  5
194FE
  8
0
 10
4060.9107580375771249
 20
175.5827925564261989
 30
0.0
 40
0.0184876531248613
 50
249.9182121147021007
 51
270.1782900583842775
  0
ARC
  5
194FF
  8
0
 10
4060.9087994246810922
 20
175.5778592596128931
 30
0.0
 40
0.0131825766178786
 50
223.5512996858952022
 51
250.5511951727212931
  0
ARC
  5
19500
  8
0
 10
4060.9050824521959839
 20
175.574316496171889
 30
0.0
 40
0.0080476973503088
 50
186.3111982218132994
 51
223.5040454053753081
  0
ARC
  5
19501
  8
0
 10
4060.9042097231899788
 20
175.5740290564594943
 30
0.0
 40
0.0071511778164095
 50
154.2726404410855992
 51
184.7906496159135088
  0
ARC
  5
19502
  8
0
 10
4060.9067839489798644
 20
175.5726224585347097
 30
0.0
 40
0.0100819210422961
 50
122.6483341477785984
 51
153.4217599213081087
  0
ARC
  5
19503
  8
0
 10
4060.9114392360947932
 20
175.5659810464574093
 30
0.0
 40
0.0289334751393148
 50
55.5114033734182826
 51
89.2764619795063368
  0
ARC
  5
19504
  8
0
 10
4060.918571594856985
 20
175.5764708707399961
 30
0.0
 40
0.0162488259048989
 50
20.9328622824732911
 51
55.2962596402885609
  0
ARC
  5
19505
  8
0
 10
4060.9222367304901127
 20
175.5781706857397069
 30
0.0
 40
0.0122214570789674
 50
355.9246945276710221
 51
19.6286528306235191
  0
ARC
  5
19506
  8
0
 10
4060.9193263139100054
 20
175.578275868073888
 30
0.0
 40
0.0151323329761961
 50
342.2280093890946091
 51
356.310597704012082
  0
ARC
  5
19507
  8
0
 10
4060.918041260946211
 20
175.5787490281294936
 30
0.0
 40
0.0165005872815783
 50
320.5760510092146092
 51
342.0254179140031852
  0
ARC
  5
19508
  8
0
 10
4060.9140236087368976
 20
175.582291440331403
 30
0.0
 40
0.0218544997694999
 50
292.5372131709056021
 51
320.0910927641933768
  0
ARC
  5
19509
  8
0
 10
4060.9109326764260004
 20
175.5893102550581091
 30
0.0
 40
0.0295224555372933
 50
268.6923593592632074
 51
292.856827735931688
  0
ARC
  5
1950A
  8
0
 10
4060.9081654508440806
 20
175.5832597266594917
 30
0.0
 40
0.0229416127743103
 50
231.1342677831410981
 51
244.3315776295332
  0
ARC
  5
1950B
  8
0
 10
4060.9050206020519909
 20
175.5796056170570978
 30
0.0
 40
0.0181237391633435
 50
204.2872149242857915
 51
231.6264768153669138
  0
ARC
  5
1950C
  8
0
 10
4060.9021846988680409
 20
175.5782130271323069
 30
0.0
 40
0.0149663935905065
 50
176.7145128345750891
 51
203.8932772991227012
  0
ARC
  5
1950D
  8
0
 10
4060.900204406344983
 20
175.5780019305665007
 30
0.0
 40
0.0130054966334058
 50
146.1436081441474926
 51
175.2859131453955968
  0
ARC
  5
1950E
  8
0
 10
4060.9050145531209637
 20
175.5745992053940085
 30
0.0
 40
0.0188962851505126
 50
120.7897639002468964
 51
145.7010630370454862
  0
ARC
  5
1950F
  8
0
 10
4060.9105625993270223
 20
175.5646706158140091
 30
0.0
 40
0.0302670921759264
 50
87.6482218531213135
 51
120.1910272397954031
  0
ARC
  5
19510
  8
0
 10
4060.9106363667337973
 20
175.5887896330388003
 30
0.0
 40
0.0289966013830392
 50
244.6640758317086863
 51
269.2542323531046122
  0
ARC
  5
19511
  8
0
 10
4060.910898552971048
 20
175.5828971564197047
 30
0.0
 40
0.0185923488158952
 50
269.7442606393860274
 51
288.9192794619472124
  0
ARC
  5
19512
  8
0
 10
4060.9120240389220271
 20
175.579566911293
 30
0.0
 40
0.0150771006022448
 50
288.9766678707892993
 51
302.0054758641663284
  0
ARC
  5
19513
  8
0
 10
4060.9111336388409654
 20
175.5666781345379945
 30
0.0
 40
0.0171143241914516
 50
57.990326719175151
 51
91.0912301414281131
  0
ARC
  5
19514
  8
0
 10
4060.9153502686108368
 20
175.573087807802608
 30
0.0
 40
0.0094457867846938
 50
18.9530933820168492
 51
59.0700974018845315
  0
ARC
  5
19515
  8
0
 10
4060.9734695665852087
 20
175.5665541835215038
 30
0.0
 40
0.0172389893607023
 50
89.228389724111608
 51
122.3744172389967986
  0
ARC
  5
19516
  8
0
 10
4060.9806419121991894
 20
175.5740562835179901
 30
0.0
 40
0.0068656506586335
 50
350.0170261959028721
 51
17.8255646942772792
  0
ARC
  5
19517
  8
0
 10
4060.9796202495022044
 20
175.5743009891502027
 30
0.0
 40
0.0079145236307497
 50
323.1515603953786808
 51
349.554502739617817
  0
ARC
  5
19518
  8
0
 10
4060.9770830606771597
 20
175.5762438489990984
 30
0.0
 40
0.0111100279204189
 50
301.6264090746806801
 51
322.9804915264755891
  0
ARC
  5
19519
  8
0
 10
4060.9736520503479369
 20
175.5827948112118122
 30
0.0
 40
0.0184876531248613
 50
249.9182121147021007
 51
270.1782900583842775
  0
ARC
  5
1951A
  8
0
 10
4060.9716934374519042
 20
175.5778615143985064
 30
0.0
 40
0.0131825766178786
 50
223.5512996858952022
 51
250.5511951727212931
  0
ARC
  5
1951B
  8
0
 10
4060.9679764649681601
 20
175.5743187509573886
 30
0.0
 40
0.0080476973503088
 50
186.3111982218132994
 51
223.5040454053753081
  0
ARC
  5
1951C
  8
0
 10
4060.9671037359607908
 20
175.5740313112451076
 30
0.0
 40
0.0071511778164095
 50
154.2726404410855992
 51
184.7906496159135088
  0
ARC
  5
1951D
  8
0
 10
4060.9696779617511311
 20
175.5726247133202946
 30
0.0
 40
0.0100819210422961
 50
122.6483341477785984
 51
153.4217599213081087
  0
ARC
  5
1951E
  8
0
 10
4060.9743332488669694
 20
175.5659833012429942
 30
0.0
 40
0.0289334751393148
 50
55.5114033734182826
 51
89.2764619795063368
  0
ARC
  5
1951F
  8
0
 10
4060.9814656076268875
 20
175.5764731255256095
 30
0.0
 40
0.0162488259048989
 50
20.9328622824732911
 51
55.2962596402885609
  0
ARC
  5
19520
  8
0
 10
4060.9851307432618341
 20
175.5781729405252065
 30
0.0
 40
0.0122214570789674
 50
355.9246945276710221
 51
19.6286528306235191
  0
ARC
  5
19521
  8
0
 10
4060.9822203266799079
 20
175.5782781228595013
 30
0.0
 40
0.0151323329761961
 50
342.2280093890946091
 51
356.310597704012082
  0
ARC
  5
19522
  8
0
 10
4060.9809352737170229
 20
175.5787512829151069
 30
0.0
 40
0.0165005872815783
 50
320.5760510092146092
 51
342.0254179140031852
  0
ARC
  5
19523
  8
0
 10
4060.9769176215068001
 20
175.5822936951169879
 30
0.0
 40
0.0218544997694999
 50
292.5372131709056021
 51
320.0910927641933768
  0
ARC
  5
19524
  8
0
 10
4060.9738266891981766
 20
175.589312509843694
 30
0.0
 40
0.0295224555372933
 50
268.6923593592632074
 51
292.856827735931688
  0
ARC
  5
19525
  8
0
 10
4060.9710594636148926
 20
175.5832619814449913
 30
0.0
 40
0.0229416127743103
 50
231.1342677831410981
 51
244.3315776295332
  0
ARC
  5
19526
  8
0
 10
4060.9679146148228028
 20
175.5796078718427111
 30
0.0
 40
0.0181237391633435
 50
204.2872149242857915
 51
231.6264768153669138
  0
ARC
  5
19527
  8
0
 10
4060.9650787116379433
 20
175.5782152819178066
 30
0.0
 40
0.0149663935905065
 50
176.7145128345750891
 51
203.8932772991227012
  0
ARC
  5
19528
  8
0
 10
4060.963098419115795
 20
175.5780041853521141
 30
0.0
 40
0.0130054966334058
 50
146.1436081441474926
 51
175.2859131453955968
  0
ARC
  5
19529
  8
0
 10
4060.9679085658908662
 20
175.5746014601795935
 30
0.0
 40
0.0188962851505126
 50
120.7897639002468964
 51
145.7010630370454862
  0
ARC
  5
1952A
  8
0
 10
4060.9734566120978343
 20
175.564672870599594
 30
0.0
 40
0.0302670921759264
 50
87.6482218531213135
 51
120.1910272397954031
  0
ARC
  5
1952B
  8
0
 10
4060.973530379505064
 20
175.5887918878242999
 30
0.0
 40
0.0289966013830392
 50
244.6640758317086863
 51
269.2542323531046122
  0
ARC
  5
1952C
  8
0
 10
4060.97379256574186
 20
175.5828994112052044
 30
0.0
 40
0.0185923488158952
 50
269.7442606393860274
 51
288.9192794619472124
  0
ARC
  5
1952D
  8
0
 10
4060.9749180516942033
 20
175.5795691660786133
 30
0.0
 40
0.0150771006022448
 50
288.9766678707892993
 51
302.0054758641663284
  0
ARC
  5
1952E
  8
0
 10
4060.9740276516117774
 20
175.5666803893234942
 30
0.0
 40
0.0171143241914516
 50
57.990326719175151
 51
91.0912301414281131
  0
ARC
  5
1952F
  8
0
 10
4060.9782442813821035
 20
175.5730900625881077
 30
0.0
 40
0.0094457867846938
 50
18.9530933820168492
 51
59.0700974018845315
  0
ARC
  5
19530
  8
0
 10
4061.036461692578996
 20
175.5665541835215038
 30
0.0
 40
0.0172389893607023
 50
89.228389724111608
 51
122.3744172389967986
  0
ARC
  5
19531
  8
0
 10
4061.0436340381938862
 20
175.5740562835179901
 30
0.0
 40
0.0068656506586335
 50
350.0170261959028721
 51
17.8255646942772792
  0
ARC
  5
19532
  8
0
 10
4061.0426123754950822
 20
175.5743009891502027
 30
0.0
 40
0.0079145236307497
 50
323.1515603953786808
 51
349.554502739617817
  0
ARC
  5
19533
  8
0
 10
4061.040075186670947
 20
175.5762438489990984
 30
0.0
 40
0.0111100279204189
 50
301.6264090746806801
 51
322.9804915264755891
  0
ARC
  5
19534
  8
0
 10
4061.036644176342179
 20
175.5827948112118122
 30
0.0
 40
0.0184876531248613
 50
249.9182121147021007
 51
270.1782900583842775
  0
ARC
  5
19535
  8
0
 10
4061.0346855634461463
 20
175.5778615143985064
 30
0.0
 40
0.0131825766178786
 50
223.5512996858952022
 51
250.5511951727212931
  0
ARC
  5
19536
  8
0
 10
4061.030968590961038
 20
175.5743187509573886
 30
0.0
 40
0.0080476973503088
 50
186.3111982218132994
 51
223.5040454053753081
  0
ARC
  5
19537
  8
0
 10
4061.0300958619550329
 20
175.5740313112451076
 30
0.0
 40
0.0071511778164095
 50
154.2726404410855992
 51
184.7906496159135088
  0
ARC
  5
19538
  8
0
 10
4061.0326700877449184
 20
175.5726247133202946
 30
0.0
 40
0.0100819210422961
 50
122.6483341477785984
 51
153.4217599213081087
  0
ARC
  5
19539
  8
0
 10
4061.0373253748612115
 20
175.5659833012429942
 30
0.0
 40
0.0289334751393148
 50
55.5114033734182826
 51
89.2764619795063368
  0
ARC
  5
1953A
  8
0
 10
4061.0444577336220391
 20
175.5764731255256095
 30
0.0
 40
0.0162488259048989
 50
20.9328622824732911
 51
55.2962596402885609
  0
ARC
  5
1953B
  8
0
 10
4061.0481228692551667
 20
175.5781729405252065
 30
0.0
 40
0.0122214570789674
 50
355.9246945276710221
 51
19.6286528306235191
  0
ARC
  5
1953C
  8
0
 10
4061.0452124526750595
 20
175.5782781228595013
 30
0.0
 40
0.0151323329761961
 50
342.2280093890946091
 51
356.310597704012082
  0
ARC
  5
1953D
  8
0
 10
4061.0439273997108103
 20
175.5787512829151069
 30
0.0
 40
0.0165005872815783
 50
320.5760510092146092
 51
342.0254179140031852
  0
ARC
  5
1953E
  8
0
 10
4061.0399097475019516
 20
175.5822936951169879
 30
0.0
 40
0.0218544997694999
 50
292.5372131709056021
 51
320.0910927641933768
  0
ARC
  5
1953F
  8
0
 10
4061.0368188151919639
 20
175.589312509843694
 30
0.0
 40
0.0295224555372933
 50
268.6923593592632074
 51
292.856827735931688
  0
ARC
  5
19540
  8
0
 10
4061.0340515896091347
 20
175.5832619814449913
 30
0.0
 40
0.0229416127743103
 50
231.1342677831410981
 51
244.3315776295332
  0
ARC
  5
19541
  8
0
 10
4061.0309067408170449
 20
175.5796078718427111
 30
0.0
 40
0.0181237391633435
 50
204.2872149242857915
 51
231.6264768153669138
  0
ARC
  5
19542
  8
0
 10
4061.0280708376321854
 20
175.5782152819178066
 30
0.0
 40
0.0149663935905065
 50
176.7145128345750891
 51
203.8932772991227012
  0
ARC
  5
19543
  8
0
 10
4061.0260905451100371
 20
175.5780041853521141
 30
0.0
 40
0.0130054966334058
 50
146.1436081441474926
 51
175.2859131453955968
  0
ARC
  5
19544
  8
0
 10
4061.0309006918851082
 20
175.5746014601795935
 30
0.0
 40
0.0188962851505126
 50
120.7897639002468964
 51
145.7010630370454862
  0
ARC
  5
19545
  8
0
 10
4061.0364487380920764
 20
175.564672870599594
 30
0.0
 40
0.0302670921759264
 50
87.6482218531213135
 51
120.1910272397954031
  0
ARC
  5
19546
  8
0
 10
4061.0365225054979419
 20
175.5887918878242999
 30
0.0
 40
0.0289966013830392
 50
244.6640758317086863
 51
269.2542323531046122
  0
ARC
  5
19547
  8
0
 10
4061.0367846917361021
 20
175.5828994112052044
 30
0.0
 40
0.0185923488158952
 50
269.7442606393860274
 51
288.9192794619472124
  0
ARC
  5
19548
  8
0
 10
4061.0379101776870812
 20
175.5795691660786133
 30
0.0
 40
0.0150771006022448
 50
288.9766678707892993
 51
302.0054758641663284
  0
ARC
  5
19549
  8
0
 10
4061.0370197776060195
 20
175.5666803893234942
 30
0.0
 40
0.0171143241914516
 50
57.990326719175151
 51
91.0912301414281131
  0
ARC
  5
1954A
  8
0
 10
4061.0412364073758908
 20
175.5730900625881077
 30
0.0
 40
0.0094457867846938
 50
18.9530933820168492
 51
59.0700974018845315
  0
ATTDEF
  5
1954C
  8
DEFPOINTS
 10
4060.4700371191511294
 20
170.2572670407735131
 30
0.0
 40
0.001
  1
K-98454T
  3

  2
MODELNUMBER
 70
     0
1001
ACDBATTR
1070
     0
1070
     1
  0
ATTDEF
  5
1954D
  8
DEFPOINTS
 10
4060.4699113094939094
 20
170.2556002003944116
 30
0.0
 40
0.001
  1
LOURE
  3

  2
TRADENAME
 70
     0
1001
ACDBATTR
1070
     0
1070
     1
  0
ATTDEF
  5
1954E
  8
DEFPOINTS
 10
4060.4700371191511294
 20
170.2539337074402113
 30
0.0
 40
0.001
  1
BATHROOM SINK FAUCET
  3

  2
PRODUCT
 70
     0
1001
ACDBATTR
1070
     0
1070
     1
  0
ENDSEC
  0
EOF
