  0
SECTION
  2
HEADER
  9
$ACADVER
  1
AC1009
  9
$INSBASE
 10
4056.0735220901360663
 20
170.2587420501903068
 30
0.0
  9
$EXTMIN
 10
4054.8530496491857775
 20
170.2541992955954981
 30
0.0
  9
$EXTMAX
 10
4057.2939945310849907
 20
178.3099231525903861
 30
0.0
  9
$LIMMIN
 10
0.0
 20
0.0
  9
$LIMMAX
 10
11.6929133858000007
 20
8.2677165353999982
  9
$ORTHOMODE
 70
     0
  9
$REGENMODE
 70
     1
  9
$FILLMODE
 70
     1
  9
$QTEXTMODE
 70
     0
  9
$MIRRTEXT
 70
     0
  9
$DRAGMODE
 70
     2
  9
$LTSCALE
 40
0.6431102362
  9
$OSMODE
 70
  4095
  9
$ATTMODE
 70
     1
  9
$TEXTSIZE
 40
0.2
  9
$TRACEWID
 40
0.05
  9
$TEXTSTYLE
  7
STANDARD
  9
$CLAYER
  8
0
  9
$CELTYPE
  6
BYLAYER
  9
$CECOLOR
 62
   256
  9
$DIMSCALE
 40
1.0
  9
$DIMASZ
 40
0.1875
  9
$DIMEXO
 40
0.0625
  9
$DIMDLI
 40
0.4443307087
  9
$DIMRND
 40
0.0
  9
$DIMDLE
 40
0.0
  9
$DIMEXE
 40
0.125
  9
$DIMTP
 40
0.01
  9
$DIMTM
 40
0.01
  9
$DIMTXT
 40
2.0
  9
$DIMCEN
 40
0.1052362205
  9
$DIMTSZ
 40
0.0
  9
$DIMTOL
 70
     1
  9
$DIMLIM
 70
     0
  9
$DIMTIH
 70
     1
  9
$DIMTOH
 70
     1
  9
$DIMSE1
 70
     0
  9
$DIMSE2
 70
     0
  9
$DIMTAD
 70
     0
  9
$DIMZIN
 70
     0
  9
$DIMBLK
  1

  9
$DIMASO
 70
     1
  9
$DIMSHO
 70
     1
  9
$DIMPOST
  1
\X
  9
$DIMAPOST
  1

  9
$DIMALT
 70
     1
  9
$DIMALTD
 70
     2
  9
$DIMALTF
 40
25.3999999999999986
  9
$DIMLFAC
 40
1.0
  9
$DIMTOFL
 70
     0
  9
$DIMTVP
 40
0.0
  9
$DIMTIX
 70
     0
  9
$DIMSOXD
 70
     0
  9
$DIMSAH
 70
     0
  9
$DIMBLK1
  1

  9
$DIMBLK2
  1

  9
$DIMSTYLE
  2
STANDARD
  9
$DIMCLRD
 70
     0
  9
$DIMCLRE
 70
     0
  9
$DIMCLRT
 70
     0
  9
$DIMTFAC
 40
1.0
  9
$DIMGAP
 40
0.09
  9
$LUNITS
 70
     2
  9
$LUPREC
 70
     4
  9
$SKETCHINC
 40
0.1
  9
$FILLETRAD
 40
0.0
  9
$AUNITS
 70
     0
  9
$AUPREC
 70
     0
  9
$MENU
  1
.
  9
$ELEVATION
 40
0.0
  9
$PELEVATION
 40
0.0
  9
$THICKNESS
 40
0.0
  9
$LIMCHECK
 70
     0
  9
$BLIPMODE
 70
     0
  9
$CHAMFERA
 40
0.0
  9
$CHAMFERB
 40
0.0
  9
$SKPOLY
 70
     0
  9
$TDCREATE
 40
2458060.468368056230247
  9
$TDUPDATE
 40
2459163.825196759775281
  9
$TDINDWG
 40
0.4417431713
  9
$TDUSRTIMER
 40
0.4417431713
  9
$USRTIMER
 70
     1
  9
$ANGBASE
 50
0.0
  9
$ANGDIR
 70
     0
  9
$PDMODE
 70
     0
  9
$PDSIZE
 40
0.3125
  9
$PLINEWID
 40
0.0
  9
$COORDS
 70
     1
  9
$SPLFRAME
 70
     0
  9
$SPLINETYPE
 70
     6
  9
$SPLINESEGS
 70
     8
  9
$ATTDIA
 70
     1
  9
$ATTREQ
 70
     1
  9
$HANDLING
 70
     1
  9
$HANDSEED
  5
1A071
  9
$SURFTAB1
 70
     6
  9
$SURFTAB2
 70
     6
  9
$SURFTYPE
 70
     6
  9
$SURFU
 70
     6
  9
$SURFV
 70
     6
  9
$UCSNAME
  2

  9
$UCSORG
 10
0.0
 20
0.0
 30
0.0
  9
$UCSXDIR
 10
1.0
 20
0.0
 30
0.0
  9
$UCSYDIR
 10
0.0
 20
1.0
 30
0.0
  9
$PUCSNAME
  2

  9
$PUCSORG
 10
0.0
 20
0.0
 30
0.0
  9
$PUCSXDIR
 10
1.0
 20
0.0
 30
0.0
  9
$PUCSYDIR
 10
0.0
 20
1.0
 30
0.0
  9
$USERI1
 70
     0
  9
$USERI2
 70
     0
  9
$USERI3
 70
     0
  9
$USERI4
 70
     0
  9
$USERI5
 70
     0
  9
$USERR1
 40
0.0
  9
$USERR2
 40
0.0
  9
$USERR3
 40
0.0
  9
$USERR4
 40
0.0
  9
$USERR5
 40
0.0
  9
$WORLDVIEW
 70
     1
  9
$SHADEDGE
 70
     3
  9
$SHADEDIF
 70
    70
  9
$TILEMODE
 70
     1
  9
$MAXACTVP
 70
    64
  9
$PLIMCHECK
 70
     0
  9
$PEXTMIN
 10
1.0000000000000000E+20
 20
1.0000000000000000E+20
 30
1.0000000000000000E+20
  9
$PEXTMAX
 10
-1.0000000000000000E+20
 20
-1.0000000000000000E+20
 30
-1.0000000000000000E+20
  9
$PLIMMIN
 10
0.0
 20
0.0
  9
$PLIMMAX
 10
12.0
 20
9.0
  9
$UNITMODE
 70
     0
  9
$VISRETAIN
 70
     1
  9
$PLINEGEN
 70
     0
  9
$PSLTSCALE
 70
     1
  0
ENDSEC
  0
SECTION
  2
TABLES
  0
TABLE
  2
VPORT
 70
     1
  0
VPORT
  2
*ACTIVE
 70
     0
 10
0.0
 20
0.0
 11
1.0
 21
1.0
 12
144.7081656272509917
 22
41.7024561121134809
 13
0.0
 23
0.0
 14
1.0
 24
1.0
 15
0.0
 25
0.0
 16
0.0
 26
0.0
 36
60.4960186965801583
 17
3911.3653564453120453
 27
132.5796051025390057
 37
0.0
 40
10.8663953289252806
 41
1.861419068736142
 42
50.0
 43
0.0
 44
0.0
 50
0.0
 51
0.0
 71
     0
 72
   100
 73
     1
 74
     1
 75
     0
 76
     0
 77
     0
 78
     0
  0
ENDTAB
  0
TABLE
  2
LTYPE
 70
     2
  0
LTYPE
  2
CONTINUOUS
 70
     0
  3
Solid line
 72
    65
 73
     0
 40
0.0
  0
LTYPE
  2
PHANTOM2
 70
     0
  3
___ _ _ ___ _ _ ___ _ _ ___ _ _
 72
    65
 73
     6
 40
1.25
 49
0.625
 49
-0.125
 49
0.125
 49
-0.125
 49
0.125
 49
-0.125
  0
ENDTAB
  0
TABLE
  2
LAYER
 70
     2
  0
LAYER
  2
0
 70
     0
 62
   255
  6
CONTINUOUS
  0
LAYER
  2
DEFPOINTS
 70
     0
 62
     7
  6
CONTINUOUS
  0
ENDTAB
  0
TABLE
  2
STYLE
 70
     1
  0
STYLE
  2
STANDARD
 70
     0
 40
0.0
 41
0.8
 50
0.0
 71
     0
 42
0.2
  3
txt
  4

  0
ENDTAB
  0
TABLE
  2
VIEW
 70
     0
  0
ENDTAB
  0
TABLE
  2
UCS
 70
     0
  0
ENDTAB
  0
TABLE
  2
APPID
 70
    11
  0
APPID
  2
ACAD
 70
     0
  0
APPID
  2
ACAD_MLEADERVER
 70
     0
  0
APPID
  2
ACAD_EXEMPT_FROM_CAD_STANDARDS
 70
     0
  0
APPID
  2
ACAD_NAV_VCDISPLAY
 70
     0
  0
APPID
  2
ACAECLAYERSTANDARD
 70
     0
  0
APPID
  2
ACCMTRANSPARENCY
 70
     0
  0
APPID
  2
ACAD_DSTYLE_DIMJAG
 70
     0
  0
APPID
  2
ACAD_DSTYLE_DIMTALN
 70
     0
  0
APPID
  2
ACDBATTR
 70
     0
  0
APPID
  2
ACADANNOTATIVE
 70
     0
  0
APPID
  2
DCO15
 70
     0
  0
ENDTAB
  0
TABLE
  2
DIMSTYLE
 70
     1
  0
DIMSTYLE
  2
STANDARD
 70
     0
  3

  4

  5

  6

  7

 40
1.0
 41
0.1875
 42
0.0625
 43
0.38
 44
0.125
 45
0.0
 46
0.0
 47
0.01
 48
0.01
140
0.15625
141
0.09
142
0.0
143
25.3999999999999986
144
1.0
145
0.0
146
1.0
147
0.09
 71
     1
 72
     0
 73
     1
 74
     1
 75
     0
 76
     0
 77
     0
 78
     4
170
     0
171
     2
172
     0
173
     0
174
     0
175
     0
176
     0
177
     0
178
     0
  0
ENDTAB
  0
ENDSEC
  0
SECTION
  2
BLOCKS
  0
BLOCK
  8
0
  2
$MODEL_SPACE
 70
     0
 10
0.0
 20
0.0
 30
0.0
  3
$MODEL_SPACE
  1

  0
ENDBLK
  5
21
  8
0
  0
BLOCK
 67
     1
  8
0
  2
$PAPER_SPACE
 70
     0
 10
0.0
 20
0.0
 30
0.0
  3
$PAPER_SPACE
  1

  0
ENDBLK
  5
1D
 67
     1
  8
0
  0
ENDSEC
  0
SECTION
  2
ENTITIES
  0
LINE
  5
19AA3
  8
0
  6
CONTINUOUS
 62
     7
 10
4054.8530496491857775
 20
170.2587420501903068
 30
0.0
 11
4057.2939945310849907
 21
170.2587420501903068
 31
0.0
  0
LINE
  5
19AA4
  8
0
  6
CONTINUOUS
 62
     7
 10
4054.8924197278861357
 20
170.4752774831904105
 30
0.0
 11
4057.2546244523859968
 21
170.4752774831904105
 31
0.0
  0
LINE
  5
19AA5
  8
0
  6
CONTINUOUS
 62
     7
 10
4054.8530496491857775
 20
170.4359074044903082
 30
0.0
 11
4054.8530496491857775
 21
170.2587420501903068
 31
0.0
  0
LINE
  5
19AA6
  8
0
  6
CONTINUOUS
 62
     7
 10
4055.3058055546857759
 20
170.4752774831904105
 30
0.0
 11
4055.3058055546857759
 21
178.2902351934903038
 31
0.0
  0
LINE
  5
19AA7
  8
0
  6
CONTINUOUS
 62
     7
 10
4055.3648606727861079
 20
175.7858714712903065
 30
0.0
 11
4055.3648606727861079
 21
175.4796441250904024
 31
0.0
  0
LINE
  5
19AA8
  8
0
  6
CONTINUOUS
 62
     7
 10
4055.3727346885862062
 20
175.4949554924903055
 30
0.0
 11
4055.3727346885862062
 21
175.8067036726500874
 31
0.0
  0
LINE
  5
19AA9
  8
0
  6
CONTINUOUS
 62
     7
 10
4055.4672228775862095
 20
175.7698075936903024
 30
0.0
 11
4055.4672228775862095
 21
175.6775131016904083
 31
0.0
  0
LINE
  5
19AAA
  8
0
  6
CONTINUOUS
 62
     7
 10
4056.8412386255859019
 20
170.4752774831904105
 30
0.0
 11
4056.8412386255859019
 21
178.2902345948903076
 31
0.0
  0
LINE
  5
19AAB
  8
0
  6
CONTINUOUS
 62
     7
 10
4055.3254905940862045
 20
175.4141239060903104
 30
0.0
 11
4056.821553586185928
 21
175.4141239060903104
 31
0.0
  0
LINE
  5
19AAC
  8
0
  6
CONTINUOUS
 62
     7
 10
4057.2939945310849907
 20
170.2587420501903068
 30
0.0
 11
4057.2939945310849907
 21
170.4359074044903082
 31
0.0
  0
LINE
  5
19AAD
  8
0
  6
CONTINUOUS
 62
     7
 10
4055.4042307515860557
 20
175.451805275490301
 30
0.0
 11
4056.7428134286860768
 21
175.451805275490301
 31
0.0
  0
LINE
  5
19AAE
  8
0
  6
CONTINUOUS
 62
     7
 10
4055.4121047672861096
 20
175.4659635198904084
 30
0.0
 11
4056.7349394129860229
 21
175.4659635198904084
 31
0.0
  0
LINE
  5
19AAF
  8
0
  6
CONTINUOUS
 62
     7
 10
4055.5065929562870224
 20
175.6217455647903023
 30
0.0
 11
4056.6404512239860196
 21
175.6217455647903023
 31
0.0
  0
LINE
  5
19AB0
  8
0
  6
CONTINUOUS
 62
     7
 10
4055.5065929564848375
 20
175.6467482709904004
 30
0.0
 11
4056.6404512237859308
 21
175.6467482709904004
 31
0.0
  0
LINE
  5
19AB1
  8
0
  6
CONTINUOUS
 62
     7
 10
4056.6404512237859308
 20
175.800572424290408
 30
0.0
 11
4055.5065929564848375
 21
175.800572424290408
 31
0.0
  0
LINE
  5
19AB2
  8
0
  6
CONTINUOUS
 62
     7
 10
4056.6404512239860196
 20
175.8011650455904089
 30
0.0
 11
4055.5065929562870224
 21
175.8011650455904089
 31
0.0
  0
LINE
  5
19AB3
  8
0
  6
CONTINUOUS
 62
     7
 10
4055.4239157908859852
 20
175.8276297457904036
 30
0.0
 11
4056.7231283893861473
 21
175.8276297457904036
 31
0.0
  0
LINE
  5
19AB4
  8
0
  6
CONTINUOUS
 62
     7
 10
4055.3254905940862045
 20
175.8624283077903101
 30
0.0
 11
4056.821553586185928
 21
175.8624283077903101
 31
0.0
  0
LINE
  5
19AB5
  8
0
  6
CONTINUOUS
 62
     7
 10
4056.821553586185928
 20
177.8833670981902912
 30
0.0
 11
4055.3254905940862045
 21
177.8833670981902912
 31
0.0
  0
LINE
  5
19AB6
  8
0
  6
CONTINUOUS
 62
     7
 10
4056.821553586185928
 20
178.3099231524903132
 30
0.0
 11
4055.3254905940862045
 21
178.3099231524903132
 31
0.0
  0
ARC
  5
19AB7
  8
0
  6
CONTINUOUS
 62
     7
 10
4057.2546244523859968
 20
170.4359074044903082
 30
0.0
 40
0.0393700787
 50
0.0
 51
90.0
  0
ARC
  5
19AB8
  8
0
  6
CONTINUOUS
 62
     7
 10
4054.8924197278861357
 20
170.4359074044903082
 30
0.0
 40
0.0393700787
 50
90.0
 51
180.0
  0
ARC
  5
19AB9
  8
0
  6
CONTINUOUS
 62
     7
 10
4055.3254905942380901
 20
178.2902381128207878
 30
0.0
 40
0.019685039769545
 50
90.000000445542284
 51
180.008497077815008
  0
ARC
  5
19ABA
  8
0
  6
CONTINUOUS
 62
     7
 10
4056.8215535859640113
 20
178.2902381126538103
 30
0.0
 40
0.0196850399365649
 50
359.9897611079341004
 51
89.999999353103874
  0
LINE
  5
19ABB
  8
0
  6
CONTINUOUS
 62
     7
 10
4055.448674240085893
 20
175.7600238996903101
 30
0.0
 11
4055.4487112285860348
 21
175.6629139788904013
 31
0.0
  0
ARC
  5
19ABC
  8
0
 10
4055.3254350526772214
 20
175.8355308030390916
 30
0.0
 40
0.0268975620957128
 50
89.8816885120467362
 51
106.5329672279640931
  0
ARC
  5
19ABD
  8
0
 10
4055.3242563226890525
 20
175.8395731725630071
 30
0.0
 40
0.0226869011237546
 50
106.5843060288132023
 51
118.2499668746333015
  0
ARC
  5
19ABE
  8
0
 10
4055.3215980360359936
 20
175.8442879699084074
 30
0.0
 40
0.0172758110859093
 50
117.8849571454097003
 51
136.9858942747679862
  0
ARC
  5
19ABF
  8
0
 10
4055.3180962787650969
 20
175.847562732289191
 30
0.0
 40
0.0124814051095855
 50
137.0117687224347094
 51
157.0099045056792022
  0
ARC
  5
19AC0
  8
0
 10
4055.3160649053402267
 20
175.8484639588598952
 30
0.0
 40
0.0102594490117422
 50
157.2123480861862959
 51
179.7491123974427012
  0
ARC
  5
19AC1
  8
0
 10
4055.3251210016292134
 20
175.4353958324446126
 30
0.0
 40
0.0212751368833525
 50
226.7581126339707112
 51
270.9953944542863837
  0
ARC
  5
19AC2
  8
0
 10
4055.3214070368921966
 20
175.4310989324962122
 30
0.0
 40
0.015602439069179
 50
180.6345538149118966
 51
225.8832971326932864
  0
ARC
  5
19AC3
  8
0
 10
4055.3879186828307866
 20
175.4803421358672892
 30
0.0
 40
0.0230685726978696
 50
181.7339250777098982
 51
227.026369784080714
  0
ARC
  5
19AC4
  8
0
 10
4055.4023039036442242
 20
175.4963582556489996
 30
0.0
 40
0.0445946272997394
 50
227.5305070838655013
 51
272.4764112211306042
  0
ARC
  5
19AC5
  8
0
 10
4055.4118580358172039
 20
175.517045931839192
 30
0.0
 40
0.0510830078101249
 50
248.3244584409385141
 51
270.2767402973357775
  0
ARC
  5
19AC6
  8
0
 10
4055.4065997812290334
 20
175.5044563063327985
 30
0.0
 40
0.0374422005110426
 50
224.5479472737467006
 51
248.6863116007131111
  0
ARC
  5
19AC7
  8
0
 10
4055.3973337792122038
 20
175.4955719599049075
 30
0.0
 40
0.0246068139308655
 50
181.4355650729355887
 51
224.9405372188469983
  0
ARC
  5
19AC8
  8
0
 10
4055.4063972334060963
 20
175.7920811798418015
 30
0.0
 40
0.0336708988526398
 50
136.4322112458393974
 51
178.7236572027732109
  0
ARC
  5
19AC9
  8
0
 10
4055.3981715294999049
 20
175.7851785487418965
 30
0.0
 40
0.0333180629192193
 50
140.1393566257968075
 51
178.8083220749414011
  0
ARC
  5
19ACA
  8
0
 10
4055.4091197836710307
 20
175.7767280644239918
 30
0.0
 40
0.0471410929128177
 50
125.1189313003998933
 51
140.7839554283110886
  0
ARC
  5
19ACB
  8
0
 10
4055.4174548230112123
 20
175.7649497869340109
 30
0.0
 40
0.0615702076698721
 50
111.8518049779458039
 51
125.1579886128964034
  0
ARC
  5
19ACC
  8
0
 10
4055.4227528400638221
 20
175.7516690717575045
 30
0.0
 40
0.0758686634976171
 50
97.8550942659010445
 51
111.8323020867568971
  0
ARC
  5
19ACD
  8
0
 10
4055.4238964452988512
 20
175.74479425568029
 30
0.0
 40
0.0828354923690248
 50
89.9866189456450059
 51
97.9888005669192239
  0
ARC
  5
19ACE
  8
0
 10
4055.5064404199301862
 20
175.6952483436180046
 30
0.0
 40
0.0485003124967649
 50
248.0500586336787023
 51
270.1801991543745771
  0
ARC
  5
19ACF
  8
0
 10
4055.5026780905868691
 20
175.6862293358229863
 30
0.0
 40
0.0387289211248795
 50
225.5047213867630091
 51
248.2251148672413024
  0
ARC
  5
19AD0
  8
0
 10
4055.4958211130920063
 20
175.6792421389629055
 30
0.0
 40
0.0289391808495118
 50
201.6866098663628861
 51
225.4931549517862095
  0
ARC
  5
19AD1
  8
0
 10
4055.491935065349935
 20
175.6775746469726016
 30
0.0
 40
0.0247122644022053
 50
180.1426938669708875
 51
201.4235604974794001
  0
ARC
  5
19AD2
  8
0
 10
4055.5060564383920791
 20
175.6969250411164865
 30
0.0
 40
0.0751813907301642
 50
243.8522877797826993
 51
270.4088840542048047
  0
ARC
  5
19AD3
  8
0
 10
4055.4926724796318922
 20
175.6714125465169047
 30
0.0
 40
0.0463880987511126
 50
210.8262280316214969
 51
244.8049159274389979
  0
ARC
  5
19AD4
  8
0
 10
4055.4800203662948661
 20
175.6631800564514094
 30
0.0
 40
0.031310268305492
 50
180.4869107035688955
 51
209.7537317376944941
  0
ARC
  5
19AD5
  8
0
 10
4055.492519422362875
 20
175.7696540157207039
 30
0.0
 40
0.0252970109669079
 50
149.4659453348502041
 51
179.6521556024426047
  0
ARC
  5
19AD6
  8
0
 10
4055.4981720302362191
 20
175.766278080566309
 30
0.0
 40
0.0318809221881936
 50
127.3777579730306968
 51
149.4012906798488984
  0
ARC
  5
19AD7
  8
0
 10
4055.5036835747177975
 20
175.7593013841517973
 30
0.0
 40
0.0407710911894342
 50
110.0282455563474002
 51
127.5807204461678026
  0
ARC
  5
19AD8
  8
0
 10
4055.5064950884680002
 20
175.7516478813203946
 30
0.0
 40
0.0489246408567882
 50
89.885386421841531
 51
110.0520038029784047
  0
ARC
  5
19AD9
  8
0
 10
4055.5065261812769677
 20
175.7206264890060936
 30
0.0
 40
0.0805385842660296
 50
89.9524957301843244
 51
104.6160613389246947
  0
ARC
  5
19ADA
  8
0
 10
4055.5029309269198166
 20
175.7338352780986952
 30
0.0
 40
0.0668501820432557
 50
104.4911058658879028
 51
120.4702621190844951
  0
ARC
  5
19ADB
  8
0
 10
4055.491018726744187
 20
175.7527057765618963
 30
0.0
 40
0.0445507388755787
 50
119.5725755165150019
 51
149.8266940485904115
  0
ARC
  5
19ADC
  8
0
 10
4055.4786108114999479
 20
175.7604410859617872
 30
0.0
 40
0.0299394781586776
 50
150.6894567921854957
 51
180.7984035690182054
  0
ARC
  5
19ADD
  8
0
 10
4055.4748378986651005
 20
175.5194749184423983
 30
0.0
 40
0.0172389893607023
 50
89.228389724111608
 51
122.3744172389967986
  0
ARC
  5
19ADE
  8
0
 10
4055.4820102442799907
 20
175.5269770184389131
 30
0.0
 40
0.0068656506586335
 50
350.0170261959028721
 51
17.8255646942772792
  0
ARC
  5
19ADF
  8
0
 10
4055.4809885815811867
 20
175.5272217240710972
 30
0.0
 40
0.0079145236307497
 50
323.1515603953786808
 51
349.554502739617817
  0
ARC
  5
19AE0
  8
0
 10
4055.4784513927570515
 20
175.529164583919993
 30
0.0
 40
0.0111100279204189
 50
301.6264090746806801
 51
322.9804915264755891
  0
ARC
  5
19AE1
  8
0
 10
4055.4750203824269192
 20
175.5357155461327068
 30
0.0
 40
0.0184876531248613
 50
249.9182121147021007
 51
270.1782900583842775
  0
ARC
  5
19AE2
  8
0
 10
4055.4730617695308865
 20
175.530782249319401
 30
0.0
 40
0.0131825766178786
 50
223.5512996858952022
 51
250.5511951727212931
  0
ARC
  5
19AE3
  8
0
 10
4055.4693447970471425
 20
175.5272394858783969
 30
0.0
 40
0.0080476973503088
 50
186.3111982218132994
 51
223.5040454053753081
  0
ARC
  5
19AE4
  8
0
 10
4055.4684720680411374
 20
175.5269520461660022
 30
0.0
 40
0.0071511778164095
 50
154.2726404410855992
 51
184.7906496159135088
  0
ARC
  5
19AE5
  8
0
 10
4055.4710462938301134
 20
175.5255454482411892
 30
0.0
 40
0.0100819210422961
 50
122.6483341477785984
 51
153.4217599213081087
  0
ARC
  5
19AE6
  8
0
 10
4055.4757015809459517
 20
175.5189040361638888
 30
0.0
 40
0.0289334751393148
 50
55.5114033734182826
 51
89.2764619795063368
  0
ARC
  5
19AE7
  8
0
 10
4055.4828339397081436
 20
175.529393860446504
 30
0.0
 40
0.0162488259048989
 50
20.9328622824732911
 51
55.2962596402885609
  0
ARC
  5
19AE8
  8
0
 10
4055.4864990753421807
 20
175.5310936754461864
 30
0.0
 40
0.0122214570789674
 50
355.9246945276710221
 51
19.6286528306235191
  0
ARC
  5
19AE9
  8
0
 10
4055.4835886587597997
 20
175.5311988577803959
 30
0.0
 40
0.0151323329761961
 50
342.2280093890946091
 51
356.310597704012082
  0
ARC
  5
19AEA
  8
0
 10
4055.4823036057978243
 20
175.5316720178360015
 30
0.0
 40
0.0165005872815783
 50
320.5760510092146092
 51
342.0254179140031852
  0
ARC
  5
19AEB
  8
0
 10
4055.4782859535880561
 20
175.5352144300379109
 30
0.0
 40
0.0218544997694999
 50
292.5372131709056021
 51
320.0910927641933768
  0
ARC
  5
19AEC
  8
0
 10
4055.475195021277159
 20
175.5422332447645886
 30
0.0
 40
0.0295224555372933
 50
268.6923593592632074
 51
292.856827735931688
  0
ARC
  5
19AED
  8
0
 10
4055.4724277956938749
 20
175.5361827163658859
 30
0.0
 40
0.0229416127743103
 50
231.1342677831410981
 51
244.3315776295332
  0
ARC
  5
19AEE
  8
0
 10
4055.4692829469040589
 20
175.5325286067636057
 30
0.0
 40
0.0181237391633435
 50
204.2872149242857915
 51
231.6264768153669138
  0
ARC
  5
19AEF
  8
0
 10
4055.4664470437191994
 20
175.5311360168387012
 30
0.0
 40
0.0149663935905065
 50
176.7145128345750891
 51
203.8932772991227012
  0
ARC
  5
19AF0
  8
0
 10
4055.4644667511961416
 20
175.5309249202730086
 30
0.0
 40
0.0130054966334058
 50
146.1436081441474926
 51
175.2859131453955968
  0
ARC
  5
19AF1
  8
0
 10
4055.4692768979721222
 20
175.527522195100488
 30
0.0
 40
0.0188962851505126
 50
120.7897639002468964
 51
145.7010630370454862
  0
ARC
  5
19AF2
  8
0
 10
4055.4748249441781809
 20
175.5175936055204886
 30
0.0
 40
0.0302670921759264
 50
87.6482218531213135
 51
120.1910272397954031
  0
ARC
  5
19AF3
  8
0
 10
4055.4748987115849559
 20
175.5417126227451945
 30
0.0
 40
0.0289966013830392
 50
244.6640758317086863
 51
269.2542323531046122
  0
ARC
  5
19AF4
  8
0
 10
4055.4751608978222066
 20
175.535820146126099
 30
0.0
 40
0.0185923488158952
 50
269.7442606393860274
 51
288.9192794619472124
  0
ARC
  5
19AF5
  8
0
 10
4055.4762863837731857
 20
175.5324899009995079
 30
0.0
 40
0.0150771006022448
 50
288.9766678707892993
 51
302.0054758641663284
  0
ARC
  5
19AF6
  8
0
 10
4055.475395983692124
 20
175.5196011242443888
 30
0.0
 40
0.0171143241914516
 50
57.990326719175151
 51
91.0912301414281131
  0
ARC
  5
19AF7
  8
0
 10
4055.4796126134629048
 20
175.5260107975090875
 30
0.0
 40
0.0094457867846938
 50
18.9530933820168492
 51
59.0700974018845315
  0
LINE
  5
19AF8
  8
0
  6
CONTINUOUS
 62
     7
 10
4056.7821835074851151
 20
175.7858714712903065
 30
0.0
 11
4056.7821835074851151
 21
175.4796441250904024
 31
0.0
  0
LINE
  5
19AF9
  8
0
  6
CONTINUOUS
 62
     7
 10
4056.7743094916850168
 20
175.4949554924903055
 30
0.0
 11
4056.7743094916850168
 21
175.8067036726500874
 31
0.0
  0
LINE
  5
19AFA
  8
0
  6
CONTINUOUS
 62
     7
 10
4056.679821302685923
 20
175.7698075936903024
 30
0.0
 11
4056.679821302685923
 21
175.6775131016904083
 31
0.0
  0
LINE
  5
19AFB
  8
0
  6
CONTINUOUS
 62
     7
 10
4056.6983699401857848
 20
175.7600238996903101
 30
0.0
 11
4056.6983329516851882
 21
175.6629139788904013
 31
0.0
  0
ARC
  5
19AFC
  8
0
 10
4056.8216091275949111
 20
175.8355308030390916
 30
0.0
 40
0.0268975620957128
 50
73.46703277203585
 51
90.1183114879532781
  0
ARC
  5
19AFD
  8
0
 10
4056.82278785758308
 20
175.8395731725630071
 30
0.0
 40
0.0226869011237546
 50
61.7500331253666701
 51
73.4156939711867267
  0
ARC
  5
19AFE
  8
0
 10
4056.8254461442370484
 20
175.8442879699084074
 30
0.0
 40
0.0172758110859093
 50
43.0141057252319499
 51
62.1150428545902997
  0
ARC
  5
19AFF
  8
0
 10
4056.8289479015070356
 20
175.847562732289191
 30
0.0
 40
0.0124814051095855
 50
22.9900954943207587
 51
42.9882312775652622
  0
ARC
  5
19B00
  8
0
 10
4056.8309792749309963
 20
175.8484639588598952
 30
0.0
 40
0.0102594490117422
 50
0.2508876025572549
 51
22.7876519138136899
  0
ARC
  5
19B01
  8
0
 10
4056.8219231786429191
 20
175.4353958324446126
 30
0.0
 40
0.0212751368833525
 50
269.0046055457136163
 51
313.2418873660291752
  0
ARC
  5
19B02
  8
0
 10
4056.8256371433790264
 20
175.4310989324962122
 30
0.0
 40
0.015602439069179
 50
314.1167028673066852
 51
359.3654461850879898
  0
ARC
  5
19B03
  8
0
 10
4056.7591254974399817
 20
175.4803421358672892
 30
0.0
 40
0.0230685726978696
 50
312.973630215918206
 51
358.2660749222899881
  0
ARC
  5
19B04
  8
0
 10
4056.7447402766269988
 20
175.4963582556489996
 30
0.0
 40
0.0445946272997394
 50
267.5235887788693958
 51
312.4694929161345271
  0
ARC
  5
19B05
  8
0
 10
4056.7351861444540191
 20
175.517045931839192
 30
0.0
 40
0.0510830078101249
 50
269.7232597026642225
 51
291.6755415590614007
  0
ARC
  5
19B06
  8
0
 10
4056.7404443990421896
 20
175.5044563063327985
 30
0.0
 40
0.0374422005110426
 50
291.3136883992868889
 51
315.4520527262533278
  0
ARC
  5
19B07
  8
0
 10
4056.7497104010590192
 20
175.4955719599049075
 30
0.0
 40
0.0246068139308655
 50
315.0594627811530017
 51
358.5644349270643829
  0
ARC
  5
19B08
  8
0
 10
4056.7406469468660362
 20
175.7920811798418015
 30
0.0
 40
0.0336708988526398
 50
1.276342797226752
 51
43.5677887541606097
  0
ARC
  5
19B09
  8
0
 10
4056.7488726507708634
 20
175.7851785487418965
 30
0.0
 40
0.0333180629192193
 50
1.19167792505859
 51
39.8606433742032209
  0
ARC
  5
19B0A
  8
0
 10
4056.7379243966001923
 20
175.7767280644239918
 30
0.0
 40
0.0471410929128177
 50
39.2160445716900981
 51
54.8810686996000214
  0
ARC
  5
19B0B
  8
0
 10
4056.7295893572609202
 20
175.7649497869340109
 30
0.0
 40
0.0615702076698721
 50
54.8420113871035326
 51
68.148195022054125
  0
ARC
  5
19B0C
  8
0
 10
4056.7242913402078557
 20
175.7516690717575045
 30
0.0
 40
0.0758686634976171
 50
68.167697913242506
 51
82.1449057340989555
  0
ARC
  5
19B0D
  8
0
 10
4056.7231477349728266
 20
175.74479425568029
 30
0.0
 40
0.0828354923690248
 50
82.0111994330807761
 51
90.0133810543549941
  0
ARC
  5
19B0E
  8
0
 10
4056.6406037603410368
 20
175.6952483436180046
 30
0.0
 40
0.0485003124967649
 50
269.8198008456254229
 51
291.9499413663212977
  0
ARC
  5
19B0F
  8
0
 10
4056.6443660896848087
 20
175.6862293358229863
 30
0.0
 40
0.0387289211248795
 50
291.7748851327586976
 51
314.4952786132370193
  0
ARC
  5
19B10
  8
0
 10
4056.6512230671801262
 20
175.6792421389629055
 30
0.0
 40
0.0289391808495118
 50
314.5068450482137905
 51
338.3133901336370855
  0
ARC
  5
19B11
  8
0
 10
4056.655109114923107
 20
175.6775746469726016
 30
0.0
 40
0.0247122644022053
 50
338.5764395025205999
 51
359.8573061330291125
  0
ARC
  5
19B12
  8
0
 10
4056.6409877418791439
 20
175.6969250411164865
 30
0.0
 40
0.0751813907301642
 50
269.5911159457950816
 51
296.1477122202172723
  0
ARC
  5
19B13
  8
0
 10
4056.6543717006397856
 20
175.6714125465169047
 30
0.0
 40
0.0463880987511126
 50
295.1950840725609737
 51
329.1737719683785031
  0
ARC
  5
19B14
  8
0
 10
4056.6670238139768117
 20
175.6631800564514094
 30
0.0
 40
0.031310268305492
 50
330.2462682623054775
 51
359.513089296431076
  0
ARC
  5
19B15
  8
0
 10
4056.6545247579088027
 20
175.7696540157207039
 30
0.0
 40
0.0252970109669079
 50
0.3478443975573246
 51
30.5340546651498101
  0
ARC
  5
19B16
  8
0
 10
4056.6488721500359134
 20
175.766278080566309
 30
0.0
 40
0.0318809221881936
 50
30.5987093201510696
 51
52.622242026969289
  0
ARC
  5
19B17
  8
0
 10
4056.6433606055538803
 20
175.7593013841517973
 30
0.0
 40
0.0407710911894342
 50
52.4192795538321832
 51
69.9717544436526282
  0
ARC
  5
19B18
  8
0
 10
4056.6405490918041323
 20
175.7516478813203946
 30
0.0
 40
0.0489246408567882
 50
69.9479961970216095
 51
90.1146135781584832
  0
ARC
  5
19B19
  8
0
 10
4056.6405179989951648
 20
175.7206264890060936
 30
0.0
 40
0.0805385842660296
 50
75.3839386610752484
 51
90.0475042698156898
  0
ARC
  5
19B1A
  8
0
 10
4056.6441132533509517
 20
175.7338352780986952
 30
0.0
 40
0.0668501820432557
 50
59.529737880915512
 51
75.5088941341121256
  0
ARC
  5
19B1B
  8
0
 10
4056.6560254535279455
 20
175.7527057765618963
 30
0.0
 40
0.0445507388755787
 50
30.1733059514095991
 51
60.4274244834849412
  0
ARC
  5
19B1C
  8
0
 10
4056.6684333687730941
 20
175.7604410859617872
 30
0.0
 40
0.0299394781586776
 50
359.2015964309816809
 51
29.3105432078144901
  0
ARC
  5
19B1D
  8
0
 10
4055.3253381183531019
 20
177.8573042429036093
 30
0.0
 40
0.0260633012978912
 50
89.6648058622836857
 51
112.5877747822581938
  0
ARC
  5
19B1E
  8
0
 10
4055.3220162318211806
 20
177.864808452854902
 30
0.0
 40
0.017859747030099
 50
111.9951730853744039
 51
138.5620446892133941
  0
ARC
  5
19B1F
  8
0
 10
4055.317006375460096
 20
177.8691907900916078
 30
0.0
 40
0.0112037661101802
 50
138.4073619052470008
 51
178.6861901181698045
  0
ARC
  5
19B20
  8
0
 10
4056.8216790116430275
 20
177.8571167770865884
 30
0.0
 40
0.0262506207468601
 50
68.3994488541119381
 51
90.2737602583228238
  0
ARC
  5
19B21
  8
0
 10
4056.8248022161678819
 20
177.8644587109488953
 30
0.0
 40
0.0182756390870775
 50
44.4432737614877809
 51
69.0298005899133642
  0
ARC
  5
19B22
  8
0
 10
4056.8298400641961052
 20
177.8691397652748947
 30
0.0
 40
0.0114027193762232
 50
1.547348340072991
 51
45.3754268060058408
  0
ARC
  5
19B23
  8
0
 10
4055.5377319114359125
 20
175.5194771732280117
 30
0.0
 40
0.0172389893607023
 50
89.228389724111608
 51
122.3744172389967986
  0
ARC
  5
19B24
  8
0
 10
4055.5449042570498932
 20
175.526979273224498
 30
0.0
 40
0.0068656506586335
 50
350.0170261959028721
 51
17.8255646942772792
  0
ARC
  5
19B25
  8
0
 10
4055.5438825943519987
 20
175.5272239788567106
 30
0.0
 40
0.0079145236307497
 50
323.1515603953786808
 51
349.554502739617817
  0
ARC
  5
19B26
  8
0
 10
4055.5413454055278635
 20
175.5291668387056063
 30
0.0
 40
0.0111100279204189
 50
301.6264090746806801
 51
322.9804915264755891
  0
ARC
  5
19B27
  8
0
 10
4055.537914395198186
 20
175.5357178009182064
 30
0.0
 40
0.0184876531248613
 50
249.9182121147021007
 51
270.1782900583842775
  0
ARC
  5
19B28
  8
0
 10
4055.5359557823021532
 20
175.5307845041049006
 30
0.0
 40
0.0131825766178786
 50
223.5512996858952022
 51
250.5511951727212931
  0
ARC
  5
19B29
  8
0
 10
4055.5322388098179545
 20
175.5272417406638965
 30
0.0
 40
0.0080476973503088
 50
186.3111982218132994
 51
223.5040454053753081
  0
ARC
  5
19B2A
  8
0
 10
4055.5313660808119494
 20
175.5269543009515019
 30
0.0
 40
0.0071511778164095
 50
154.2726404410855992
 51
184.7906496159135088
  0
ARC
  5
19B2B
  8
0
 10
4055.5339403066009254
 20
175.5255477030266889
 30
0.0
 40
0.0100819210422961
 50
122.6483341477785984
 51
153.4217599213081087
  0
ARC
  5
19B2C
  8
0
 10
4055.5385955937172184
 20
175.5189062909495021
 30
0.0
 40
0.0289334751393148
 50
55.5114033734182826
 51
89.2764619795063368
  0
ARC
  5
19B2D
  8
0
 10
4055.5457279524798651
 20
175.5293961152320037
 30
0.0
 40
0.0162488259048989
 50
20.9328622824732911
 51
55.2962596402885609
  0
ARC
  5
19B2E
  8
0
 10
4055.5493930881129927
 20
175.531095930231686
 30
0.0
 40
0.0122214570789674
 50
355.9246945276710221
 51
19.6286528306235191
  0
ARC
  5
19B2F
  8
0
 10
4055.5464826715301569
 20
175.5312011125660092
 30
0.0
 40
0.0151323329761961
 50
342.2280093890946091
 51
356.310597704012082
  0
ARC
  5
19B30
  8
0
 10
4055.545197618569091
 20
175.5316742726215011
 30
0.0
 40
0.0165005872815783
 50
320.5760510092146092
 51
342.0254179140031852
  0
ARC
  5
19B31
  8
0
 10
4055.5411799663579586
 20
175.5352166848234958
 30
0.0
 40
0.0218544997694999
 50
292.5372131709056021
 51
320.0910927641933768
  0
ARC
  5
19B32
  8
0
 10
4055.5380890340479709
 20
175.5422354995502019
 30
0.0
 40
0.0295224555372933
 50
268.6923593592632074
 51
292.856827735931688
  0
ARC
  5
19B33
  8
0
 10
4055.5353218084660512
 20
175.5361849711514992
 30
0.0
 40
0.0229416127743103
 50
231.1342677831410981
 51
244.3315776295332
  0
ARC
  5
19B34
  8
0
 10
4055.5321769596748709
 20
175.5325308615491053
 30
0.0
 40
0.0181237391633435
 50
204.2872149242857915
 51
231.6264768153669138
  0
ARC
  5
19B35
  8
0
 10
4055.5293410564900114
 20
175.5311382716242861
 30
0.0
 40
0.0149663935905065
 50
176.7145128345750891
 51
203.8932772991227012
  0
ARC
  5
19B36
  8
0
 10
4055.527360763966044
 20
175.5309271750585083
 30
0.0
 40
0.0130054966334058
 50
146.1436081441474926
 51
175.2859131453955968
  0
ARC
  5
19B37
  8
0
 10
4055.5321709107429342
 20
175.5275244498861014
 30
0.0
 40
0.0188962851505126
 50
120.7897639002468964
 51
145.7010630370454862
  0
ARC
  5
19B38
  8
0
 10
4055.5377189569489929
 20
175.5175958603061019
 30
0.0
 40
0.0302670921759264
 50
87.6482218531213135
 51
120.1910272397954031
  0
ARC
  5
19B39
  8
0
 10
4055.5377927243562226
 20
175.5417148775308078
 30
0.0
 40
0.0289966013830392
 50
244.6640758317086863
 51
269.2542323531046122
  0
ARC
  5
19B3A
  8
0
 10
4055.5380549105930186
 20
175.5358224009117123
 30
0.0
 40
0.0185923488158952
 50
269.7442606393860274
 51
288.9192794619472124
  0
ARC
  5
19B3B
  8
0
 10
4055.5391803965439976
 20
175.5324921557850928
 30
0.0
 40
0.0150771006022448
 50
288.9766678707892993
 51
302.0054758641663284
  0
ARC
  5
19B3C
  8
0
 10
4055.5382899964620265
 20
175.5196033790300021
 30
0.0
 40
0.0171143241914516
 50
57.990326719175151
 51
91.0912301414281131
  0
ARC
  5
19B3D
  8
0
 10
4055.5425066262328073
 20
175.5260130522945872
 30
0.0
 40
0.0094457867846938
 50
18.9530933820168492
 51
59.0700974018845315
  0
ARC
  5
19B3E
  8
0
 10
4055.6007240374301546
 20
175.5194771732280117
 30
0.0
 40
0.0172389893607023
 50
89.228389724111608
 51
122.3744172389967986
  0
ARC
  5
19B3F
  8
0
 10
4055.6078963830441353
 20
175.526979273224498
 30
0.0
 40
0.0068656506586335
 50
350.0170261959028721
 51
17.8255646942772792
  0
ARC
  5
19B40
  8
0
 10
4055.6068747203448766
 20
175.5272239788567106
 30
0.0
 40
0.0079145236307497
 50
323.1515603953786808
 51
349.554502739617817
  0
ARC
  5
19B41
  8
0
 10
4055.6043375315221056
 20
175.5291668387056063
 30
0.0
 40
0.0111100279204189
 50
301.6264090746806801
 51
322.9804915264755891
  0
ARC
  5
19B42
  8
0
 10
4055.6009065211928828
 20
175.5357178009182064
 30
0.0
 40
0.0184876531248613
 50
249.9182121147021007
 51
270.1782900583842775
  0
ARC
  5
19B43
  8
0
 10
4055.5989479082959406
 20
175.5307845041049006
 30
0.0
 40
0.0131825766178786
 50
223.5512996858952022
 51
250.5511951727212931
  0
ARC
  5
19B44
  8
0
 10
4055.5952309358121965
 20
175.5272417406638965
 30
0.0
 40
0.0080476973503088
 50
186.3111982218132994
 51
223.5040454053753081
  0
ARC
  5
19B45
  8
0
 10
4055.5943582068061914
 20
175.5269543009515019
 30
0.0
 40
0.0071511778164095
 50
154.2726404410855992
 51
184.7906496159135088
  0
ARC
  5
19B46
  8
0
 10
4055.5969324325951675
 20
175.5255477030266889
 30
0.0
 40
0.0100819210422961
 50
122.6483341477785984
 51
153.4217599213081087
  0
ARC
  5
19B47
  8
0
 10
4055.6015877197110058
 20
175.5189062909495021
 30
0.0
 40
0.0289334751393148
 50
55.5114033734182826
 51
89.2764619795063368
  0
ARC
  5
19B48
  8
0
 10
4055.6087200784731976
 20
175.5293961152320037
 30
0.0
 40
0.0162488259048989
 50
20.9328622824732911
 51
55.2962596402885609
  0
ARC
  5
19B49
  8
0
 10
4055.6123852141058705
 20
175.531095930231686
 30
0.0
 40
0.0122214570789674
 50
355.9246945276710221
 51
19.6286528306235191
  0
ARC
  5
19B4A
  8
0
 10
4055.6094747975248538
 20
175.5312011125660092
 30
0.0
 40
0.0151323329761961
 50
342.2280093890946091
 51
356.310597704012082
  0
ARC
  5
19B4B
  8
0
 10
4055.6081897445628783
 20
175.5316742726215011
 30
0.0
 40
0.0165005872815783
 50
320.5760510092146092
 51
342.0254179140031852
  0
ARC
  5
19B4C
  8
0
 10
4055.6041720923522007
 20
175.5352166848234958
 30
0.0
 40
0.0218544997694999
 50
292.5372131709056021
 51
320.0910927641933768
  0
ARC
  5
19B4D
  8
0
 10
4055.601081160042213
 20
175.5422354995502019
 30
0.0
 40
0.0295224555372933
 50
268.6923593592632074
 51
292.856827735931688
  0
ARC
  5
19B4E
  8
0
 10
4055.5983139344598385
 20
175.5361849711514992
 30
0.0
 40
0.0229416127743103
 50
231.1342677831410981
 51
244.3315776295332
  0
ARC
  5
19B4F
  8
0
 10
4055.595169085669113
 20
175.5325308615491053
 30
0.0
 40
0.0181237391633435
 50
204.2872149242857915
 51
231.6264768153669138
  0
ARC
  5
19B50
  8
0
 10
4055.5923331824837987
 20
175.5311382716242861
 30
0.0
 40
0.0149663935905065
 50
176.7145128345750891
 51
203.8932772991227012
  0
ARC
  5
19B51
  8
0
 10
4055.5903528899598314
 20
175.5309271750585083
 30
0.0
 40
0.0130054966334058
 50
146.1436081441474926
 51
175.2859131453955968
  0
ARC
  5
19B52
  8
0
 10
4055.5951630367371763
 20
175.5275244498861014
 30
0.0
 40
0.0188962851505126
 50
120.7897639002468964
 51
145.7010630370454862
  0
ARC
  5
19B53
  8
0
 10
4055.6007110829418707
 20
175.5175958603061019
 30
0.0
 40
0.0302670921759264
 50
87.6482218531213135
 51
120.1910272397954031
  0
ARC
  5
19B54
  8
0
 10
4055.6007848503500099
 20
175.5417148775308078
 30
0.0
 40
0.0289966013830392
 50
244.6640758317086863
 51
269.2542323531046122
  0
ARC
  5
19B55
  8
0
 10
4055.6010470365868059
 20
175.5358224009117123
 30
0.0
 40
0.0185923488158952
 50
269.7442606393860274
 51
288.9192794619472124
  0
ARC
  5
19B56
  8
0
 10
4055.602172522537785
 20
175.5324921557850928
 30
0.0
 40
0.0150771006022448
 50
288.9766678707892993
 51
302.0054758641663284
  0
ARC
  5
19B57
  8
0
 10
4055.601282122457178
 20
175.5196033790300021
 30
0.0
 40
0.0171143241914516
 50
57.990326719175151
 51
91.0912301414281131
  0
ARC
  5
19B58
  8
0
 10
4055.6054987522270494
 20
175.5260130522945872
 30
0.0
 40
0.0094457867846938
 50
18.9530933820168492
 51
59.0700974018845315
  0
ARC
  5
19B59
  8
0
 10
4055.6637161634180302
 20
175.5194771732280117
 30
0.0
 40
0.0172389893607023
 50
89.228389724111608
 51
122.3744172389967986
  0
ARC
  5
19B5A
  8
0
 10
4055.6708885090320109
 20
175.526979273224498
 30
0.0
 40
0.0068656506586335
 50
350.0170261959028721
 51
17.8255646942772792
  0
ARC
  5
19B5B
  8
0
 10
4055.6698668463350259
 20
175.5272239788567106
 30
0.0
 40
0.0079145236307497
 50
323.1515603953786808
 51
349.554502739617817
  0
ARC
  5
19B5C
  8
0
 10
4055.6673296575099812
 20
175.5291668387056063
 30
0.0
 40
0.0111100279204189
 50
301.6264090746806801
 51
322.9804915264755891
  0
ARC
  5
19B5D
  8
0
 10
4055.6638986471812132
 20
175.5357178009182064
 30
0.0
 40
0.0184876531248613
 50
249.9182121147021007
 51
270.1782900583842775
  0
ARC
  5
19B5E
  8
0
 10
4055.6619400342851804
 20
175.5307845041049006
 30
0.0
 40
0.0131825766178786
 50
223.5512996858952022
 51
250.5511951727212931
  0
ARC
  5
19B5F
  8
0
 10
4055.6582230618000722
 20
175.5272417406638965
 30
0.0
 40
0.0080476973503088
 50
186.3111982218132994
 51
223.5040454053753081
  0
ARC
  5
19B60
  8
0
 10
4055.6573503327940671
 20
175.5269543009515019
 30
0.0
 40
0.0071511778164095
 50
154.2726404410855992
 51
184.7906496159135088
  0
ARC
  5
19B61
  8
0
 10
4055.6599245585839526
 20
175.5255477030266889
 30
0.0
 40
0.0100819210422961
 50
122.6483341477785984
 51
153.4217599213081087
  0
ARC
  5
19B62
  8
0
 10
4055.6645798456988814
 20
175.5189062909495021
 30
0.0
 40
0.0289334751393148
 50
55.5114033734182826
 51
89.2764619795063368
  0
ARC
  5
19B63
  8
0
 10
4055.6717122044601638
 20
175.5293961152320037
 30
0.0
 40
0.0162488259048989
 50
20.9328622824732911
 51
55.2962596402885609
  0
ARC
  5
19B64
  8
0
 10
4055.6753773400951104
 20
175.531095930231686
 30
0.0
 40
0.0122214570789674
 50
355.9246945276710221
 51
19.6286528306235191
  0
ARC
  5
19B65
  8
0
 10
4055.6724669235131842
 20
175.5312011125660092
 30
0.0
 40
0.0151323329761961
 50
342.2280093890946091
 51
356.310597704012082
  0
ARC
  5
19B66
  8
0
 10
4055.6711818705498445
 20
175.5316742726215011
 30
0.0
 40
0.0165005872815783
 50
320.5760510092146092
 51
342.0254179140031852
  0
ARC
  5
19B67
  8
0
 10
4055.6671642183400763
 20
175.5352166848234958
 30
0.0
 40
0.0218544997694999
 50
292.5372131709056021
 51
320.0910927641933768
  0
ARC
  5
19B68
  8
0
 10
4055.6640732860300886
 20
175.5422354995502019
 30
0.0
 40
0.0295224555372933
 50
268.6923593592632074
 51
292.856827735931688
  0
ARC
  5
19B69
  8
0
 10
4055.6613060604481689
 20
175.5361849711514992
 30
0.0
 40
0.0229416127743103
 50
231.1342677831410981
 51
244.3315776295332
  0
ARC
  5
19B6A
  8
0
 10
4055.6581612116560791
 20
175.5325308615491053
 30
0.0
 40
0.0181237391633435
 50
204.2872149242857915
 51
231.6264768153669138
  0
ARC
  5
19B6B
  8
0
 10
4055.6553253084712196
 20
175.5311382716242861
 30
0.0
 40
0.0149663935905065
 50
176.7145128345750891
 51
203.8932772991227012
  0
ARC
  5
19B6C
  8
0
 10
4055.6533450159481617
 20
175.5309271750585083
 30
0.0
 40
0.0130054966334058
 50
146.1436081441474926
 51
175.2859131453955968
  0
ARC
  5
19B6D
  8
0
 10
4055.6581551627241424
 20
175.5275244498861014
 30
0.0
 40
0.0188962851505126
 50
120.7897639002468964
 51
145.7010630370454862
  0
ARC
  5
19B6E
  8
0
 10
4055.6637032089311106
 20
175.5175958603061019
 30
0.0
 40
0.0302670921759264
 50
87.6482218531213135
 51
120.1910272397954031
  0
ARC
  5
19B6F
  8
0
 10
4055.6637769763369761
 20
175.5417148775308078
 30
0.0
 40
0.0289966013830392
 50
244.6640758317086863
 51
269.2542323531046122
  0
ARC
  5
19B70
  8
0
 10
4055.6640391625751363
 20
175.5358224009117123
 30
0.0
 40
0.0185923488158952
 50
269.7442606393860274
 51
288.9192794619472124
  0
ARC
  5
19B71
  8
0
 10
4055.6651646485261153
 20
175.5324921557850928
 30
0.0
 40
0.0150771006022448
 50
288.9766678707892993
 51
302.0054758641663284
  0
ARC
  5
19B72
  8
0
 10
4055.6642742484450537
 20
175.5196033790300021
 30
0.0
 40
0.0171143241914516
 50
57.990326719175151
 51
91.0912301414281131
  0
ARC
  5
19B73
  8
0
 10
4055.668490878214925
 20
175.5260130522945872
 30
0.0
 40
0.0094457867846938
 50
18.9530933820168492
 51
59.0700974018845315
  0
ARC
  5
19B74
  8
0
 10
4055.7267082894081796
 20
175.5194771732280117
 30
0.0
 40
0.0172389893607023
 50
89.228389724111608
 51
122.3744172389967986
  0
ARC
  5
19B75
  8
0
 10
4055.7338806350221603
 20
175.526979273224498
 30
0.0
 40
0.0068656506586335
 50
350.0170261959028721
 51
17.8255646942772792
  0
ARC
  5
19B76
  8
0
 10
4055.7328589723251753
 20
175.5272239788567106
 30
0.0
 40
0.0079145236307497
 50
323.1515603953786808
 51
349.554502739617817
  0
ARC
  5
19B77
  8
0
 10
4055.7303217835001306
 20
175.5291668387056063
 30
0.0
 40
0.0111100279204189
 50
301.6264090746806801
 51
322.9804915264755891
  0
ARC
  5
19B78
  8
0
 10
4055.7268907731709078
 20
175.5357178009182064
 30
0.0
 40
0.0184876531248613
 50
249.9182121147021007
 51
270.1782900583842775
  0
ARC
  5
19B79
  8
0
 10
4055.7249321602748751
 20
175.5307845041049006
 30
0.0
 40
0.0131825766178786
 50
223.5512996858952022
 51
250.5511951727212931
  0
ARC
  5
19B7A
  8
0
 10
4055.7212151877902215
 20
175.5272417406638965
 30
0.0
 40
0.0080476973503088
 50
186.3111982218132994
 51
223.5040454053753081
  0
ARC
  5
19B7B
  8
0
 10
4055.7203424587842164
 20
175.5269543009515019
 30
0.0
 40
0.0071511778164095
 50
154.2726404410855992
 51
184.7906496159135088
  0
ARC
  5
19B7C
  8
0
 10
4055.722916684574102
 20
175.5255477030266889
 30
0.0
 40
0.0100819210422961
 50
122.6483341477785984
 51
153.4217599213081087
  0
ARC
  5
19B7D
  8
0
 10
4055.7275719716890308
 20
175.5189062909495021
 30
0.0
 40
0.0289334751393148
 50
55.5114033734182826
 51
89.2764619795063368
  0
ARC
  5
19B7E
  8
0
 10
4055.7347043304512226
 20
175.5293961152320037
 30
0.0
 40
0.0162488259048989
 50
20.9328622824732911
 51
55.2962596402885609
  0
ARC
  5
19B7F
  8
0
 10
4055.738369466084805
 20
175.531095930231686
 30
0.0
 40
0.0122214570789674
 50
355.9246945276710221
 51
19.6286528306235191
  0
ARC
  5
19B80
  8
0
 10
4055.7354590495028788
 20
175.5312011125660092
 30
0.0
 40
0.0151323329761961
 50
342.2280093890946091
 51
356.310597704012082
  0
ARC
  5
19B81
  8
0
 10
4055.7341739965399938
 20
175.5316742726215011
 30
0.0
 40
0.0165005872815783
 50
320.5760510092146092
 51
342.0254179140031852
  0
ARC
  5
19B82
  8
0
 10
4055.7301563443302257
 20
175.5352166848234958
 30
0.0
 40
0.0218544997694999
 50
292.5372131709056021
 51
320.0910927641933768
  0
ARC
  5
19B83
  8
0
 10
4055.7270654120197833
 20
175.5422354995502019
 30
0.0
 40
0.0295224555372933
 50
268.6923593592632074
 51
292.856827735931688
  0
ARC
  5
19B84
  8
0
 10
4055.7242981864378635
 20
175.5361849711514992
 30
0.0
 40
0.0229416127743103
 50
231.1342677831410981
 51
244.3315776295332
  0
ARC
  5
19B85
  8
0
 10
4055.7211533376457737
 20
175.5325308615491053
 30
0.0
 40
0.0181237391633435
 50
204.2872149242857915
 51
231.6264768153669138
  0
ARC
  5
19B86
  8
0
 10
4055.7183174344618237
 20
175.5311382716242861
 30
0.0
 40
0.0149663935905065
 50
176.7145128345750891
 51
203.8932772991227012
  0
ARC
  5
19B87
  8
0
 10
4055.7163371419378564
 20
175.5309271750585083
 30
0.0
 40
0.0130054966334058
 50
146.1436081441474926
 51
175.2859131453955968
  0
ARC
  5
19B88
  8
0
 10
4055.721147288713837
 20
175.5275244498861014
 30
0.0
 40
0.0188962851505126
 50
120.7897639002468964
 51
145.7010630370454862
  0
ARC
  5
19B89
  8
0
 10
4055.7266953349208052
 20
175.5175958603061019
 30
0.0
 40
0.0302670921759264
 50
87.6482218531213135
 51
120.1910272397954031
  0
ARC
  5
19B8A
  8
0
 10
4055.7267691023280349
 20
175.5417148775308078
 30
0.0
 40
0.0289966013830392
 50
244.6640758317086863
 51
269.2542323531046122
  0
ARC
  5
19B8B
  8
0
 10
4055.7270312885648309
 20
175.5358224009117123
 30
0.0
 40
0.0185923488158952
 50
269.7442606393860274
 51
288.9192794619472124
  0
ARC
  5
19B8C
  8
0
 10
4055.72815677451581
 20
175.5324921557850928
 30
0.0
 40
0.0150771006022448
 50
288.9766678707892993
 51
302.0054758641663284
  0
ARC
  5
19B8D
  8
0
 10
4055.727266374435203
 20
175.5196033790300021
 30
0.0
 40
0.0171143241914516
 50
57.990326719175151
 51
91.0912301414281131
  0
ARC
  5
19B8E
  8
0
 10
4055.7314830042050744
 20
175.5260130522945872
 30
0.0
 40
0.0094457867846938
 50
18.9530933820168492
 51
59.0700974018845315
  0
ARC
  5
19B8F
  8
0
 10
4055.7897004153787748
 20
175.5194771732280117
 30
0.0
 40
0.0172389893607023
 50
89.228389724111608
 51
122.3744172389967986
  0
ARC
  5
19B90
  8
0
 10
4055.7968727609941197
 20
175.526979273224498
 30
0.0
 40
0.0068656506586335
 50
350.0170261959028721
 51
17.8255646942772792
  0
ARC
  5
19B91
  8
0
 10
4055.795851098294861
 20
175.5272239788567106
 30
0.0
 40
0.0079145236307497
 50
323.1515603953786808
 51
349.554502739617817
  0
ARC
  5
19B92
  8
0
 10
4055.7933139094711805
 20
175.5291668387056063
 30
0.0
 40
0.0111100279204189
 50
301.6264090746806801
 51
322.9804915264755891
  0
ARC
  5
19B93
  8
0
 10
4055.7898828991419578
 20
175.5357178009182064
 30
0.0
 40
0.0184876531248613
 50
249.9182121147021007
 51
270.1782900583842775
  0
ARC
  5
19B94
  8
0
 10
4055.787924286245925
 20
175.5307845041049006
 30
0.0
 40
0.0131825766178786
 50
223.5512996858952022
 51
250.5511951727212931
  0
ARC
  5
19B95
  8
0
 10
4055.7842073137599073
 20
175.5272417406638965
 30
0.0
 40
0.0080476973503088
 50
186.3111982218132994
 51
223.5040454053753081
  0
ARC
  5
19B96
  8
0
 10
4055.7833345847548117
 20
175.5269543009515019
 30
0.0
 40
0.0071511778164095
 50
154.2726404410855992
 51
184.7906496159135088
  0
ARC
  5
19B97
  8
0
 10
4055.7859088105437877
 20
175.5255477030266889
 30
0.0
 40
0.0100819210422961
 50
122.6483341477785984
 51
153.4217599213081087
  0
ARC
  5
19B98
  8
0
 10
4055.7905640976600807
 20
175.5189062909495021
 30
0.0
 40
0.0289334751393148
 50
55.5114033734182826
 51
89.2764619795063368
  0
ARC
  5
19B99
  8
0
 10
4055.7976964564218179
 20
175.5293961152320037
 30
0.0
 40
0.0162488259048989
 50
20.9328622824732911
 51
55.2962596402885609
  0
ARC
  5
19B9A
  8
0
 10
4055.8013615920549455
 20
175.531095930231686
 30
0.0
 40
0.0122214570789674
 50
355.9246945276710221
 51
19.6286528306235191
  0
ARC
  5
19B9B
  8
0
 10
4055.7984511754739287
 20
175.5312011125660092
 30
0.0
 40
0.0151323329761961
 50
342.2280093890946091
 51
356.310597704012082
  0
ARC
  5
19B9C
  8
0
 10
4055.7971661225119533
 20
175.5316742726215011
 30
0.0
 40
0.0165005872815783
 50
320.5760510092146092
 51
342.0254179140031852
  0
ARC
  5
19B9D
  8
0
 10
4055.7931484703021852
 20
175.5352166848234958
 30
0.0
 40
0.0218544997694999
 50
292.5372131709056021
 51
320.0910927641933768
  0
ARC
  5
19B9E
  8
0
 10
4055.7900575379908332
 20
175.5422354995502019
 30
0.0
 40
0.0295224555372933
 50
268.6923593592632074
 51
292.856827735931688
  0
ARC
  5
19B9F
  8
0
 10
4055.7872903124089135
 20
175.5361849711514992
 30
0.0
 40
0.0229416127743103
 50
231.1342677831410981
 51
244.3315776295332
  0
ARC
  5
19BA0
  8
0
 10
4055.7841454636181879
 20
175.5325308615491053
 30
0.0
 40
0.0181237391633435
 50
204.2872149242857915
 51
231.6264768153669138
  0
ARC
  5
19BA1
  8
0
 10
4055.7813095604319642
 20
175.5311382716242861
 30
0.0
 40
0.0149663935905065
 50
176.7145128345750891
 51
203.8932772991227012
  0
ARC
  5
19BA2
  8
0
 10
4055.7793292679098158
 20
175.5309271750585083
 30
0.0
 40
0.0130054966334058
 50
146.1436081441474926
 51
175.2859131453955968
  0
ARC
  5
19BA3
  8
0
 10
4055.7841394146857965
 20
175.5275244498861014
 30
0.0
 40
0.0188962851505126
 50
120.7897639002468964
 51
145.7010630370454862
  0
ARC
  5
19BA4
  8
0
 10
4055.7896874608918552
 20
175.5175958603061019
 30
0.0
 40
0.0302670921759264
 50
87.6482218531213135
 51
120.1910272397954031
  0
ARC
  5
19BA5
  8
0
 10
4055.7897612282981754
 20
175.5417148775308078
 30
0.0
 40
0.0289966013830392
 50
244.6640758317086863
 51
269.2542323531046122
  0
ARC
  5
19BA6
  8
0
 10
4055.7900234145358809
 20
175.5358224009117123
 30
0.0
 40
0.0185923488158952
 50
269.7442606393860274
 51
288.9192794619472124
  0
ARC
  5
19BA7
  8
0
 10
4055.7911489004868599
 20
175.5324921557850928
 30
0.0
 40
0.0150771006022448
 50
288.9766678707892993
 51
302.0054758641663284
  0
ARC
  5
19BA8
  8
0
 10
4055.7902585004048888
 20
175.5196033790300021
 30
0.0
 40
0.0171143241914516
 50
57.990326719175151
 51
91.0912301414281131
  0
ARC
  5
19BA9
  8
0
 10
4055.7944751301761244
 20
175.5260130522945872
 30
0.0
 40
0.0094457867846938
 50
18.9530933820168492
 51
59.0700974018845315
  0
ARC
  5
19BAA
  8
0
 10
4055.8526925413598292
 20
175.5194771732280117
 30
0.0
 40
0.0172389893607023
 50
89.228389724111608
 51
122.3744172389967986
  0
ARC
  5
19BAB
  8
0
 10
4055.8598648869751742
 20
175.526979273224498
 30
0.0
 40
0.0068656506586335
 50
350.0170261959028721
 51
17.8255646942772792
  0
ARC
  5
19BAC
  8
0
 10
4055.8588432242768249
 20
175.5272239788567106
 30
0.0
 40
0.0079145236307497
 50
323.1515603953786808
 51
349.554502739617817
  0
ARC
  5
19BAD
  8
0
 10
4055.8563060354531444
 20
175.5291668387056063
 30
0.0
 40
0.0111100279204189
 50
301.6264090746806801
 51
322.9804915264755891
  0
ARC
  5
19BAE
  8
0
 10
4055.8528750251230122
 20
175.5357178009182064
 30
0.0
 40
0.0184876531248613
 50
249.9182121147021007
 51
270.1782900583842775
  0
ARC
  5
19BAF
  8
0
 10
4055.8509164122278889
 20
175.5307845041049006
 30
0.0
 40
0.0131825766178786
 50
223.5512996858952022
 51
250.5511951727212931
  0
ARC
  5
19BB0
  8
0
 10
4055.8471994397418712
 20
175.5272417406638965
 30
0.0
 40
0.0080476973503088
 50
186.3111982218132994
 51
223.5040454053753081
  0
ARC
  5
19BB1
  8
0
 10
4055.8463267107367756
 20
175.5269543009515019
 30
0.0
 40
0.0071511778164095
 50
154.2726404410855992
 51
184.7906496159135088
  0
ARC
  5
19BB2
  8
0
 10
4055.8489009365271158
 20
175.5255477030266889
 30
0.0
 40
0.0100819210422961
 50
122.6483341477785984
 51
153.4217599213081087
  0
ARC
  5
19BB3
  8
0
 10
4055.8535562236420446
 20
175.5189062909495021
 30
0.0
 40
0.0289334751393148
 50
55.5114033734182826
 51
89.2764619795063368
  0
ARC
  5
19BB4
  8
0
 10
4055.8606885824037818
 20
175.5293961152320037
 30
0.0
 40
0.0162488259048989
 50
20.9328622824732911
 51
55.2962596402885609
  0
ARC
  5
19BB5
  8
0
 10
4055.8643537180369094
 20
175.531095930231686
 30
0.0
 40
0.0122214570789674
 50
355.9246945276710221
 51
19.6286528306235191
  0
ARC
  5
19BB6
  8
0
 10
4055.8614433014558927
 20
175.5312011125660092
 30
0.0
 40
0.0151323329761961
 50
342.2280093890946091
 51
356.310597704012082
  0
ARC
  5
19BB7
  8
0
 10
4055.8601582484930077
 20
175.5316742726215011
 30
0.0
 40
0.0165005872815783
 50
320.5760510092146092
 51
342.0254179140031852
  0
ARC
  5
19BB8
  8
0
 10
4055.8561405962827848
 20
175.5352166848234958
 30
0.0
 40
0.0218544997694999
 50
292.5372131709056021
 51
320.0910927641933768
  0
ARC
  5
19BB9
  8
0
 10
4055.8530496639727971
 20
175.5422354995502019
 30
0.0
 40
0.0295224555372933
 50
268.6923593592632074
 51
292.856827735931688
  0
ARC
  5
19BBA
  8
0
 10
4055.8502824383908774
 20
175.5361849711514992
 30
0.0
 40
0.0229416127743103
 50
231.1342677831410981
 51
244.3315776295332
  0
ARC
  5
19BBB
  8
0
 10
4055.8471375895987876
 20
175.5325308615491053
 30
0.0
 40
0.0181237391633435
 50
204.2872149242857915
 51
231.6264768153669138
  0
ARC
  5
19BBC
  8
0
 10
4055.8443016864139281
 20
175.5311382716242861
 30
0.0
 40
0.0149663935905065
 50
176.7145128345750891
 51
203.8932772991227012
  0
ARC
  5
19BBD
  8
0
 10
4055.8423213938917797
 20
175.5309271750585083
 30
0.0
 40
0.0130054966334058
 50
146.1436081441474926
 51
175.2859131453955968
  0
ARC
  5
19BBE
  8
0
 10
4055.8471315406668509
 20
175.5275244498861014
 30
0.0
 40
0.0188962851505126
 50
120.7897639002468964
 51
145.7010630370454862
  0
ARC
  5
19BBF
  8
0
 10
4055.8526795868729096
 20
175.5175958603061019
 30
0.0
 40
0.0302670921759264
 50
87.6482218531213135
 51
120.1910272397954031
  0
ARC
  5
19BC0
  8
0
 10
4055.8527533542801393
 20
175.5417148775308078
 30
0.0
 40
0.0289966013830392
 50
244.6640758317086863
 51
269.2542323531046122
  0
ARC
  5
19BC1
  8
0
 10
4055.8530155405178448
 20
175.5358224009117123
 30
0.0
 40
0.0185923488158952
 50
269.7442606393860274
 51
288.9192794619472124
  0
ARC
  5
19BC2
  8
0
 10
4055.8541410264679143
 20
175.5324921557850928
 30
0.0
 40
0.0150771006022448
 50
288.9766678707892993
 51
302.0054758641663284
  0
ARC
  5
19BC3
  8
0
 10
4055.8532506263882169
 20
175.5196033790300021
 30
0.0
 40
0.0171143241914516
 50
57.990326719175151
 51
91.0912301414281131
  0
ARC
  5
19BC4
  8
0
 10
4055.8574672561580883
 20
175.5260130522945872
 30
0.0
 40
0.0094457867846938
 50
18.9530933820168492
 51
59.0700974018845315
  0
ARC
  5
19BC5
  8
0
 10
4055.9156846673399741
 20
175.5194771732280117
 30
0.0
 40
0.0172389893607023
 50
89.228389724111608
 51
122.3744172389967986
  0
ARC
  5
19BC6
  8
0
 10
4055.9228570129539548
 20
175.526979273224498
 30
0.0
 40
0.0068656506586335
 50
350.0170261959028721
 51
17.8255646942772792
  0
ARC
  5
19BC7
  8
0
 10
4055.9218353502560603
 20
175.5272239788567106
 30
0.0
 40
0.0079145236307497
 50
323.1515603953786808
 51
349.554502739617817
  0
ARC
  5
19BC8
  8
0
 10
4055.9192981614319251
 20
175.5291668387056063
 30
0.0
 40
0.0111100279204189
 50
301.6264090746806801
 51
322.9804915264755891
  0
ARC
  5
19BC9
  8
0
 10
4055.9158671511017928
 20
175.5357178009182064
 30
0.0
 40
0.0184876531248613
 50
249.9182121147021007
 51
270.1782900583842775
  0
ARC
  5
19BCA
  8
0
 10
4055.9139085382062149
 20
175.5307845041049006
 30
0.0
 40
0.0131825766178786
 50
223.5512996858952022
 51
250.5511951727212931
  0
ARC
  5
19BCB
  8
0
 10
4055.9101915657211066
 20
175.5272417406638965
 30
0.0
 40
0.0080476973503088
 50
186.3111982218132994
 51
223.5040454053753081
  0
ARC
  5
19BCC
  8
0
 10
4055.909318836716011
 20
175.5269543009515019
 30
0.0
 40
0.0071511778164095
 50
154.2726404410855992
 51
184.7906496159135088
  0
ARC
  5
19BCD
  8
0
 10
4055.911893062504987
 20
175.5255477030266889
 30
0.0
 40
0.0100819210422961
 50
122.6483341477785984
 51
153.4217599213081087
  0
ARC
  5
19BCE
  8
0
 10
4055.9165483496199158
 20
175.5189062909495021
 30
0.0
 40
0.0289334751393148
 50
55.5114033734182826
 51
89.2764619795063368
  0
ARC
  5
19BCF
  8
0
 10
4055.9236807083821077
 20
175.5293961152320037
 30
0.0
 40
0.0162488259048989
 50
20.9328622824732911
 51
55.2962596402885609
  0
ARC
  5
19BD0
  8
0
 10
4055.9273458440170543
 20
175.531095930231686
 30
0.0
 40
0.0122214570789674
 50
355.9246945276710221
 51
19.6286528306235191
  0
ARC
  5
19BD1
  8
0
 10
4055.9244354274342186
 20
175.5312011125660092
 30
0.0
 40
0.0151323329761961
 50
342.2280093890946091
 51
356.310597704012082
  0
ARC
  5
19BD2
  8
0
 10
4055.9231503744717884
 20
175.5316742726215011
 30
0.0
 40
0.0165005872815783
 50
320.5760510092146092
 51
342.0254179140031852
  0
ARC
  5
19BD3
  8
0
 10
4055.9191327222620203
 20
175.5352166848234958
 30
0.0
 40
0.0218544997694999
 50
292.5372131709056021
 51
320.0910927641933768
  0
ARC
  5
19BD4
  8
0
 10
4055.9160417899511231
 20
175.5422354995502019
 30
0.0
 40
0.0295224555372933
 50
268.6923593592632074
 51
292.856827735931688
  0
ARC
  5
19BD5
  8
0
 10
4055.9132745643701128
 20
175.5361849711514992
 30
0.0
 40
0.0229416127743103
 50
231.1342677831410981
 51
244.3315776295332
  0
ARC
  5
19BD6
  8
0
 10
4055.910129715578023
 20
175.5325308615491053
 30
0.0
 40
0.0181237391633435
 50
204.2872149242857915
 51
231.6264768153669138
  0
ARC
  5
19BD7
  8
0
 10
4055.907293812394073
 20
175.5311382716242861
 30
0.0
 40
0.0149663935905065
 50
176.7145128345750891
 51
203.8932772991227012
  0
ARC
  5
19BD8
  8
0
 10
4055.9053135198710152
 20
175.5309271750585083
 30
0.0
 40
0.0130054966334058
 50
146.1436081441474926
 51
175.2859131453955968
  0
ARC
  5
19BD9
  8
0
 10
4055.9101236666460863
 20
175.5275244498861014
 30
0.0
 40
0.0188962851505126
 50
120.7897639002468964
 51
145.7010630370454862
  0
ARC
  5
19BDA
  8
0
 10
4055.915671712852145
 20
175.5175958603061019
 30
0.0
 40
0.0302670921759264
 50
87.6482218531213135
 51
120.1910272397954031
  0
ARC
  5
19BDB
  8
0
 10
4055.91574548025892
 20
175.5417148775308078
 30
0.0
 40
0.0289966013830392
 50
244.6640758317086863
 51
269.2542323531046122
  0
ARC
  5
19BDC
  8
0
 10
4055.9160076664961707
 20
175.5358224009117123
 30
0.0
 40
0.0185923488158952
 50
269.7442606393860274
 51
288.9192794619472124
  0
ARC
  5
19BDD
  8
0
 10
4055.9171331524480593
 20
175.5324921557850928
 30
0.0
 40
0.0150771006022448
 50
288.9766678707892993
 51
302.0054758641663284
  0
ARC
  5
19BDE
  8
0
 10
4055.9162427523660881
 20
175.5196033790300021
 30
0.0
 40
0.0171143241914516
 50
57.990326719175151
 51
91.0912301414281131
  0
ARC
  5
19BDF
  8
0
 10
4055.920459382136869
 20
175.5260130522945872
 30
0.0
 40
0.0094457867846938
 50
18.9530933820168492
 51
59.0700974018845315
  0
ARC
  5
19BE0
  8
0
 10
4055.9786767933360352
 20
175.5194771732280117
 30
0.0
 40
0.0172389893607023
 50
89.228389724111608
 51
122.3744172389967986
  0
ARC
  5
19BE1
  8
0
 10
4055.9858491389509254
 20
175.526979273224498
 30
0.0
 40
0.0068656506586335
 50
350.0170261959028721
 51
17.8255646942772792
  0
ARC
  5
19BE2
  8
0
 10
4055.9848274762530309
 20
175.5272239788567106
 30
0.0
 40
0.0079145236307497
 50
323.1515603953786808
 51
349.554502739617817
  0
ARC
  5
19BE3
  8
0
 10
4055.9822902874279862
 20
175.5291668387056063
 30
0.0
 40
0.0111100279204189
 50
301.6264090746806801
 51
322.9804915264755891
  0
ARC
  5
19BE4
  8
0
 10
4055.9788592770978539
 20
175.5357178009182064
 30
0.0
 40
0.0184876531248613
 50
249.9182121147021007
 51
270.1782900583842775
  0
ARC
  5
19BE5
  8
0
 10
4055.9769006642031854
 20
175.5307845041049006
 30
0.0
 40
0.0131825766178786
 50
223.5512996858952022
 51
250.5511951727212931
  0
ARC
  5
19BE6
  8
0
 10
4055.9731836917180772
 20
175.5272417406638965
 30
0.0
 40
0.0080476973503088
 50
186.3111982218132994
 51
223.5040454053753081
  0
ARC
  5
19BE7
  8
0
 10
4055.9723109627129816
 20
175.5269543009515019
 30
0.0
 40
0.0071511778164095
 50
154.2726404410855992
 51
184.7906496159135088
  0
ARC
  5
19BE8
  8
0
 10
4055.9748851885019576
 20
175.5255477030266889
 30
0.0
 40
0.0100819210422961
 50
122.6483341477785984
 51
153.4217599213081087
  0
ARC
  5
19BE9
  8
0
 10
4055.9795404756168864
 20
175.5189062909495021
 30
0.0
 40
0.0289334751393148
 50
55.5114033734182826
 51
89.2764619795063368
  0
ARC
  5
19BEA
  8
0
 10
4055.9866728343790783
 20
175.5293961152320037
 30
0.0
 40
0.0162488259048989
 50
20.9328622824732911
 51
55.2962596402885609
  0
ARC
  5
19BEB
  8
0
 10
4055.9903379700131154
 20
175.531095930231686
 30
0.0
 40
0.0122214570789674
 50
355.9246945276710221
 51
19.6286528306235191
  0
ARC
  5
19BEC
  8
0
 10
4055.9874275534311892
 20
175.5312011125660092
 30
0.0
 40
0.0151323329761961
 50
342.2280093890946091
 51
356.310597704012082
  0
ARC
  5
19BED
  8
0
 10
4055.9861425004692137
 20
175.5316742726215011
 30
0.0
 40
0.0165005872815783
 50
320.5760510092146092
 51
342.0254179140031852
  0
ARC
  5
19BEE
  8
0
 10
4055.9821248482589908
 20
175.5352166848234958
 30
0.0
 40
0.0218544997694999
 50
292.5372131709056021
 51
320.0910927641933768
  0
ARC
  5
19BEF
  8
0
 10
4055.9790339159480936
 20
175.5422354995502019
 30
0.0
 40
0.0295224555372933
 50
268.6923593592632074
 51
292.856827735931688
  0
ARC
  5
19BF0
  8
0
 10
4055.9762666903661739
 20
175.5361849711514992
 30
0.0
 40
0.0229416127743103
 50
231.1342677831410981
 51
244.3315776295332
  0
ARC
  5
19BF1
  8
0
 10
4055.9731218415740841
 20
175.5325308615491053
 30
0.0
 40
0.0181237391633435
 50
204.2872149242857915
 51
231.6264768153669138
  0
ARC
  5
19BF2
  8
0
 10
4055.9702859383901341
 20
175.5311382716242861
 30
0.0
 40
0.0149663935905065
 50
176.7145128345750891
 51
203.8932772991227012
  0
ARC
  5
19BF3
  8
0
 10
4055.9683056458670762
 20
175.5309271750585083
 30
0.0
 40
0.0130054966334058
 50
146.1436081441474926
 51
175.2859131453955968
  0
ARC
  5
19BF4
  8
0
 10
4055.9731157926421474
 20
175.5275244498861014
 30
0.0
 40
0.0188962851505126
 50
120.7897639002468964
 51
145.7010630370454862
  0
ARC
  5
19BF5
  8
0
 10
4055.9786638388491156
 20
175.5175958603061019
 30
0.0
 40
0.0302670921759264
 50
87.6482218531213135
 51
120.1910272397954031
  0
ARC
  5
19BF6
  8
0
 10
4055.9787376062549811
 20
175.5417148775308078
 30
0.0
 40
0.0289966013830392
 50
244.6640758317086863
 51
269.2542323531046122
  0
ARC
  5
19BF7
  8
0
 10
4055.978999792491777
 20
175.5358224009117123
 30
0.0
 40
0.0185923488158952
 50
269.7442606393860274
 51
288.9192794619472124
  0
ARC
  5
19BF8
  8
0
 10
4055.9801252784441203
 20
175.5324921557850928
 30
0.0
 40
0.0150771006022448
 50
288.9766678707892993
 51
302.0054758641663284
  0
ARC
  5
19BF9
  8
0
 10
4055.9792348783630587
 20
175.5196033790300021
 30
0.0
 40
0.0171143241914516
 50
57.990326719175151
 51
91.0912301414281131
  0
ARC
  5
19BFA
  8
0
 10
4055.98345150813293
 20
175.5260130522945872
 30
0.0
 40
0.0094457867846938
 50
18.9530933820168492
 51
59.0700974018845315
  0
ARC
  5
19BFB
  8
0
 10
4056.0416689193179991
 20
175.5194771732280117
 30
0.0
 40
0.0172389893607023
 50
89.228389724111608
 51
122.3744172389967986
  0
ARC
  5
19BFC
  8
0
 10
4056.0488412649319798
 20
175.526979273224498
 30
0.0
 40
0.0068656506586335
 50
350.0170261959028721
 51
17.8255646942772792
  0
ARC
  5
19BFD
  8
0
 10
4056.0478196022340853
 20
175.5272239788567106
 30
0.0
 40
0.0079145236307497
 50
323.1515603953786808
 51
349.554502739617817
  0
ARC
  5
19BFE
  8
0
 10
4056.0452824134099501
 20
175.5291668387056063
 30
0.0
 40
0.0111100279204189
 50
301.6264090746806801
 51
322.9804915264755891
  0
ARC
  5
19BFF
  8
0
 10
4056.0418514030798178
 20
175.5357178009182064
 30
0.0
 40
0.0184876531248613
 50
249.9182121147021007
 51
270.1782900583842775
  0
ARC
  5
19C00
  8
0
 10
4056.0398927901851494
 20
175.5307845041049006
 30
0.0
 40
0.0131825766178786
 50
223.5512996858952022
 51
250.5511951727212931
  0
ARC
  5
19C01
  8
0
 10
4056.0361758177000411
 20
175.5272417406638965
 30
0.0
 40
0.0080476973503088
 50
186.3111982218132994
 51
223.5040454053753081
  0
ARC
  5
19C02
  8
0
 10
4056.035303088694036
 20
175.5269543009515019
 30
0.0
 40
0.0071511778164095
 50
154.2726404410855992
 51
184.7906496159135088
  0
ARC
  5
19C03
  8
0
 10
4056.0378773144839215
 20
175.5255477030266889
 30
0.0
 40
0.0100819210422961
 50
122.6483341477785984
 51
153.4217599213081087
  0
ARC
  5
19C04
  8
0
 10
4056.0425326015988503
 20
175.5189062909495021
 30
0.0
 40
0.0289334751393148
 50
55.5114033734182826
 51
89.2764619795063368
  0
ARC
  5
19C05
  8
0
 10
4056.0496649603610422
 20
175.5293961152320037
 30
0.0
 40
0.0162488259048989
 50
20.9328622824732911
 51
55.2962596402885609
  0
ARC
  5
19C06
  8
0
 10
4056.0533300959941698
 20
175.531095930231686
 30
0.0
 40
0.0122214570789674
 50
355.9246945276710221
 51
19.6286528306235191
  0
ARC
  5
19C07
  8
0
 10
4056.0504196794131531
 20
175.5312011125660092
 30
0.0
 40
0.0151323329761961
 50
342.2280093890946091
 51
356.310597704012082
  0
ARC
  5
19C08
  8
0
 10
4056.0491346264511776
 20
175.5316742726215011
 30
0.0
 40
0.0165005872815783
 50
320.5760510092146092
 51
342.0254179140031852
  0
ARC
  5
19C09
  8
0
 10
4056.0451169742409547
 20
175.5352166848234958
 30
0.0
 40
0.0218544997694999
 50
292.5372131709056021
 51
320.0910927641933768
  0
ARC
  5
19C0A
  8
0
 10
4056.0420260419300575
 20
175.5422354995502019
 30
0.0
 40
0.0295224555372933
 50
268.6923593592632074
 51
292.856827735931688
  0
ARC
  5
19C0B
  8
0
 10
4056.0392588163481378
 20
175.5361849711514992
 30
0.0
 40
0.0229416127743103
 50
231.1342677831410981
 51
244.3315776295332
  0
ARC
  5
19C0C
  8
0
 10
4056.036113967556048
 20
175.5325308615491053
 30
0.0
 40
0.0181237391633435
 50
204.2872149242857915
 51
231.6264768153669138
  0
ARC
  5
19C0D
  8
0
 10
4056.0332780643711885
 20
175.5311382716242861
 30
0.0
 40
0.0149663935905065
 50
176.7145128345750891
 51
203.8932772991227012
  0
ARC
  5
19C0E
  8
0
 10
4056.0312977718481307
 20
175.5309271750585083
 30
0.0
 40
0.0130054966334058
 50
146.1436081441474926
 51
175.2859131453955968
  0
ARC
  5
19C0F
  8
0
 10
4056.0361079186241113
 20
175.5275244498861014
 30
0.0
 40
0.0188962851505126
 50
120.7897639002468964
 51
145.7010630370454862
  0
ARC
  5
19C10
  8
0
 10
4056.0416559648310795
 20
175.5175958603061019
 30
0.0
 40
0.0302670921759264
 50
87.6482218531213135
 51
120.1910272397954031
  0
ARC
  5
19C11
  8
0
 10
4056.041729732236945
 20
175.5417148775308078
 30
0.0
 40
0.0289966013830392
 50
244.6640758317086863
 51
269.2542323531046122
  0
ARC
  5
19C12
  8
0
 10
4056.0419919184751052
 20
175.5358224009117123
 30
0.0
 40
0.0185923488158952
 50
269.7442606393860274
 51
288.9192794619472124
  0
ARC
  5
19C13
  8
0
 10
4056.0431174044260842
 20
175.5324921557850928
 30
0.0
 40
0.0150771006022448
 50
288.9766678707892993
 51
302.0054758641663284
  0
ARC
  5
19C14
  8
0
 10
4056.0422270043450226
 20
175.5196033790300021
 30
0.0
 40
0.0171143241914516
 50
57.990326719175151
 51
91.0912301414281131
  0
ARC
  5
19C15
  8
0
 10
4056.0464436341148939
 20
175.5260130522945872
 30
0.0
 40
0.0094457867846938
 50
18.9530933820168492
 51
59.0700974018845315
  0
ARC
  5
19C16
  8
0
 10
4056.1046610453117864
 20
175.5194771732280117
 30
0.0
 40
0.0172389893607023
 50
89.228389724111608
 51
122.3744172389967986
  0
ARC
  5
19C17
  8
0
 10
4056.1118333909262219
 20
175.526979273224498
 30
0.0
 40
0.0068656506586335
 50
350.0170261959028721
 51
17.8255646942772792
  0
ARC
  5
19C18
  8
0
 10
4056.1108117282278727
 20
175.5272239788567106
 30
0.0
 40
0.0079145236307497
 50
323.1515603953786808
 51
349.554502739617817
  0
ARC
  5
19C19
  8
0
 10
4056.1082745394041922
 20
175.5291668387056063
 30
0.0
 40
0.0111100279204189
 50
301.6264090746806801
 51
322.9804915264755891
  0
ARC
  5
19C1A
  8
0
 10
4056.1048435290740599
 20
175.5357178009182064
 30
0.0
 40
0.0184876531248613
 50
249.9182121147021007
 51
270.1782900583842775
  0
ARC
  5
19C1B
  8
0
 10
4056.1028849161789367
 20
175.5307845041049006
 30
0.0
 40
0.0131825766178786
 50
223.5512996858952022
 51
250.5511951727212931
  0
ARC
  5
19C1C
  8
0
 10
4056.0991679436938284
 20
175.5272417406638965
 30
0.0
 40
0.0080476973503088
 50
186.3111982218132994
 51
223.5040454053753081
  0
ARC
  5
19C1D
  8
0
 10
4056.0982952146878233
 20
175.5269543009515019
 30
0.0
 40
0.0071511778164095
 50
154.2726404410855992
 51
184.7906496159135088
  0
ARC
  5
19C1E
  8
0
 10
4056.1008694404767994
 20
175.5255477030266889
 30
0.0
 40
0.0100819210422961
 50
122.6483341477785984
 51
153.4217599213081087
  0
ARC
  5
19C1F
  8
0
 10
4056.1055247275930924
 20
175.5189062909495021
 30
0.0
 40
0.0289334751393148
 50
55.5114033734182826
 51
89.2764619795063368
  0
ARC
  5
19C20
  8
0
 10
4056.11265708635392
 20
175.5293961152320037
 30
0.0
 40
0.0162488259048989
 50
20.9328622824732911
 51
55.2962596402885609
  0
ARC
  5
19C21
  8
0
 10
4056.1163222219879572
 20
175.531095930231686
 30
0.0
 40
0.0122214570789674
 50
355.9246945276710221
 51
19.6286528306235191
  0
ARC
  5
19C22
  8
0
 10
4056.1134118054069404
 20
175.5312011125660092
 30
0.0
 40
0.0151323329761961
 50
342.2280093890946091
 51
356.310597704012082
  0
ARC
  5
19C23
  8
0
 10
4056.1121267524440555
 20
175.5316742726215011
 30
0.0
 40
0.0165005872815783
 50
320.5760510092146092
 51
342.0254179140031852
  0
ARC
  5
19C24
  8
0
 10
4056.1081091002338326
 20
175.5352166848234958
 30
0.0
 40
0.0218544997694999
 50
292.5372131709056021
 51
320.0910927641933768
  0
ARC
  5
19C25
  8
0
 10
4056.1050181679238449
 20
175.5422354995502019
 30
0.0
 40
0.0295224555372933
 50
268.6923593592632074
 51
292.856827735931688
  0
ARC
  5
19C26
  8
0
 10
4056.1022509423410156
 20
175.5361849711514992
 30
0.0
 40
0.0229416127743103
 50
231.1342677831410981
 51
244.3315776295332
  0
ARC
  5
19C27
  8
0
 10
4056.0991060935498354
 20
175.5325308615491053
 30
0.0
 40
0.0181237391633435
 50
204.2872149242857915
 51
231.6264768153669138
  0
ARC
  5
19C28
  8
0
 10
4056.0962701903649759
 20
175.5311382716242861
 30
0.0
 40
0.0149663935905065
 50
176.7145128345750891
 51
203.8932772991227012
  0
ARC
  5
19C29
  8
0
 10
4056.0942898978428275
 20
175.5309271750585083
 30
0.0
 40
0.0130054966334058
 50
146.1436081441474926
 51
175.2859131453955968
  0
ARC
  5
19C2A
  8
0
 10
4056.0991000446178987
 20
175.5275244498861014
 30
0.0
 40
0.0188962851505126
 50
120.7897639002468964
 51
145.7010630370454862
  0
ARC
  5
19C2B
  8
0
 10
4056.1046480908248668
 20
175.5175958603061019
 30
0.0
 40
0.0302670921759264
 50
87.6482218531213135
 51
120.1910272397954031
  0
ARC
  5
19C2C
  8
0
 10
4056.1047218582320966
 20
175.5417148775308078
 30
0.0
 40
0.0289966013830392
 50
244.6640758317086863
 51
269.2542323531046122
  0
ARC
  5
19C2D
  8
0
 10
4056.1049840444688925
 20
175.5358224009117123
 30
0.0
 40
0.0185923488158952
 50
269.7442606393860274
 51
288.9192794619472124
  0
ARC
  5
19C2E
  8
0
 10
4056.1061095304198716
 20
175.5324921557850928
 30
0.0
 40
0.0150771006022448
 50
288.9766678707892993
 51
302.0054758641663284
  0
ARC
  5
19C2F
  8
0
 10
4056.1052191303388099
 20
175.5196033790300021
 30
0.0
 40
0.0171143241914516
 50
57.990326719175151
 51
91.0912301414281131
  0
ARC
  5
19C30
  8
0
 10
4056.109435760109136
 20
175.5260130522945872
 30
0.0
 40
0.0094457867846938
 50
18.9530933820168492
 51
59.0700974018845315
  0
ARC
  5
19C31
  8
0
 10
4056.1676531712801079
 20
175.5194771732280117
 30
0.0
 40
0.0172389893607023
 50
89.228389724111608
 51
122.3744172389967986
  0
ARC
  5
19C32
  8
0
 10
4056.1748255168940887
 20
175.526979273224498
 30
0.0
 40
0.0068656506586335
 50
350.0170261959028721
 51
17.8255646942772792
  0
ARC
  5
19C33
  8
0
 10
4056.1738038541948299
 20
175.5272239788567106
 30
0.0
 40
0.0079145236307497
 50
323.1515603953786808
 51
349.554502739617817
  0
ARC
  5
19C34
  8
0
 10
4056.1712666653720589
 20
175.5291668387056063
 30
0.0
 40
0.0111100279204189
 50
301.6264090746806801
 51
322.9804915264755891
  0
ARC
  5
19C35
  8
0
 10
4056.1678356550419267
 20
175.5357178009182064
 30
0.0
 40
0.0184876531248613
 50
249.9182121147021007
 51
270.1782900583842775
  0
ARC
  5
19C36
  8
0
 10
4056.1658770421458939
 20
175.5307845041049006
 30
0.0
 40
0.0131825766178786
 50
223.5512996858952022
 51
250.5511951727212931
  0
ARC
  5
19C37
  8
0
 10
4056.1621600696607857
 20
175.5272417406638965
 30
0.0
 40
0.0080476973503088
 50
186.3111982218132994
 51
223.5040454053753081
  0
ARC
  5
19C38
  8
0
 10
4056.1612873406561448
 20
175.5269543009515019
 30
0.0
 40
0.0071511778164095
 50
154.2726404410855992
 51
184.7906496159135088
  0
ARC
  5
19C39
  8
0
 10
4056.1638615664451208
 20
175.5255477030266889
 30
0.0
 40
0.0100819210422961
 50
122.6483341477785984
 51
153.4217599213081087
  0
ARC
  5
19C3A
  8
0
 10
4056.1685168535600496
 20
175.5189062909495021
 30
0.0
 40
0.0289334751393148
 50
55.5114033734182826
 51
89.2764619795063368
  0
ARC
  5
19C3B
  8
0
 10
4056.175649212323151
 20
175.5293961152320037
 30
0.0
 40
0.0162488259048989
 50
20.9328622824732911
 51
55.2962596402885609
  0
ARC
  5
19C3C
  8
0
 10
4056.1793143479558239
 20
175.531095930231686
 30
0.0
 40
0.0122214570789674
 50
355.9246945276710221
 51
19.6286528306235191
  0
ARC
  5
19C3D
  8
0
 10
4056.1764039313738976
 20
175.5312011125660092
 30
0.0
 40
0.0151323329761961
 50
342.2280093890946091
 51
356.310597704012082
  0
ARC
  5
19C3E
  8
0
 10
4056.1751188784119222
 20
175.5316742726215011
 30
0.0
 40
0.0165005872815783
 50
320.5760510092146092
 51
342.0254179140031852
  0
ARC
  5
19C3F
  8
0
 10
4056.1711012262021541
 20
175.5352166848234958
 30
0.0
 40
0.0218544997694999
 50
292.5372131709056021
 51
320.0910927641933768
  0
ARC
  5
19C40
  8
0
 10
4056.1680102938908021
 20
175.5422354995502019
 30
0.0
 40
0.0295224555372933
 50
268.6923593592632074
 51
292.856827735931688
  0
ARC
  5
19C41
  8
0
 10
4056.1652430683088824
 20
175.5361849711514992
 30
0.0
 40
0.0229416127743103
 50
231.1342677831410981
 51
244.3315776295332
  0
ARC
  5
19C42
  8
0
 10
4056.1620982195181568
 20
175.5325308615491053
 30
0.0
 40
0.0181237391633435
 50
204.2872149242857915
 51
231.6264768153669138
  0
ARC
  5
19C43
  8
0
 10
4056.1592623163342068
 20
175.5311382716242861
 30
0.0
 40
0.0149663935905065
 50
176.7145128345750891
 51
203.8932772991227012
  0
ARC
  5
19C44
  8
0
 10
4056.1572820238097847
 20
175.5309271750585083
 30
0.0
 40
0.0130054966334058
 50
146.1436081441474926
 51
175.2859131453955968
  0
ARC
  5
19C45
  8
0
 10
4056.1620921705862202
 20
175.5275244498861014
 30
0.0
 40
0.0188962851505126
 50
120.7897639002468964
 51
145.7010630370454862
  0
ARC
  5
19C46
  8
0
 10
4056.1676402167918241
 20
175.5175958603061019
 30
0.0
 40
0.0302670921759264
 50
87.6482218531213135
 51
120.1910272397954031
  0
ARC
  5
19C47
  8
0
 10
4056.1677139841990538
 20
175.5417148775308078
 30
0.0
 40
0.0289966013830392
 50
244.6640758317086863
 51
269.2542323531046122
  0
ARC
  5
19C48
  8
0
 10
4056.167976170437214
 20
175.5358224009117123
 30
0.0
 40
0.0185923488158952
 50
269.7442606393860274
 51
288.9192794619472124
  0
ARC
  5
19C49
  8
0
 10
4056.1691016563868288
 20
175.5324921557850928
 30
0.0
 40
0.0150771006022448
 50
288.9766678707892993
 51
302.0054758641663284
  0
ARC
  5
19C4A
  8
0
 10
4056.1682112563062219
 20
175.5196033790300021
 30
0.0
 40
0.0171143241914516
 50
57.990326719175151
 51
91.0912301414281131
  0
ARC
  5
19C4B
  8
0
 10
4056.1724278860770028
 20
175.5260130522945872
 30
0.0
 40
0.0094457867846938
 50
18.9530933820168492
 51
59.0700974018845315
  0
ARC
  5
19C4C
  8
0
 10
4056.2306452972611623
 20
175.5194771732280117
 30
0.0
 40
0.0172389893607023
 50
89.228389724111608
 51
122.3744172389967986
  0
ARC
  5
19C4D
  8
0
 10
4056.2378176428751431
 20
175.526979273224498
 30
0.0
 40
0.0068656506586335
 50
350.0170261959028721
 51
17.8255646942772792
  0
ARC
  5
19C4E
  8
0
 10
4056.2367959801767938
 20
175.5272239788567106
 30
0.0
 40
0.0079145236307497
 50
323.1515603953786808
 51
349.554502739617817
  0
ARC
  5
19C4F
  8
0
 10
4056.2342587913531133
 20
175.5291668387056063
 30
0.0
 40
0.0111100279204189
 50
301.6264090746806801
 51
322.9804915264755891
  0
ARC
  5
19C50
  8
0
 10
4056.2308277810238906
 20
175.5357178009182064
 30
0.0
 40
0.0184876531248613
 50
249.9182121147021007
 51
270.1782900583842775
  0
ARC
  5
19C51
  8
0
 10
4056.2288691681278578
 20
175.5307845041049006
 30
0.0
 40
0.0131825766178786
 50
223.5512996858952022
 51
250.5511951727212931
  0
ARC
  5
19C52
  8
0
 10
4056.2251521956432043
 20
175.5272417406638965
 30
0.0
 40
0.0080476973503088
 50
186.3111982218132994
 51
223.5040454053753081
  0
ARC
  5
19C53
  8
0
 10
4056.2242794666371992
 20
175.5269543009515019
 30
0.0
 40
0.0071511778164095
 50
154.2726404410855992
 51
184.7906496159135088
  0
ARC
  5
19C54
  8
0
 10
4056.2268536924261753
 20
175.5255477030266889
 30
0.0
 40
0.0100819210422961
 50
122.6483341477785984
 51
153.4217599213081087
  0
ARC
  5
19C55
  8
0
 10
4056.2315089795420135
 20
175.5189062909495021
 30
0.0
 40
0.0289334751393148
 50
55.5114033734182826
 51
89.2764619795063368
  0
ARC
  5
19C56
  8
0
 10
4056.2386413383028412
 20
175.5293961152320037
 30
0.0
 40
0.0162488259048989
 50
20.9328622824732911
 51
55.2962596402885609
  0
ARC
  5
19C57
  8
0
 10
4056.2423064739368783
 20
175.531095930231686
 30
0.0
 40
0.0122214570789674
 50
355.9246945276710221
 51
19.6286528306235191
  0
ARC
  5
19C58
  8
0
 10
4056.2393960573558616
 20
175.5312011125660092
 30
0.0
 40
0.0151323329761961
 50
342.2280093890946091
 51
356.310597704012082
  0
ARC
  5
19C59
  8
0
 10
4056.2381110043929766
 20
175.5316742726215011
 30
0.0
 40
0.0165005872815783
 50
320.5760510092146092
 51
342.0254179140031852
  0
ARC
  5
19C5A
  8
0
 10
4056.2340933521832085
 20
175.5352166848234958
 30
0.0
 40
0.0218544997694999
 50
292.5372131709056021
 51
320.0910927641933768
  0
ARC
  5
19C5B
  8
0
 10
4056.2310024198732208
 20
175.5422354995502019
 30
0.0
 40
0.0295224555372933
 50
268.6923593592632074
 51
292.856827735931688
  0
ARC
  5
19C5C
  8
0
 10
4056.2282351942908463
 20
175.5361849711514992
 30
0.0
 40
0.0229416127743103
 50
231.1342677831410981
 51
244.3315776295332
  0
ARC
  5
19C5D
  8
0
 10
4056.2250903454992113
 20
175.5325308615491053
 30
0.0
 40
0.0181237391633435
 50
204.2872149242857915
 51
231.6264768153669138
  0
ARC
  5
19C5E
  8
0
 10
4056.222254442313897
 20
175.5311382716242861
 30
0.0
 40
0.0149663935905065
 50
176.7145128345750891
 51
203.8932772991227012
  0
ARC
  5
19C5F
  8
0
 10
4056.2202741497922034
 20
175.5309271750585083
 30
0.0
 40
0.0130054966334058
 50
146.1436081441474926
 51
175.2859131453955968
  0
ARC
  5
19C60
  8
0
 10
4056.2250842965668198
 20
175.5275244498861014
 30
0.0
 40
0.0188962851505126
 50
120.7897639002468964
 51
145.7010630370454862
  0
ARC
  5
19C61
  8
0
 10
4056.2306323427728785
 20
175.5175958603061019
 30
0.0
 40
0.0302670921759264
 50
87.6482218531213135
 51
120.1910272397954031
  0
ARC
  5
19C62
  8
0
 10
4056.2307061101801082
 20
175.5417148775308078
 30
0.0
 40
0.0289966013830392
 50
244.6640758317086863
 51
269.2542323531046122
  0
ARC
  5
19C63
  8
0
 10
4056.2309682964169042
 20
175.5358224009117123
 30
0.0
 40
0.0185923488158952
 50
269.7442606393860274
 51
288.9192794619472124
  0
ARC
  5
19C64
  8
0
 10
4056.2320937823687927
 20
175.5324921557850928
 30
0.0
 40
0.0150771006022448
 50
288.9766678707892993
 51
302.0054758641663284
  0
ARC
  5
19C65
  8
0
 10
4056.2312033822881858
 20
175.5196033790300021
 30
0.0
 40
0.0171143241914516
 50
57.990326719175151
 51
91.0912301414281131
  0
ARC
  5
19C66
  8
0
 10
4056.2354200120580572
 20
175.5260130522945872
 30
0.0
 40
0.0094457867846938
 50
18.9530933820168492
 51
59.0700974018845315
  0
ARC
  5
19C67
  8
0
 10
4056.293637423250857
 20
175.5194771732280117
 30
0.0
 40
0.0172389893607023
 50
89.228389724111608
 51
122.3744172389967986
  0
ARC
  5
19C68
  8
0
 10
4056.3008097688662019
 20
175.526979273224498
 30
0.0
 40
0.0068656506586335
 50
350.0170261959028721
 51
17.8255646942772792
  0
ARC
  5
19C69
  8
0
 10
4056.2997881061669432
 20
175.5272239788567106
 30
0.0
 40
0.0079145236307497
 50
323.1515603953786808
 51
349.554502739617817
  0
ARC
  5
19C6A
  8
0
 10
4056.297250917342808
 20
175.5291668387056063
 30
0.0
 40
0.0111100279204189
 50
301.6264090746806801
 51
322.9804915264755891
  0
ARC
  5
19C6B
  8
0
 10
4056.2938199070140399
 20
175.5357178009182064
 30
0.0
 40
0.0184876531248613
 50
249.9182121147021007
 51
270.1782900583842775
  0
ARC
  5
19C6C
  8
0
 10
4056.2918612941180072
 20
175.5307845041049006
 30
0.0
 40
0.0131825766178786
 50
223.5512996858952022
 51
250.5511951727212931
  0
ARC
  5
19C6D
  8
0
 10
4056.2881443216328989
 20
175.5272417406638965
 30
0.0
 40
0.0080476973503088
 50
186.3111982218132994
 51
223.5040454053753081
  0
ARC
  5
19C6E
  8
0
 10
4056.2872715926268938
 20
175.5269543009515019
 30
0.0
 40
0.0071511778164095
 50
154.2726404410855992
 51
184.7906496159135088
  0
ARC
  5
19C6F
  8
0
 10
4056.2898458184167794
 20
175.5255477030266889
 30
0.0
 40
0.0100819210422961
 50
122.6483341477785984
 51
153.4217599213081087
  0
ARC
  5
19C70
  8
0
 10
4056.2945011055321629
 20
175.5189062909495021
 30
0.0
 40
0.0289334751393148
 50
55.5114033734182826
 51
89.2764619795063368
  0
ARC
  5
19C71
  8
0
 10
4056.3016334642939
 20
175.5293961152320037
 30
0.0
 40
0.0162488259048989
 50
20.9328622824732911
 51
55.2962596402885609
  0
ARC
  5
19C72
  8
0
 10
4056.3052985999270277
 20
175.531095930231686
 30
0.0
 40
0.0122214570789674
 50
355.9246945276710221
 51
19.6286528306235191
  0
ARC
  5
19C73
  8
0
 10
4056.3023881833460109
 20
175.5312011125660092
 30
0.0
 40
0.0151323329761961
 50
342.2280093890946091
 51
356.310597704012082
  0
ARC
  5
19C74
  8
0
 10
4056.3011031303840355
 20
175.5316742726215011
 30
0.0
 40
0.0165005872815783
 50
320.5760510092146092
 51
342.0254179140031852
  0
ARC
  5
19C75
  8
0
 10
4056.2970854781729031
 20
175.5352166848234958
 30
0.0
 40
0.0218544997694999
 50
292.5372131709056021
 51
320.0910927641933768
  0
ARC
  5
19C76
  8
0
 10
4056.2939945458629154
 20
175.5422354995502019
 30
0.0
 40
0.0295224555372933
 50
268.6923593592632074
 51
292.856827735931688
  0
ARC
  5
19C77
  8
0
 10
4056.2912273202809956
 20
175.5361849711514992
 30
0.0
 40
0.0229416127743103
 50
231.1342677831410981
 51
244.3315776295332
  0
ARC
  5
19C78
  8
0
 10
4056.2880824714898154
 20
175.5325308615491053
 30
0.0
 40
0.0181237391633435
 50
204.2872149242857915
 51
231.6264768153669138
  0
ARC
  5
19C79
  8
0
 10
4056.2852465683049559
 20
175.5311382716242861
 30
0.0
 40
0.0149663935905065
 50
176.7145128345750891
 51
203.8932772991227012
  0
ARC
  5
19C7A
  8
0
 10
4056.283266275781898
 20
175.5309271750585083
 30
0.0
 40
0.0130054966334058
 50
146.1436081441474926
 51
175.2859131453955968
  0
ARC
  5
19C7B
  8
0
 10
4056.2880764225578787
 20
175.5275244498861014
 30
0.0
 40
0.0188962851505126
 50
120.7897639002468964
 51
145.7010630370454862
  0
ARC
  5
19C7C
  8
0
 10
4056.2936244687630278
 20
175.5175958603061019
 30
0.0
 40
0.0302670921759264
 50
87.6482218531213135
 51
120.1910272397954031
  0
ARC
  5
19C7D
  8
0
 10
4056.2936982361698028
 20
175.5417148775308078
 30
0.0
 40
0.0289966013830392
 50
244.6640758317086863
 51
269.2542323531046122
  0
ARC
  5
19C7E
  8
0
 10
4056.2939604224070536
 20
175.5358224009117123
 30
0.0
 40
0.0185923488158952
 50
269.7442606393860274
 51
288.9192794619472124
  0
ARC
  5
19C7F
  8
0
 10
4056.2950859083589421
 20
175.5324921557850928
 30
0.0
 40
0.0150771006022448
 50
288.9766678707892993
 51
302.0054758641663284
  0
ARC
  5
19C80
  8
0
 10
4056.2941955082778804
 20
175.5196033790300021
 30
0.0
 40
0.0171143241914516
 50
57.990326719175151
 51
91.0912301414281131
  0
ARC
  5
19C81
  8
0
 10
4056.2984121380482065
 20
175.5260130522945872
 30
0.0
 40
0.0094457867846938
 50
18.9530933820168492
 51
59.0700974018845315
  0
ARC
  5
19C82
  8
0
 10
4056.3566295492350946
 20
175.5194771732280117
 30
0.0
 40
0.0172389893607023
 50
89.228389724111608
 51
122.3744172389967986
  0
ARC
  5
19C83
  8
0
 10
4056.3638018948508943
 20
175.526979273224498
 30
0.0
 40
0.0068656506586335
 50
350.0170261959028721
 51
17.8255646942772792
  0
ARC
  5
19C84
  8
0
 10
4056.3627802321520903
 20
175.5272239788567106
 30
0.0
 40
0.0079145236307497
 50
323.1515603953786808
 51
349.554502739617817
  0
ARC
  5
19C85
  8
0
 10
4056.3602430433279551
 20
175.5291668387056063
 30
0.0
 40
0.0111100279204189
 50
301.6264090746806801
 51
322.9804915264755891
  0
ARC
  5
19C86
  8
0
 10
4056.3568120329991871
 20
175.5357178009182064
 30
0.0
 40
0.0184876531248613
 50
249.9182121147021007
 51
270.1782900583842775
  0
ARC
  5
19C87
  8
0
 10
4056.3548534201031543
 20
175.5307845041049006
 30
0.0
 40
0.0131825766178786
 50
223.5512996858952022
 51
250.5511951727212931
  0
ARC
  5
19C88
  8
0
 10
4056.3511364476180461
 20
175.5272417406638965
 30
0.0
 40
0.0080476973503088
 50
186.3111982218132994
 51
223.5040454053753081
  0
ARC
  5
19C89
  8
0
 10
4056.350263718612041
 20
175.5269543009515019
 30
0.0
 40
0.0071511778164095
 50
154.2726404410855992
 51
184.7906496159135088
  0
ARC
  5
19C8A
  8
0
 10
4056.3528379444019265
 20
175.5255477030266889
 30
0.0
 40
0.0100819210422961
 50
122.6483341477785984
 51
153.4217599213081087
  0
ARC
  5
19C8B
  8
0
 10
4056.3574932315182195
 20
175.5189062909495021
 30
0.0
 40
0.0289334751393148
 50
55.5114033734182826
 51
89.2764619795063368
  0
ARC
  5
19C8C
  8
0
 10
4056.3646255902790472
 20
175.5293961152320037
 30
0.0
 40
0.0162488259048989
 50
20.9328622824732911
 51
55.2962596402885609
  0
ARC
  5
19C8D
  8
0
 10
4056.3682907259121748
 20
175.531095930231686
 30
0.0
 40
0.0122214570789674
 50
355.9246945276710221
 51
19.6286528306235191
  0
ARC
  5
19C8E
  8
0
 10
4056.3653803093311581
 20
175.5312011125660092
 30
0.0
 40
0.0151323329761961
 50
342.2280093890946091
 51
356.310597704012082
  0
ARC
  5
19C8F
  8
0
 10
4056.3640952563691826
 20
175.5316742726215011
 30
0.0
 40
0.0165005872815783
 50
320.5760510092146092
 51
342.0254179140031852
  0
ARC
  5
19C90
  8
0
 10
4056.3600776041589597
 20
175.5352166848234958
 30
0.0
 40
0.0218544997694999
 50
292.5372131709056021
 51
320.0910927641933768
  0
ARC
  5
19C91
  8
0
 10
4056.356986671848972
 20
175.5422354995502019
 30
0.0
 40
0.0295224555372933
 50
268.6923593592632074
 51
292.856827735931688
  0
ARC
  5
19C92
  8
0
 10
4056.3542194462661428
 20
175.5361849711514992
 30
0.0
 40
0.0229416127743103
 50
231.1342677831410981
 51
244.3315776295332
  0
ARC
  5
19C93
  8
0
 10
4056.3510745974749625
 20
175.5325308615491053
 30
0.0
 40
0.0181237391633435
 50
204.2872149242857915
 51
231.6264768153669138
  0
ARC
  5
19C94
  8
0
 10
4056.3482386942891935
 20
175.5311382716242861
 30
0.0
 40
0.0149663935905065
 50
176.7145128345750891
 51
203.8932772991227012
  0
ARC
  5
19C95
  8
0
 10
4056.3462584017670451
 20
175.5309271750585083
 30
0.0
 40
0.0130054966334058
 50
146.1436081441474926
 51
175.2859131453955968
  0
ARC
  5
19C96
  8
0
 10
4056.3510685485430258
 20
175.5275244498861014
 30
0.0
 40
0.0188962851505126
 50
120.7897639002468964
 51
145.7010630370454862
  0
ARC
  5
19C97
  8
0
 10
4056.3566165947490845
 20
175.5175958603061019
 30
0.0
 40
0.0302670921759264
 50
87.6482218531213135
 51
120.1910272397954031
  0
ARC
  5
19C98
  8
0
 10
4056.35669036215495
 20
175.5417148775308078
 30
0.0
 40
0.0289966013830392
 50
244.6640758317086863
 51
269.2542323531046122
  0
ARC
  5
19C99
  8
0
 10
4056.3569525483940197
 20
175.5358224009117123
 30
0.0
 40
0.0185923488158952
 50
269.7442606393860274
 51
288.9192794619472124
  0
ARC
  5
19C9A
  8
0
 10
4056.3580780343440892
 20
175.5324921557850928
 30
0.0
 40
0.0150771006022448
 50
288.9766678707892993
 51
302.0054758641663284
  0
ARC
  5
19C9B
  8
0
 10
4056.3571876342630276
 20
175.5196033790300021
 30
0.0
 40
0.0171143241914516
 50
57.990326719175151
 51
91.0912301414281131
  0
ARC
  5
19C9C
  8
0
 10
4056.3614042640328989
 20
175.5260130522945872
 30
0.0
 40
0.0094457867846938
 50
18.9530933820168492
 51
59.0700974018845315
  0
ARC
  5
19C9D
  8
0
 10
4056.4196216752170585
 20
175.5194771732280117
 30
0.0
 40
0.0172389893607023
 50
89.228389724111608
 51
122.3744172389967986
  0
ARC
  5
19C9E
  8
0
 10
4056.4267940208319487
 20
175.526979273224498
 30
0.0
 40
0.0068656506586335
 50
350.0170261959028721
 51
17.8255646942772792
  0
ARC
  5
19C9F
  8
0
 10
4056.4257723581340542
 20
175.5272239788567106
 30
0.0
 40
0.0079145236307497
 50
323.1515603953786808
 51
349.554502739617817
  0
ARC
  5
19CA0
  8
0
 10
4056.4232351693108285
 20
175.5291668387056063
 30
0.0
 40
0.0111100279204189
 50
301.6264090746806801
 51
322.9804915264755891
  0
ARC
  5
19CA1
  8
0
 10
4056.4198041589797867
 20
175.5357178009182064
 30
0.0
 40
0.0184876531248613
 50
249.9182121147021007
 51
270.1782900583842775
  0
ARC
  5
19CA2
  8
0
 10
4056.4178455460851183
 20
175.5307845041049006
 30
0.0
 40
0.0131825766178786
 50
223.5512996858952022
 51
250.5511951727212931
  0
ARC
  5
19CA3
  8
0
 10
4056.4141285735991005
 20
175.5272417406638965
 30
0.0
 40
0.0080476973503088
 50
186.3111982218132994
 51
223.5040454053753081
  0
ARC
  5
19CA4
  8
0
 10
4056.4132558445949144
 20
175.5269543009515019
 30
0.0
 40
0.0071511778164095
 50
154.2726404410855992
 51
184.7906496159135088
  0
ARC
  5
19CA5
  8
0
 10
4056.4158300703838904
 20
175.5255477030266889
 30
0.0
 40
0.0100819210422961
 50
122.6483341477785984
 51
153.4217599213081087
  0
ARC
  5
19CA6
  8
0
 10
4056.4204853574988192
 20
175.5189062909495021
 30
0.0
 40
0.0289334751393148
 50
55.5114033734182826
 51
89.2764619795063368
  0
ARC
  5
19CA7
  8
0
 10
4056.4276177162610111
 20
175.5293961152320037
 30
0.0
 40
0.0162488259048989
 50
20.9328622824732911
 51
55.2962596402885609
  0
ARC
  5
19CA8
  8
0
 10
4056.4312828518941387
 20
175.531095930231686
 30
0.0
 40
0.0122214570789674
 50
355.9246945276710221
 51
19.6286528306235191
  0
ARC
  5
19CA9
  8
0
 10
4056.428372435313122
 20
175.5312011125660092
 30
0.0
 40
0.0151323329761961
 50
342.2280093890946091
 51
356.310597704012082
  0
ARC
  5
19CAA
  8
0
 10
4056.4270873823511465
 20
175.5316742726215011
 30
0.0
 40
0.0165005872815783
 50
320.5760510092146092
 51
342.0254179140031852
  0
ARC
  5
19CAB
  8
0
 10
4056.4230697301400141
 20
175.5352166848234958
 30
0.0
 40
0.0218544997694999
 50
292.5372131709056021
 51
320.0910927641933768
  0
ARC
  5
19CAC
  8
0
 10
4056.4199787978300265
 20
175.5422354995502019
 30
0.0
 40
0.0295224555372933
 50
268.6923593592632074
 51
292.856827735931688
  0
ARC
  5
19CAD
  8
0
 10
4056.4172115722481067
 20
175.5361849711514992
 30
0.0
 40
0.0229416127743103
 50
231.1342677831410981
 51
244.3315776295332
  0
ARC
  5
19CAE
  8
0
 10
4056.4140667234569264
 20
175.5325308615491053
 30
0.0
 40
0.0181237391633435
 50
204.2872149242857915
 51
231.6264768153669138
  0
ARC
  5
19CAF
  8
0
 10
4056.4112308202711574
 20
175.5311382716242861
 30
0.0
 40
0.0149663935905065
 50
176.7145128345750891
 51
203.8932772991227012
  0
ARC
  5
19CB0
  8
0
 10
4056.4092505277490091
 20
175.5309271750585083
 30
0.0
 40
0.0130054966334058
 50
146.1436081441474926
 51
175.2859131453955968
  0
ARC
  5
19CB1
  8
0
 10
4056.4140606745249897
 20
175.5275244498861014
 30
0.0
 40
0.0188962851505126
 50
120.7897639002468964
 51
145.7010630370454862
  0
ARC
  5
19CB2
  8
0
 10
4056.4196087207310484
 20
175.5175958603061019
 30
0.0
 40
0.0302670921759264
 50
87.6482218531213135
 51
120.1910272397954031
  0
ARC
  5
19CB3
  8
0
 10
4056.4196824881378234
 20
175.5417148775308078
 30
0.0
 40
0.0289966013830392
 50
244.6640758317086863
 51
269.2542323531046122
  0
ARC
  5
19CB4
  8
0
 10
4056.4199446743750741
 20
175.5358224009117123
 30
0.0
 40
0.0185923488158952
 50
269.7442606393860274
 51
288.9192794619472124
  0
ARC
  5
19CB5
  8
0
 10
4056.4210701603251437
 20
175.5324921557850928
 30
0.0
 40
0.0150771006022448
 50
288.9766678707892993
 51
302.0054758641663284
  0
ARC
  5
19CB6
  8
0
 10
4056.4201797602449915
 20
175.5196033790300021
 30
0.0
 40
0.0171143241914516
 50
57.990326719175151
 51
91.0912301414281131
  0
ARC
  5
19CB7
  8
0
 10
4056.4243963900148628
 20
175.5260130522945872
 30
0.0
 40
0.0094457867846938
 50
18.9530933820168492
 51
59.0700974018845315
  0
ARC
  5
19CB8
  8
0
 10
4056.4826138012172123
 20
175.5194771732280117
 30
0.0
 40
0.0172389893607023
 50
89.228389724111608
 51
122.3744172389967986
  0
ARC
  5
19CB9
  8
0
 10
4056.4897861468321025
 20
175.526979273224498
 30
0.0
 40
0.0068656506586335
 50
350.0170261959028721
 51
17.8255646942772792
  0
ARC
  5
19CBA
  8
0
 10
4056.488764484134208
 20
175.5272239788567106
 30
0.0
 40
0.0079145236307497
 50
323.1515603953786808
 51
349.554502739617817
  0
ARC
  5
19CBB
  8
0
 10
4056.4862272953109823
 20
175.5291668387056063
 30
0.0
 40
0.0111100279204189
 50
301.6264090746806801
 51
322.9804915264755891
  0
ARC
  5
19CBC
  8
0
 10
4056.4827962849799405
 20
175.5357178009182064
 30
0.0
 40
0.0184876531248613
 50
249.9182121147021007
 51
270.1782900583842775
  0
ARC
  5
19CBD
  8
0
 10
4056.4808376720848173
 20
175.5307845041049006
 30
0.0
 40
0.0131825766178786
 50
223.5512996858952022
 51
250.5511951727212931
  0
ARC
  5
19CBE
  8
0
 10
4056.4771206995987995
 20
175.5272417406638965
 30
0.0
 40
0.0080476973503088
 50
186.3111982218132994
 51
223.5040454053753081
  0
ARC
  5
19CBF
  8
0
 10
4056.4762479705950682
 20
175.5269543009515019
 30
0.0
 40
0.0071511778164095
 50
154.2726404410855992
 51
184.7906496159135088
  0
ARC
  5
19CC0
  8
0
 10
4056.4788221963840442
 20
175.5255477030266889
 30
0.0
 40
0.0100819210422961
 50
122.6483341477785984
 51
153.4217599213081087
  0
ARC
  5
19CC1
  8
0
 10
4056.483477483498973
 20
175.5189062909495021
 30
0.0
 40
0.0289334751393148
 50
55.5114033734182826
 51
89.2764619795063368
  0
ARC
  5
19CC2
  8
0
 10
4056.4906098422611649
 20
175.5293961152320037
 30
0.0
 40
0.0162488259048989
 50
20.9328622824732911
 51
55.2962596402885609
  0
ARC
  5
19CC3
  8
0
 10
4056.494274977895202
 20
175.531095930231686
 30
0.0
 40
0.0122214570789674
 50
355.9246945276710221
 51
19.6286528306235191
  0
ARC
  5
19CC4
  8
0
 10
4056.4913645613119115
 20
175.5312011125660092
 30
0.0
 40
0.0151323329761961
 50
342.2280093890946091
 51
356.310597704012082
  0
ARC
  5
19CC5
  8
0
 10
4056.4900795083508456
 20
175.5316742726215011
 30
0.0
 40
0.0165005872815783
 50
320.5760510092146092
 51
342.0254179140031852
  0
ARC
  5
19CC6
  8
0
 10
4056.4860618561401679
 20
175.5352166848234958
 30
0.0
 40
0.0218544997694999
 50
292.5372131709056021
 51
320.0910927641933768
  0
ARC
  5
19CC7
  8
0
 10
4056.4829709238301803
 20
175.5422354995502019
 30
0.0
 40
0.0295224555372933
 50
268.6923593592632074
 51
292.856827735931688
  0
ARC
  5
19CC8
  8
0
 10
4056.48020369824917
 20
175.5361849711514992
 30
0.0
 40
0.0229416127743103
 50
231.1342677831410981
 51
244.3315776295332
  0
ARC
  5
19CC9
  8
0
 10
4056.4770588494561707
 20
175.5325308615491053
 30
0.0
 40
0.0181237391633435
 50
204.2872149242857915
 51
231.6264768153669138
  0
ARC
  5
19CCA
  8
0
 10
4056.4742229462708565
 20
175.5311382716242861
 30
0.0
 40
0.0149663935905065
 50
176.7145128345750891
 51
203.8932772991227012
  0
ARC
  5
19CCB
  8
0
 10
4056.4722426537477986
 20
175.5309271750585083
 30
0.0
 40
0.0130054966334058
 50
146.1436081441474926
 51
175.2859131453955968
  0
ARC
  5
19CCC
  8
0
 10
4056.4770528005237793
 20
175.5275244498861014
 30
0.0
 40
0.0188962851505126
 50
120.7897639002468964
 51
145.7010630370454862
  0
ARC
  5
19CCD
  8
0
 10
4056.4826008467298379
 20
175.5175958603061019
 30
0.0
 40
0.0302670921759264
 50
87.6482218531213135
 51
120.1910272397954031
  0
ARC
  5
19CCE
  8
0
 10
4056.4826746141370677
 20
175.5417148775308078
 30
0.0
 40
0.0289966013830392
 50
244.6640758317086863
 51
269.2542323531046122
  0
ARC
  5
19CCF
  8
0
 10
4056.4829368003738637
 20
175.5358224009117123
 30
0.0
 40
0.0185923488158952
 50
269.7442606393860274
 51
288.9192794619472124
  0
ARC
  5
19CD0
  8
0
 10
4056.484062286326207
 20
175.5324921557850928
 30
0.0
 40
0.0150771006022448
 50
288.9766678707892993
 51
302.0054758641663284
  0
ARC
  5
19CD1
  8
0
 10
4056.483171886243781
 20
175.5196033790300021
 30
0.0
 40
0.0171143241914516
 50
57.990326719175151
 51
91.0912301414281131
  0
ARC
  5
19CD2
  8
0
 10
4056.4873885160150166
 20
175.5260130522945872
 30
0.0
 40
0.0094457867846938
 50
18.9530933820168492
 51
59.0700974018845315
  0
ARC
  5
19CD3
  8
0
 10
4056.545605927197812
 20
175.5194771732280117
 30
0.0
 40
0.0172389893607023
 50
89.228389724111608
 51
122.3744172389967986
  0
ARC
  5
19CD4
  8
0
 10
4056.5527782728117927
 20
175.526979273224498
 30
0.0
 40
0.0068656506586335
 50
350.0170261959028721
 51
17.8255646942772792
  0
ARC
  5
19CD5
  8
0
 10
4056.5517566101138982
 20
175.5272239788567106
 30
0.0
 40
0.0079145236307497
 50
323.1515603953786808
 51
349.554502739617817
  0
ARC
  5
19CD6
  8
0
 10
4056.5492194212902177
 20
175.5291668387056063
 30
0.0
 40
0.0111100279204189
 50
301.6264090746806801
 51
322.9804915264755891
  0
ARC
  5
19CD7
  8
0
 10
4056.5457884109600855
 20
175.5357178009182064
 30
0.0
 40
0.0184876531248613
 50
249.9182121147021007
 51
270.1782900583842775
  0
ARC
  5
19CD8
  8
0
 10
4056.5438297980649622
 20
175.5307845041049006
 30
0.0
 40
0.0131825766178786
 50
223.5512996858952022
 51
250.5511951727212931
  0
ARC
  5
19CD9
  8
0
 10
4056.540112825579854
 20
175.5272417406638965
 30
0.0
 40
0.0080476973503088
 50
186.3111982218132994
 51
223.5040454053753081
  0
ARC
  5
19CDA
  8
0
 10
4056.5392400965738489
 20
175.5269543009515019
 30
0.0
 40
0.0071511778164095
 50
154.2726404410855992
 51
184.7906496159135088
  0
ARC
  5
19CDB
  8
0
 10
4056.5418143223641891
 20
175.5255477030266889
 30
0.0
 40
0.0100819210422961
 50
122.6483341477785984
 51
153.4217599213081087
  0
ARC
  5
19CDC
  8
0
 10
4056.5464696094791179
 20
175.5189062909495021
 30
0.0
 40
0.0289334751393148
 50
55.5114033734182826
 51
89.2764619795063368
  0
ARC
  5
19CDD
  8
0
 10
4056.5536019682408551
 20
175.5293961152320037
 30
0.0
 40
0.0162488259048989
 50
20.9328622824732911
 51
55.2962596402885609
  0
ARC
  5
19CDE
  8
0
 10
4056.5572671038739827
 20
175.531095930231686
 30
0.0
 40
0.0122214570789674
 50
355.9246945276710221
 51
19.6286528306235191
  0
ARC
  5
19CDF
  8
0
 10
4056.5543566872929659
 20
175.5312011125660092
 30
0.0
 40
0.0151323329761961
 50
342.2280093890946091
 51
356.310597704012082
  0
ARC
  5
19CE0
  8
0
 10
4056.5530716343309905
 20
175.5316742726215011
 30
0.0
 40
0.0165005872815783
 50
320.5760510092146092
 51
342.0254179140031852
  0
ARC
  5
19CE1
  8
0
 10
4056.5490539821198581
 20
175.5352166848234958
 30
0.0
 40
0.0218544997694999
 50
292.5372131709056021
 51
320.0910927641933768
  0
ARC
  5
19CE2
  8
0
 10
4056.5459630498098704
 20
175.5422354995502019
 30
0.0
 40
0.0295224555372933
 50
268.6923593592632074
 51
292.856827735931688
  0
ARC
  5
19CE3
  8
0
 10
4056.5431958242279507
 20
175.5361849711514992
 30
0.0
 40
0.0229416127743103
 50
231.1342677831410981
 51
244.3315776295332
  0
ARC
  5
19CE4
  8
0
 10
4056.5400509754358609
 20
175.5325308615491053
 30
0.0
 40
0.0181237391633435
 50
204.2872149242857915
 51
231.6264768153669138
  0
ARC
  5
19CE5
  8
0
 10
4056.5372150722519109
 20
175.5311382716242861
 30
0.0
 40
0.0149663935905065
 50
176.7145128345750891
 51
203.8932772991227012
  0
ARC
  5
19CE6
  8
0
 10
4056.535234779728853
 20
175.5309271750585083
 30
0.0
 40
0.0130054966334058
 50
146.1436081441474926
 51
175.2859131453955968
  0
ARC
  5
19CE7
  8
0
 10
4056.5400449265039242
 20
175.5275244498861014
 30
0.0
 40
0.0188962851505126
 50
120.7897639002468964
 51
145.7010630370454862
  0
ARC
  5
19CE8
  8
0
 10
4056.5455929727099829
 20
175.5175958603061019
 30
0.0
 40
0.0302670921759264
 50
87.6482218531213135
 51
120.1910272397954031
  0
ARC
  5
19CE9
  8
0
 10
4056.5456667401181221
 20
175.5417148775308078
 30
0.0
 40
0.0289966013830392
 50
244.6640758317086863
 51
269.2542323531046122
  0
ARC
  5
19CEA
  8
0
 10
4056.5459289263549181
 20
175.5358224009117123
 30
0.0
 40
0.0185923488158952
 50
269.7442606393860274
 51
288.9192794619472124
  0
ARC
  5
19CEB
  8
0
 10
4056.5470544123049876
 20
175.5324921557850928
 30
0.0
 40
0.0150771006022448
 50
288.9766678707892993
 51
302.0054758641663284
  0
ARC
  5
19CEC
  8
0
 10
4056.5461640122248355
 20
175.5196033790300021
 30
0.0
 40
0.0171143241914516
 50
57.990326719175151
 51
91.0912301414281131
  0
ARC
  5
19CED
  8
0
 10
4056.5503806419951616
 20
175.5260130522945872
 30
0.0
 40
0.0094457867846938
 50
18.9530933820168492
 51
59.0700974018845315
  0
ARC
  5
19CEE
  8
0
 10
4056.6085980531611312
 20
175.5194771732280117
 30
0.0
 40
0.0172389893607023
 50
89.228389724111608
 51
122.3744172389967986
  0
ARC
  5
19CEF
  8
0
 10
4056.6157703987742025
 20
175.526979273224498
 30
0.0
 40
0.0068656506586335
 50
350.0170261959028721
 51
17.8255646942772792
  0
ARC
  5
19CF0
  8
0
 10
4056.6147487360772175
 20
175.5272239788567106
 30
0.0
 40
0.0079145236307497
 50
323.1515603953786808
 51
349.554502739617817
  0
ARC
  5
19CF1
  8
0
 10
4056.6122115472521727
 20
175.5291668387056063
 30
0.0
 40
0.0111100279204189
 50
301.6264090746806801
 51
322.9804915264755891
  0
ARC
  5
19CF2
  8
0
 10
4056.60878053692295
 20
175.5357178009182064
 30
0.0
 40
0.0184876531248613
 50
249.9182121147021007
 51
270.1782900583842775
  0
ARC
  5
19CF3
  8
0
 10
4056.6068219240269173
 20
175.5307845041049006
 30
0.0
 40
0.0131825766178786
 50
223.5512996858952022
 51
250.5511951727212931
  0
ARC
  5
19CF4
  8
0
 10
4056.6031049515431732
 20
175.5272417406638965
 30
0.0
 40
0.0080476973503088
 50
186.3111982218132994
 51
223.5040454053753081
  0
ARC
  5
19CF5
  8
0
 10
4056.6022322225371681
 20
175.5269543009515019
 30
0.0
 40
0.0071511778164095
 50
154.2726404410855992
 51
184.7906496159135088
  0
ARC
  5
19CF6
  8
0
 10
4056.6048064483261442
 20
175.5255477030266889
 30
0.0
 40
0.0100819210422961
 50
122.6483341477785984
 51
153.4217599213081087
  0
ARC
  5
19CF7
  8
0
 10
4056.6094617354419825
 20
175.5189062909495021
 30
0.0
 40
0.0289334751393148
 50
55.5114033734182826
 51
89.2764619795063368
  0
ARC
  5
19CF8
  8
0
 10
4056.6165940942041743
 20
175.5293961152320037
 30
0.0
 40
0.0162488259048989
 50
20.9328622824732911
 51
55.2962596402885609
  0
ARC
  5
19CF9
  8
0
 10
4056.6202592298368472
 20
175.531095930231686
 30
0.0
 40
0.0122214570789674
 50
355.9246945276710221
 51
19.6286528306235191
  0
ARC
  5
19CFA
  8
0
 10
4056.617348813254921
 20
175.5312011125660092
 30
0.0
 40
0.0151323329761961
 50
342.2280093890946091
 51
356.310597704012082
  0
ARC
  5
19CFB
  8
0
 10
4056.6160637602929455
 20
175.5316742726215011
 30
0.0
 40
0.0165005872815783
 50
320.5760510092146092
 51
342.0254179140031852
  0
ARC
  5
19CFC
  8
0
 10
4056.6120461080831774
 20
175.5352166848234958
 30
0.0
 40
0.0218544997694999
 50
292.5372131709056021
 51
320.0910927641933768
  0
ARC
  5
19CFD
  8
0
 10
4056.6089551757731897
 20
175.5422354995502019
 30
0.0
 40
0.0295224555372933
 50
268.6923593592632074
 51
292.856827735931688
  0
ARC
  5
19CFE
  8
0
 10
4056.6061879501899057
 20
175.5361849711514992
 30
0.0
 40
0.0229416127743103
 50
231.1342677831410981
 51
244.3315776295332
  0
ARC
  5
19CFF
  8
0
 10
4056.6030431013991802
 20
175.5325308615491053
 30
0.0
 40
0.0181237391633435
 50
204.2872149242857915
 51
231.6264768153669138
  0
ARC
  5
19D00
  8
0
 10
4056.6002071982138659
 20
175.5311382716242861
 30
0.0
 40
0.0149663935905065
 50
176.7145128345750891
 51
203.8932772991227012
  0
ARC
  5
19D01
  8
0
 10
4056.5982269056908081
 20
175.5309271750585083
 30
0.0
 40
0.0130054966334058
 50
146.1436081441474926
 51
175.2859131453955968
  0
ARC
  5
19D02
  8
0
 10
4056.6030370524667887
 20
175.5275244498861014
 30
0.0
 40
0.0188962851505126
 50
120.7897639002468964
 51
145.7010630370454862
  0
ARC
  5
19D03
  8
0
 10
4056.6085850986742116
 20
175.5175958603061019
 30
0.0
 40
0.0302670921759264
 50
87.6482218531213135
 51
120.1910272397954031
  0
ARC
  5
19D04
  8
0
 10
4056.6086588660809866
 20
175.5417148775308078
 30
0.0
 40
0.0289966013830392
 50
244.6640758317086863
 51
269.2542323531046122
  0
ARC
  5
19D05
  8
0
 10
4056.6089210523177826
 20
175.5358224009117123
 30
0.0
 40
0.0185923488158952
 50
269.7442606393860274
 51
288.9192794619472124
  0
ARC
  5
19D06
  8
0
 10
4056.6100465382692164
 20
175.5324921557850928
 30
0.0
 40
0.0150771006022448
 50
288.9766678707892993
 51
302.0054758641663284
  0
ARC
  5
19D07
  8
0
 10
4056.6091561381867905
 20
175.5196033790300021
 30
0.0
 40
0.0171143241914516
 50
57.990326719175151
 51
91.0912301414281131
  0
ARC
  5
19D08
  8
0
 10
4056.6133727679580261
 20
175.5260130522945872
 30
0.0
 40
0.0094457867846938
 50
18.9530933820168492
 51
59.0700974018845315
  0
ARC
  5
19D09
  8
0
 10
4056.6715901791508259
 20
175.5194771732280117
 30
0.0
 40
0.0172389893607023
 50
89.228389724111608
 51
122.3744172389967986
  0
ARC
  5
19D0A
  8
0
 10
4056.6787625247648066
 20
175.526979273224498
 30
0.0
 40
0.0068656506586335
 50
350.0170261959028721
 51
17.8255646942772792
  0
ARC
  5
19D0B
  8
0
 10
4056.6777408620669121
 20
175.5272239788567106
 30
0.0
 40
0.0079145236307497
 50
323.1515603953786808
 51
349.554502739617817
  0
ARC
  5
19D0C
  8
0
 10
4056.6752036732418674
 20
175.5291668387056063
 30
0.0
 40
0.0111100279204189
 50
301.6264090746806801
 51
322.9804915264755891
  0
ARC
  5
19D0D
  8
0
 10
4056.6717726629140088
 20
175.5357178009182064
 30
0.0
 40
0.0184876531248613
 50
249.9182121147021007
 51
270.1782900583842775
  0
ARC
  5
19D0E
  8
0
 10
4056.6698140500170666
 20
175.5307845041049006
 30
0.0
 40
0.0131825766178786
 50
223.5512996858952022
 51
250.5511951727212931
  0
ARC
  5
19D0F
  8
0
 10
4056.6660970775328678
 20
175.5272417406638965
 30
0.0
 40
0.0080476973503088
 50
186.3111982218132994
 51
223.5040454053753081
  0
ARC
  5
19D10
  8
0
 10
4056.6652243485268627
 20
175.5269543009515019
 30
0.0
 40
0.0071511778164095
 50
154.2726404410855992
 51
184.7906496159135088
  0
ARC
  5
19D11
  8
0
 10
4056.6677985743158388
 20
175.5255477030266889
 30
0.0
 40
0.0100819210422961
 50
122.6483341477785984
 51
153.4217599213081087
  0
ARC
  5
19D12
  8
0
 10
4056.6724538614321318
 20
175.5189062909495021
 30
0.0
 40
0.0289334751393148
 50
55.5114033734182826
 51
89.2764619795063368
  0
ARC
  5
19D13
  8
0
 10
4056.6795862201938689
 20
175.5293961152320037
 30
0.0
 40
0.0162488259048989
 50
20.9328622824732911
 51
55.2962596402885609
  0
ARC
  5
19D14
  8
0
 10
4056.6832513558279061
 20
175.531095930231686
 30
0.0
 40
0.0122214570789674
 50
355.9246945276710221
 51
19.6286528306235191
  0
ARC
  5
19D15
  8
0
 10
4056.6803409392459798
 20
175.5312011125660092
 30
0.0
 40
0.0151323329761961
 50
342.2280093890946091
 51
356.310597704012082
  0
ARC
  5
19D16
  8
0
 10
4056.6790558862830949
 20
175.5316742726215011
 30
0.0
 40
0.0165005872815783
 50
320.5760510092146092
 51
342.0254179140031852
  0
ARC
  5
19D17
  8
0
 10
4056.675038234072872
 20
175.5352166848234958
 30
0.0
 40
0.0218544997694999
 50
292.5372131709056021
 51
320.0910927641933768
  0
ARC
  5
19D18
  8
0
 10
4056.6719473017628843
 20
175.5422354995502019
 30
0.0
 40
0.0295224555372933
 50
268.6923593592632074
 51
292.856827735931688
  0
ARC
  5
19D19
  8
0
 10
4056.6691800761809645
 20
175.5361849711514992
 30
0.0
 40
0.0229416127743103
 50
231.1342677831410981
 51
244.3315776295332
  0
ARC
  5
19D1A
  8
0
 10
4056.6660352273888748
 20
175.5325308615491053
 30
0.0
 40
0.0181237391633435
 50
204.2872149242857915
 51
231.6264768153669138
  0
ARC
  5
19D1B
  8
0
 10
4056.6631993242040153
 20
175.5311382716242861
 30
0.0
 40
0.0149663935905065
 50
176.7145128345750891
 51
203.8932772991227012
  0
ARC
  5
19D1C
  8
0
 10
4056.6612190316809574
 20
175.5309271750585083
 30
0.0
 40
0.0130054966334058
 50
146.1436081441474926
 51
175.2859131453955968
  0
ARC
  5
19D1D
  8
0
 10
4056.6660291784569381
 20
175.5275244498861014
 30
0.0
 40
0.0188962851505126
 50
120.7897639002468964
 51
145.7010630370454862
  0
ARC
  5
19D1E
  8
0
 10
4056.6715772246639062
 20
175.5175958603061019
 30
0.0
 40
0.0302670921759264
 50
87.6482218531213135
 51
120.1910272397954031
  0
ARC
  5
19D1F
  8
0
 10
4056.671650992071136
 20
175.5417148775308078
 30
0.0
 40
0.0289966013830392
 50
244.6640758317086863
 51
269.2542323531046122
  0
ARC
  5
19D20
  8
0
 10
4056.671913178307932
 20
175.5358224009117123
 30
0.0
 40
0.0185923488158952
 50
269.7442606393860274
 51
288.9192794619472124
  0
ARC
  5
19D21
  8
0
 10
4056.6730386642598205
 20
175.5324921557850928
 30
0.0
 40
0.0150771006022448
 50
288.9766678707892993
 51
302.0054758641663284
  0
ARC
  5
19D22
  8
0
 10
4056.6721482641778493
 20
175.5196033790300021
 30
0.0
 40
0.0171143241914516
 50
57.990326719175151
 51
91.0912301414281131
  0
ARC
  5
19D23
  8
0
 10
4056.6763648939481754
 20
175.5260130522945872
 30
0.0
 40
0.0094457867846938
 50
18.9530933820168492
 51
59.0700974018845315
  0
ARC
  5
19D24
  8
0
 10
4055.5062358484519791
 20
175.5668032176280065
 30
0.0
 40
0.0172389893607023
 50
89.228389724111608
 51
122.3744172389967986
  0
ARC
  5
19D25
  8
0
 10
4055.5134081940668693
 20
175.5743053176244928
 30
0.0
 40
0.0068656506586335
 50
350.0170261959028721
 51
17.8255646942772792
  0
ARC
  5
19D26
  8
0
 10
4055.5123865313680653
 20
175.5745500232567053
 30
0.0
 40
0.0079145236307497
 50
323.1515603953786808
 51
349.554502739617817
  0
ARC
  5
19D27
  8
0
 10
4055.5098493425439301
 20
175.5764928831054874
 30
0.0
 40
0.0111100279204189
 50
301.6264090746806801
 51
322.9804915264755891
  0
ARC
  5
19D28
  8
0
 10
4055.5064183322137978
 20
175.5830438453182012
 30
0.0
 40
0.0184876531248613
 50
249.9182121147021007
 51
270.1782900583842775
  0
ARC
  5
19D29
  8
0
 10
4055.5044597193191294
 20
175.5781105485048954
 30
0.0
 40
0.0131825766178786
 50
223.5512996858952022
 51
250.5511951727212931
  0
ARC
  5
19D2A
  8
0
 10
4055.5007427468340211
 20
175.5745677850638913
 30
0.0
 40
0.0080476973503088
 50
186.3111982218132994
 51
223.5040454053753081
  0
ARC
  5
19D2B
  8
0
 10
4055.499870017828016
 20
175.5742803453514966
 30
0.0
 40
0.0071511778164095
 50
154.2726404410855992
 51
184.7906496159135088
  0
ARC
  5
19D2C
  8
0
 10
4055.502444243616992
 20
175.5728737474267973
 30
0.0
 40
0.0100819210422961
 50
122.6483341477785984
 51
153.4217599213081087
  0
ARC
  5
19D2D
  8
0
 10
4055.5070995307328303
 20
175.5662323353494116
 30
0.0
 40
0.0289334751393148
 50
55.5114033734182826
 51
89.2764619795063368
  0
ARC
  5
19D2E
  8
0
 10
4055.5142318894950222
 20
175.5767221596319985
 30
0.0
 40
0.0162488259048989
 50
20.9328622824732911
 51
55.2962596402885609
  0
ARC
  5
19D2F
  8
0
 10
4055.5178970251281498
 20
175.5784219746317092
 30
0.0
 40
0.0122214570789674
 50
355.9246945276710221
 51
19.6286528306235191
  0
ARC
  5
19D30
  8
0
 10
4055.5149866085471331
 20
175.578527156966004
 30
0.0
 40
0.0151323329761961
 50
342.2280093890946091
 51
356.310597704012082
  0
ARC
  5
19D31
  8
0
 10
4055.5137015555851576
 20
175.5790003170214959
 30
0.0
 40
0.0165005872815783
 50
320.5760510092146092
 51
342.0254179140031852
  0
ARC
  5
19D32
  8
0
 10
4055.5096839033749347
 20
175.5825427292234053
 30
0.0
 40
0.0218544997694999
 50
292.5372131709056021
 51
320.0910927641933768
  0
ARC
  5
19D33
  8
0
 10
4055.5065929710640376
 20
175.5895615439501967
 30
0.0
 40
0.0295224555372933
 50
268.6923593592632074
 51
292.856827735931688
  0
ARC
  5
19D34
  8
0
 10
4055.5038257454821178
 20
175.583511015551494
 30
0.0
 40
0.0229416127743103
 50
231.1342677831410981
 51
244.3315776295332
  0
ARC
  5
19D35
  8
0
 10
4055.5006808966909375
 20
175.5798569059491001
 30
0.0
 40
0.0181237391633435
 50
204.2872149242857915
 51
231.6264768153669138
  0
ARC
  5
19D36
  8
0
 10
4055.497844993506078
 20
175.5784643160243093
 30
0.0
 40
0.0149663935905065
 50
176.7145128345750891
 51
203.8932772991227012
  0
ARC
  5
19D37
  8
0
 10
4055.4958647009830202
 20
175.5782532194585031
 30
0.0
 40
0.0130054966334058
 50
146.1436081441474926
 51
175.2859131453955968
  0
ARC
  5
19D38
  8
0
 10
4055.5006748477590008
 20
175.5748504942860109
 30
0.0
 40
0.0188962851505126
 50
120.7897639002468964
 51
145.7010630370454862
  0
ARC
  5
19D39
  8
0
 10
4055.5062228939650595
 20
175.5649219047060967
 30
0.0
 40
0.0302670921759264
 50
87.6482218531213135
 51
120.1910272397954031
  0
ARC
  5
19D3A
  8
0
 10
4055.5062966613718345
 20
175.5890409219308026
 30
0.0
 40
0.0289966013830392
 50
244.6640758317086863
 51
269.2542323531046122
  0
ARC
  5
19D3B
  8
0
 10
4055.5065588476090852
 20
175.5831484453117071
 30
0.0
 40
0.0185923488158952
 50
269.7442606393860274
 51
288.9192794619472124
  0
ARC
  5
19D3C
  8
0
 10
4055.5076843335600643
 20
175.5798182001850876
 30
0.0
 40
0.0150771006022448
 50
288.9766678707892993
 51
302.0054758641663284
  0
ARC
  5
19D3D
  8
0
 10
4055.5067939334790026
 20
175.5669294234299969
 30
0.0
 40
0.0171143241914516
 50
57.990326719175151
 51
91.0912301414281131
  0
ARC
  5
19D3E
  8
0
 10
4055.511010563248874
 20
175.5733390966946104
 30
0.0
 40
0.0094457867846938
 50
18.9530933820168492
 51
59.0700974018845315
  0
ARC
  5
19D3F
  8
0
 10
4055.5691298612227911
 20
175.5668054724135061
 30
0.0
 40
0.0172389893607023
 50
89.228389724111608
 51
122.3744172389967986
  0
ARC
  5
19D40
  8
0
 10
4055.5763022068372265
 20
175.5743075724099924
 30
0.0
 40
0.0068656506586335
 50
350.0170261959028721
 51
17.8255646942772792
  0
ARC
  5
19D41
  8
0
 10
4055.5752805441388773
 20
175.574552278042205
 30
0.0
 40
0.0079145236307497
 50
323.1515603953786808
 51
349.554502739617817
  0
ARC
  5
19D42
  8
0
 10
4055.5727433553151968
 20
175.5764951378911007
 30
0.0
 40
0.0111100279204189
 50
301.6264090746806801
 51
322.9804915264755891
  0
ARC
  5
19D43
  8
0
 10
4055.5693123449859741
 20
175.5830461001037861
 30
0.0
 40
0.0184876531248613
 50
249.9182121147021007
 51
270.1782900583842775
  0
ARC
  5
19D44
  8
0
 10
4055.5673537320890318
 20
175.5781128032905087
 30
0.0
 40
0.0131825766178786
 50
223.5512996858952022
 51
250.5511951727212931
  0
ARC
  5
19D45
  8
0
 10
4055.5636367596048331
 20
175.5745700398495046
 30
0.0
 40
0.0080476973503088
 50
186.3111982218132994
 51
223.5040454053753081
  0
ARC
  5
19D46
  8
0
 10
4055.562764030598828
 20
175.57428260013711
 30
0.0
 40
0.0071511778164095
 50
154.2726404410855992
 51
184.7906496159135088
  0
ARC
  5
19D47
  8
0
 10
4055.565338256387804
 20
175.572876002212297
 30
0.0
 40
0.0100819210422961
 50
122.6483341477785984
 51
153.4217599213081087
  0
ARC
  5
19D48
  8
0
 10
4055.569993543504097
 20
175.5662345901349966
 30
0.0
 40
0.0289334751393148
 50
55.5114033734182826
 51
89.2764619795063368
  0
ARC
  5
19D49
  8
0
 10
4055.5771259022658342
 20
175.5767244144176118
 30
0.0
 40
0.0162488259048989
 50
20.9328622824732911
 51
55.2962596402885609
  0
ARC
  5
19D4A
  8
0
 10
4055.5807910378998713
 20
175.5784242294172941
 30
0.0
 40
0.0122214570789674
 50
355.9246945276710221
 51
19.6286528306235191
  0
ARC
  5
19D4B
  8
0
 10
4055.577880621317945
 20
175.5785294117515036
 30
0.0
 40
0.0151323329761961
 50
342.2280093890946091
 51
356.310597704012082
  0
ARC
  5
19D4C
  8
0
 10
4055.5765955683559696
 20
175.5790025718071092
 30
0.0
 40
0.0165005872815783
 50
320.5760510092146092
 51
342.0254179140031852
  0
ARC
  5
19D4D
  8
0
 10
4055.5725779161448372
 20
175.5825449840089902
 30
0.0
 40
0.0218544997694999
 50
292.5372131709056021
 51
320.0910927641933768
  0
ARC
  5
19D4E
  8
0
 10
4055.5694869838348495
 20
175.5895637987356963
 30
0.0
 40
0.0295224555372933
 50
268.6923593592632074
 51
292.856827735931688
  0
ARC
  5
19D4F
  8
0
 10
4055.5667197582529298
 20
175.5835132703371073
 30
0.0
 40
0.0229416127743103
 50
231.1342677831410981
 51
244.3315776295332
  0
ARC
  5
19D50
  8
0
 10
4055.5635749094622042
 20
175.5798591607347134
 30
0.0
 40
0.0181237391633435
 50
204.2872149242857915
 51
231.6264768153669138
  0
ARC
  5
19D51
  8
0
 10
4055.56073900627689
 20
175.5784665708098089
 30
0.0
 40
0.0149663935905065
 50
176.7145128345750891
 51
203.8932772991227012
  0
ARC
  5
19D52
  8
0
 10
4055.5587587137529226
 20
175.578255474244088
 30
0.0
 40
0.0130054966334058
 50
146.1436081441474926
 51
175.2859131453955968
  0
ARC
  5
19D53
  8
0
 10
4055.5635688605298128
 20
175.5748527490715958
 30
0.0
 40
0.0188962851505126
 50
120.7897639002468964
 51
145.7010630370454862
  0
ARC
  5
19D54
  8
0
 10
4055.5691169067358715
 20
175.5649241594915964
 30
0.0
 40
0.0302670921759264
 50
87.6482218531213135
 51
120.1910272397954031
  0
ARC
  5
19D55
  8
0
 10
4055.5691906741431012
 20
175.5890431767163022
 30
0.0
 40
0.0289966013830392
 50
244.6640758317086863
 51
269.2542323531046122
  0
ARC
  5
19D56
  8
0
 10
4055.5694528603798972
 20
175.5831507000972067
 30
0.0
 40
0.0185923488158952
 50
269.7442606393860274
 51
288.9192794619472124
  0
ARC
  5
19D57
  8
0
 10
4055.5705783463317857
 20
175.5798204549705872
 30
0.0
 40
0.0150771006022448
 50
288.9766678707892993
 51
302.0054758641663284
  0
ARC
  5
19D58
  8
0
 10
4055.5696879462498146
 20
175.5669316782154965
 30
0.0
 40
0.0171143241914516
 50
57.990326719175151
 51
91.0912301414281131
  0
ARC
  5
19D59
  8
0
 10
4055.5739045760210502
 20
175.5733413514801953
 30
0.0
 40
0.0094457867846938
 50
18.9530933820168492
 51
59.0700974018845315
  0
ARC
  5
19D5A
  8
0
 10
4055.6321219872170332
 20
175.5668054724135061
 30
0.0
 40
0.0172389893607023
 50
89.228389724111608
 51
122.3744172389967986
  0
ARC
  5
19D5B
  8
0
 10
4055.6392943328310139
 20
175.5743075724099924
 30
0.0
 40
0.0068656506586335
 50
350.0170261959028721
 51
17.8255646942772792
  0
ARC
  5
19D5C
  8
0
 10
4055.6382726701322099
 20
175.574552278042205
 30
0.0
 40
0.0079145236307497
 50
323.1515603953786808
 51
349.554502739617817
  0
ARC
  5
19D5D
  8
0
 10
4055.6357354813089842
 20
175.5764951378911007
 30
0.0
 40
0.0111100279204189
 50
301.6264090746806801
 51
322.9804915264755891
  0
ARC
  5
19D5E
  8
0
 10
4055.6323044709802161
 20
175.5830461001037861
 30
0.0
 40
0.0184876531248613
 50
249.9182121147021007
 51
270.1782900583842775
  0
ARC
  5
19D5F
  8
0
 10
4055.6303458580828192
 20
175.5781128032905087
 30
0.0
 40
0.0131825766178786
 50
223.5512996858952022
 51
250.5511951727212931
  0
ARC
  5
19D60
  8
0
 10
4055.6266288855981657
 20
175.5745700398495046
 30
0.0
 40
0.0080476973503088
 50
186.3111982218132994
 51
223.5040454053753081
  0
ARC
  5
19D61
  8
0
 10
4055.62575615659307
 20
175.57428260013711
 30
0.0
 40
0.0071511778164095
 50
154.2726404410855992
 51
184.7906496159135088
  0
ARC
  5
19D62
  8
0
 10
4055.6283303823820461
 20
175.572876002212297
 30
0.0
 40
0.0100819210422961
 50
122.6483341477785984
 51
153.4217599213081087
  0
ARC
  5
19D63
  8
0
 10
4055.6329856694978844
 20
175.5662345901349966
 30
0.0
 40
0.0289334751393148
 50
55.5114033734182826
 51
89.2764619795063368
  0
ARC
  5
19D64
  8
0
 10
4055.6401180282600762
 20
175.5767244144176118
 30
0.0
 40
0.0162488259048989
 50
20.9328622824732911
 51
55.2962596402885609
  0
ARC
  5
19D65
  8
0
 10
4055.6437831638932039
 20
175.5784242294172941
 30
0.0
 40
0.0122214570789674
 50
355.9246945276710221
 51
19.6286528306235191
  0
ARC
  5
19D66
  8
0
 10
4055.6408727473121871
 20
175.5785294117515036
 30
0.0
 40
0.0151323329761961
 50
342.2280093890946091
 51
356.310597704012082
  0
ARC
  5
19D67
  8
0
 10
4055.6395876943502117
 20
175.5790025718071092
 30
0.0
 40
0.0165005872815783
 50
320.5760510092146092
 51
342.0254179140031852
  0
ARC
  5
19D68
  8
0
 10
4055.6355700421399888
 20
175.5825449840089902
 30
0.0
 40
0.0218544997694999
 50
292.5372131709056021
 51
320.0910927641933768
  0
ARC
  5
19D69
  8
0
 10
4055.6324791098290916
 20
175.5895637987356963
 30
0.0
 40
0.0295224555372933
 50
268.6923593592632074
 51
292.856827735931688
  0
ARC
  5
19D6A
  8
0
 10
4055.6297118842471718
 20
175.5835132703371073
 30
0.0
 40
0.0229416127743103
 50
231.1342677831410981
 51
244.3315776295332
  0
ARC
  5
19D6B
  8
0
 10
4055.6265670354559916
 20
175.5798591607347134
 30
0.0
 40
0.0181237391633435
 50
204.2872149242857915
 51
231.6264768153669138
  0
ARC
  5
19D6C
  8
0
 10
4055.6237311322702226
 20
175.5784665708098089
 30
0.0
 40
0.0149663935905065
 50
176.7145128345750891
 51
203.8932772991227012
  0
ARC
  5
19D6D
  8
0
 10
4055.6217508397471647
 20
175.578255474244088
 30
0.0
 40
0.0130054966334058
 50
146.1436081441474926
 51
175.2859131453955968
  0
ARC
  5
19D6E
  8
0
 10
4055.6265609865240549
 20
175.5748527490715958
 30
0.0
 40
0.0188962851505126
 50
120.7897639002468964
 51
145.7010630370454862
  0
ARC
  5
19D6F
  8
0
 10
4055.632109032729204
 20
175.5649241594915964
 30
0.0
 40
0.0302670921759264
 50
87.6482218531213135
 51
120.1910272397954031
  0
ARC
  5
19D70
  8
0
 10
4055.6321828001359791
 20
175.5890431767163022
 30
0.0
 40
0.0289966013830392
 50
244.6640758317086863
 51
269.2542323531046122
  0
ARC
  5
19D71
  8
0
 10
4055.6324449863741393
 20
175.5831507000972067
 30
0.0
 40
0.0185923488158952
 50
269.7442606393860274
 51
288.9192794619472124
  0
ARC
  5
19D72
  8
0
 10
4055.6335704723251183
 20
175.5798204549705872
 30
0.0
 40
0.0150771006022448
 50
288.9766678707892993
 51
302.0054758641663284
  0
ARC
  5
19D73
  8
0
 10
4055.6326800722431472
 20
175.5669316782154965
 30
0.0
 40
0.0171143241914516
 50
57.990326719175151
 51
91.0912301414281131
  0
ARC
  5
19D74
  8
0
 10
4055.636896702013928
 20
175.5733413514801953
 30
0.0
 40
0.0094457867846938
 50
18.9530933820168492
 51
59.0700974018845315
  0
ARC
  5
19D75
  8
0
 10
4055.6951141132049088
 20
175.5668054724135061
 30
0.0
 40
0.0172389893607023
 50
89.228389724111608
 51
122.3744172389967986
  0
ARC
  5
19D76
  8
0
 10
4055.7022864588188895
 20
175.5743075724099924
 30
0.0
 40
0.0068656506586335
 50
350.0170261959028721
 51
17.8255646942772792
  0
ARC
  5
19D77
  8
0
 10
4055.701264796120995
 20
175.574552278042205
 30
0.0
 40
0.0079145236307497
 50
323.1515603953786808
 51
349.554502739617817
  0
ARC
  5
19D78
  8
0
 10
4055.6987276072968598
 20
175.5764951378911007
 30
0.0
 40
0.0111100279204189
 50
301.6264090746806801
 51
322.9804915264755891
  0
ARC
  5
19D79
  8
0
 10
4055.6952965969680918
 20
175.5830461001037861
 30
0.0
 40
0.0184876531248613
 50
249.9182121147021007
 51
270.1782900583842775
  0
ARC
  5
19D7A
  8
0
 10
4055.693337984072059
 20
175.5781128032905087
 30
0.0
 40
0.0131825766178786
 50
223.5512996858952022
 51
250.5511951727212931
  0
ARC
  5
19D7B
  8
0
 10
4055.6896210115869508
 20
175.5745700398495046
 30
0.0
 40
0.0080476973503088
 50
186.3111982218132994
 51
223.5040454053753081
  0
ARC
  5
19D7C
  8
0
 10
4055.6887482825809457
 20
175.57428260013711
 30
0.0
 40
0.0071511778164095
 50
154.2726404410855992
 51
184.7906496159135088
  0
ARC
  5
19D7D
  8
0
 10
4055.6913225083708312
 20
175.572876002212297
 30
0.0
 40
0.0100819210422961
 50
122.6483341477785984
 51
153.4217599213081087
  0
ARC
  5
19D7E
  8
0
 10
4055.6959777954862147
 20
175.5662345901349966
 30
0.0
 40
0.0289334751393148
 50
55.5114033734182826
 51
89.2764619795063368
  0
ARC
  5
19D7F
  8
0
 10
4055.7031101542470424
 20
175.5767244144176118
 30
0.0
 40
0.0162488259048989
 50
20.9328622824732911
 51
55.2962596402885609
  0
ARC
  5
19D80
  8
0
 10
4055.7067752898810795
 20
175.5784242294172941
 30
0.0
 40
0.0122214570789674
 50
355.9246945276710221
 51
19.6286528306235191
  0
ARC
  5
19D81
  8
0
 10
4055.7038648733000628
 20
175.5785294117515036
 30
0.0
 40
0.0151323329761961
 50
342.2280093890946091
 51
356.310597704012082
  0
ARC
  5
19D82
  8
0
 10
4055.7025798203371778
 20
175.5790025718071092
 30
0.0
 40
0.0165005872815783
 50
320.5760510092146092
 51
342.0254179140031852
  0
ARC
  5
19D83
  8
0
 10
4055.6985621681269549
 20
175.5825449840089902
 30
0.0
 40
0.0218544997694999
 50
292.5372131709056021
 51
320.0910927641933768
  0
ARC
  5
19D84
  8
0
 10
4055.6954712358169672
 20
175.5895637987356963
 30
0.0
 40
0.0295224555372933
 50
268.6923593592632074
 51
292.856827735931688
  0
ARC
  5
19D85
  8
0
 10
4055.6927040102350475
 20
175.5835132703371073
 30
0.0
 40
0.0229416127743103
 50
231.1342677831410981
 51
244.3315776295332
  0
ARC
  5
19D86
  8
0
 10
4055.6895591614429577
 20
175.5798591607347134
 30
0.0
 40
0.0181237391633435
 50
204.2872149242857915
 51
231.6264768153669138
  0
ARC
  5
19D87
  8
0
 10
4055.6867232582580982
 20
175.5784665708098089
 30
0.0
 40
0.0149663935905065
 50
176.7145128345750891
 51
203.8932772991227012
  0
ARC
  5
19D88
  8
0
 10
4055.6847429657350403
 20
175.578255474244088
 30
0.0
 40
0.0130054966334058
 50
146.1436081441474926
 51
175.2859131453955968
  0
ARC
  5
19D89
  8
0
 10
4055.689553112511021
 20
175.5748527490715958
 30
0.0
 40
0.0188962851505126
 50
120.7897639002468964
 51
145.7010630370454862
  0
ARC
  5
19D8A
  8
0
 10
4055.6951011587170797
 20
175.5649241594915964
 30
0.0
 40
0.0302670921759264
 50
87.6482218531213135
 51
120.1910272397954031
  0
ARC
  5
19D8B
  8
0
 10
4055.6951749261238547
 20
175.5890431767163875
 30
0.0
 40
0.0289966013830392
 50
244.6640758317086863
 51
269.2542323531046122
  0
ARC
  5
19D8C
  8
0
 10
4055.6954371123620149
 20
175.5831507000972067
 30
0.0
 40
0.0185923488158952
 50
269.7442606393860274
 51
288.9192794619472124
  0
ARC
  5
19D8D
  8
0
 10
4055.6965625983129939
 20
175.5798204549705872
 30
0.0
 40
0.0150771006022448
 50
288.9766678707892993
 51
302.0054758641663284
  0
ARC
  5
19D8E
  8
0
 10
4055.6956721982319323
 20
175.5669316782154965
 30
0.0
 40
0.0171143241914516
 50
57.990326719175151
 51
91.0912301414281131
  0
ARC
  5
19D8F
  8
0
 10
4055.6998888280018036
 20
175.5733413514801953
 30
0.0
 40
0.0094457867846938
 50
18.9530933820168492
 51
59.0700974018845315
  0
ARC
  5
19D90
  8
0
 10
4055.758204352381199
 20
175.5668032176280065
 30
0.0
 40
0.0172389893607023
 50
89.228389724111608
 51
122.3744172389967986
  0
ARC
  5
19D91
  8
0
 10
4055.7653766979951797
 20
175.5743053176244928
 30
0.0
 40
0.0068656506586335
 50
350.0170261959028721
 51
17.8255646942772792
  0
ARC
  5
19D92
  8
0
 10
4055.7643550352968305
 20
175.5745500232567053
 30
0.0
 40
0.0079145236307497
 50
323.1515603953786808
 51
349.554502739617817
  0
ARC
  5
19D93
  8
0
 10
4055.7618178464717857
 20
175.5764928831054874
 30
0.0
 40
0.0111100279204189
 50
301.6264090746806801
 51
322.9804915264755891
  0
ARC
  5
19D94
  8
0
 10
4055.7583868361430177
 20
175.5830438453182012
 30
0.0
 40
0.0184876531248613
 50
249.9182121147021007
 51
270.1782900583842775
  0
ARC
  5
19D95
  8
0
 10
4055.756428223246985
 20
175.5781105485048954
 30
0.0
 40
0.0131825766178786
 50
223.5512996858952022
 51
250.5511951727212931
  0
ARC
  5
19D96
  8
0
 10
4055.7527112507618767
 20
175.5745677850638913
 30
0.0
 40
0.0080476973503088
 50
186.3111982218132994
 51
223.5040454053753081
  0
ARC
  5
19D97
  8
0
 10
4055.7518385217558716
 20
175.5742803453514966
 30
0.0
 40
0.0071511778164095
 50
154.2726404410855992
 51
184.7906496159135088
  0
ARC
  5
19D98
  8
0
 10
4055.7544127475448477
 20
175.5728737474267973
 30
0.0
 40
0.0100819210422961
 50
122.6483341477785984
 51
153.4217599213081087
  0
ARC
  5
19D99
  8
0
 10
4055.7590680346611407
 20
175.5662323353494116
 30
0.0
 40
0.0289334751393148
 50
55.5114033734182826
 51
89.2764619795063368
  0
ARC
  5
19D9A
  8
0
 10
4055.7662003934228778
 20
175.5767221596319985
 30
0.0
 40
0.0162488259048989
 50
20.9328622824732911
 51
55.2962596402885609
  0
ARC
  5
19D9B
  8
0
 10
4055.769865529056915
 20
175.5784219746317092
 30
0.0
 40
0.0122214570789674
 50
355.9246945276710221
 51
19.6286528306235191
  0
ARC
  5
19D9C
  8
0
 10
4055.7669551124749887
 20
175.578527156966004
 30
0.0
 40
0.0151323329761961
 50
342.2280093890946091
 51
356.310597704012082
  0
ARC
  5
19D9D
  8
0
 10
4055.7656700595130133
 20
175.5790003170214959
 30
0.0
 40
0.0165005872815783
 50
320.5760510092146092
 51
342.0254179140031852
  0
ARC
  5
19D9E
  8
0
 10
4055.7616524073027904
 20
175.5825427292234053
 30
0.0
 40
0.0218544997694999
 50
292.5372131709056021
 51
320.0910927641933768
  0
ARC
  5
19D9F
  8
0
 10
4055.7585614749928027
 20
175.5895615439501967
 30
0.0
 40
0.0295224555372933
 50
268.6923593592632074
 51
292.856827735931688
  0
ARC
  5
19DA0
  8
0
 10
4055.7557942494099734
 20
175.583511015551494
 30
0.0
 40
0.0229416127743103
 50
231.1342677831410981
 51
244.3315776295332
  0
ARC
  5
19DA1
  8
0
 10
4055.7526494006187932
 20
175.5798569059491001
 30
0.0
 40
0.0181237391633435
 50
204.2872149242857915
 51
231.6264768153669138
  0
ARC
  5
19DA2
  8
0
 10
4055.7498134974339337
 20
175.5784643160243093
 30
0.0
 40
0.0149663935905065
 50
176.7145128345750891
 51
203.8932772991227012
  0
ARC
  5
19DA3
  8
0
 10
4055.7478332049108758
 20
175.5782532194585031
 30
0.0
 40
0.0130054966334058
 50
146.1436081441474926
 51
175.2859131453955968
  0
ARC
  5
19DA4
  8
0
 10
4055.7526433516868565
 20
175.5748504942860109
 30
0.0
 40
0.0188962851505126
 50
120.7897639002468964
 51
145.7010630370454862
  0
ARC
  5
19DA5
  8
0
 10
4055.7581913978929151
 20
175.5649219047060967
 30
0.0
 40
0.0302670921759264
 50
87.6482218531213135
 51
120.1910272397954031
  0
ARC
  5
19DA6
  8
0
 10
4055.7582651653001449
 20
175.5890409219308026
 30
0.0
 40
0.0289966013830392
 50
244.6640758317086863
 51
269.2542323531046122
  0
ARC
  5
19DA7
  8
0
 10
4055.7585273515369408
 20
175.5831484453117071
 30
0.0
 40
0.0185923488158952
 50
269.7442606393860274
 51
288.9192794619472124
  0
ARC
  5
19DA8
  8
0
 10
4055.7596528374888294
 20
175.5798182001850876
 30
0.0
 40
0.0150771006022448
 50
288.9766678707892993
 51
302.0054758641663284
  0
ARC
  5
19DA9
  8
0
 10
4055.7587624374068582
 20
175.5669294234299969
 30
0.0
 40
0.0171143241914516
 50
57.990326719175151
 51
91.0912301414281131
  0
ARC
  5
19DAA
  8
0
 10
4055.7629790671780938
 20
175.5733390966946104
 30
0.0
 40
0.0094457867846938
 50
18.9530933820168492
 51
59.0700974018845315
  0
ARC
  5
19DAB
  8
0
 10
4055.8210983651511015
 20
175.5668054724135061
 30
0.0
 40
0.0172389893607023
 50
89.228389724111608
 51
122.3744172389967986
  0
ARC
  5
19DAC
  8
0
 10
4055.8282707107650822
 20
175.5743075724099924
 30
0.0
 40
0.0068656506586335
 50
350.0170261959028721
 51
17.8255646942772792
  0
ARC
  5
19DAD
  8
0
 10
4055.8272490480671877
 20
175.574552278042205
 30
0.0
 40
0.0079145236307497
 50
323.1515603953786808
 51
349.554502739617817
  0
ARC
  5
19DAE
  8
0
 10
4055.8247118592430525
 20
175.5764951378911007
 30
0.0
 40
0.0111100279204189
 50
301.6264090746806801
 51
322.9804915264755891
  0
ARC
  5
19DAF
  8
0
 10
4055.8212808489138297
 20
175.5830461001037861
 30
0.0
 40
0.0184876531248613
 50
249.9182121147021007
 51
270.1782900583842775
  0
ARC
  5
19DB0
  8
0
 10
4055.819322236017797
 20
175.5781128032905087
 30
0.0
 40
0.0131825766178786
 50
223.5512996858952022
 51
250.5511951727212931
  0
ARC
  5
19DB1
  8
0
 10
4055.8156052635331434
 20
175.5745700398495046
 30
0.0
 40
0.0080476973503088
 50
186.3111982218132994
 51
223.5040454053753081
  0
ARC
  5
19DB2
  8
0
 10
4055.8147325345271383
 20
175.57428260013711
 30
0.0
 40
0.0071511778164095
 50
154.2726404410855992
 51
184.7906496159135088
  0
ARC
  5
19DB3
  8
0
 10
4055.8173067603170239
 20
175.572876002212297
 30
0.0
 40
0.0100819210422961
 50
122.6483341477785984
 51
153.4217599213081087
  0
ARC
  5
19DB4
  8
0
 10
4055.8219620474319527
 20
175.5662345901349966
 30
0.0
 40
0.0289334751393148
 50
55.5114033734182826
 51
89.2764619795063368
  0
ARC
  5
19DB5
  8
0
 10
4055.8290944061941445
 20
175.5767244144176118
 30
0.0
 40
0.0162488259048989
 50
20.9328622824732911
 51
55.2962596402885609
  0
ARC
  5
19DB6
  8
0
 10
4055.8327595418281817
 20
175.5784242294172941
 30
0.0
 40
0.0122214570789674
 50
355.9246945276710221
 51
19.6286528306235191
  0
ARC
  5
19DB7
  8
0
 10
4055.8298491252458007
 20
175.5785294117515036
 30
0.0
 40
0.0151323329761961
 50
342.2280093890946091
 51
356.310597704012082
  0
ARC
  5
19DB8
  8
0
 10
4055.8285640722838252
 20
175.5790025718071092
 30
0.0
 40
0.0165005872815783
 50
320.5760510092146092
 51
342.0254179140031852
  0
ARC
  5
19DB9
  8
0
 10
4055.8245464200740571
 20
175.5825449840089902
 30
0.0
 40
0.0218544997694999
 50
292.5372131709056021
 51
320.0910927641933768
  0
ARC
  5
19DBA
  8
0
 10
4055.8214554877631599
 20
175.5895637987356963
 30
0.0
 40
0.0295224555372933
 50
268.6923593592632074
 51
292.856827735931688
  0
ARC
  5
19DBB
  8
0
 10
4055.8186882621807854
 20
175.5835132703371073
 30
0.0
 40
0.0229416127743103
 50
231.1342677831410981
 51
244.3315776295332
  0
ARC
  5
19DBC
  8
0
 10
4055.8155434133900599
 20
175.5798591607347134
 30
0.0
 40
0.0181237391633435
 50
204.2872149242857915
 51
231.6264768153669138
  0
ARC
  5
19DBD
  8
0
 10
4055.8127075102052004
 20
175.5784665708098089
 30
0.0
 40
0.0149663935905065
 50
176.7145128345750891
 51
203.8932772991227012
  0
ARC
  5
19DBE
  8
0
 10
4055.8107272176807783
 20
175.578255474244088
 30
0.0
 40
0.0130054966334058
 50
146.1436081441474926
 51
175.2859131453955968
  0
ARC
  5
19DBF
  8
0
 10
4055.8155373644581232
 20
175.5748527490715958
 30
0.0
 40
0.0188962851505126
 50
120.7897639002468964
 51
145.7010630370454862
  0
ARC
  5
19DC0
  8
0
 10
4055.8210854106650913
 20
175.5649241594915964
 30
0.0
 40
0.0302670921759264
 50
87.6482218531213135
 51
120.1910272397954031
  0
ARC
  5
19DC1
  8
0
 10
4055.8211591780709568
 20
175.5890431767163875
 30
0.0
 40
0.0289966013830392
 50
244.6640758317086863
 51
269.2542323531046122
  0
ARC
  5
19DC2
  8
0
 10
4055.8214213643091171
 20
175.5831507000972067
 30
0.0
 40
0.0185923488158952
 50
269.7442606393860274
 51
288.9192794619472124
  0
ARC
  5
19DC3
  8
0
 10
4055.8225468502600961
 20
175.5798204549705872
 30
0.0
 40
0.0150771006022448
 50
288.9766678707892993
 51
302.0054758641663284
  0
ARC
  5
19DC4
  8
0
 10
4055.8216564501781249
 20
175.5669316782154965
 30
0.0
 40
0.0171143241914516
 50
57.990326719175151
 51
91.0912301414281131
  0
ARC
  5
19DC5
  8
0
 10
4055.8258730799489058
 20
175.5733413514801953
 30
0.0
 40
0.0094457867846938
 50
18.9530933820168492
 51
59.0700974018845315
  0
ARC
  5
19DC6
  8
0
 10
4055.8840904911448888
 20
175.5668054724135061
 30
0.0
 40
0.0172389893607023
 50
89.228389724111608
 51
122.3744172389967986
  0
ARC
  5
19DC7
  8
0
 10
4055.891262836759779
 20
175.5743075724099924
 30
0.0
 40
0.0068656506586335
 50
350.0170261959028721
 51
17.8255646942772792
  0
ARC
  5
19DC8
  8
0
 10
4055.890241174060975
 20
175.574552278042205
 30
0.0
 40
0.0079145236307497
 50
323.1515603953786808
 51
349.554502739617817
  0
ARC
  5
19DC9
  8
0
 10
4055.8877039852368398
 20
175.5764951378911007
 30
0.0
 40
0.0111100279204189
 50
301.6264090746806801
 51
322.9804915264755891
  0
ARC
  5
19DCA
  8
0
 10
4055.8842729749080718
 20
175.5830461001037861
 30
0.0
 40
0.0184876531248613
 50
249.9182121147021007
 51
270.1782900583842775
  0
ARC
  5
19DCB
  8
0
 10
4055.8823143620120391
 20
175.5781128032905087
 30
0.0
 40
0.0131825766178786
 50
223.5512996858952022
 51
250.5511951727212931
  0
ARC
  5
19DCC
  8
0
 10
4055.8785973895269308
 20
175.5745700398495046
 30
0.0
 40
0.0080476973503088
 50
186.3111982218132994
 51
223.5040454053753081
  0
ARC
  5
19DCD
  8
0
 10
4055.8777246605209257
 20
175.57428260013711
 30
0.0
 40
0.0071511778164095
 50
154.2726404410855992
 51
184.7906496159135088
  0
ARC
  5
19DCE
  8
0
 10
4055.8802988863108112
 20
175.572876002212297
 30
0.0
 40
0.0100819210422961
 50
122.6483341477785984
 51
153.4217599213081087
  0
ARC
  5
19DCF
  8
0
 10
4055.8849541734261948
 20
175.5662345901349966
 30
0.0
 40
0.0289334751393148
 50
55.5114033734182826
 51
89.2764619795063368
  0
ARC
  5
19DD0
  8
0
 10
4055.8920865321879319
 20
175.5767244144176118
 30
0.0
 40
0.0162488259048989
 50
20.9328622824732911
 51
55.2962596402885609
  0
ARC
  5
19DD1
  8
0
 10
4055.8957516678210595
 20
175.5784242294172941
 30
0.0
 40
0.0122214570789674
 50
355.9246945276710221
 51
19.6286528306235191
  0
ARC
  5
19DD2
  8
0
 10
4055.8928412512409523
 20
175.5785294117515036
 30
0.0
 40
0.0151323329761961
 50
342.2280093890946091
 51
356.310597704012082
  0
ARC
  5
19DD3
  8
0
 10
4055.8915561982780673
 20
175.5790025718071092
 30
0.0
 40
0.0165005872815783
 50
320.5760510092146092
 51
342.0254179140031852
  0
ARC
  5
19DD4
  8
0
 10
4055.8875385460678444
 20
175.5825449840089902
 30
0.0
 40
0.0218544997694999
 50
292.5372131709056021
 51
320.0910927641933768
  0
ARC
  5
19DD5
  8
0
 10
4055.8844476137578567
 20
175.5895637987356963
 30
0.0
 40
0.0295224555372933
 50
268.6923593592632074
 51
292.856827735931688
  0
ARC
  5
19DD6
  8
0
 10
4055.8816803881750275
 20
175.5835132703371073
 30
0.0
 40
0.0229416127743103
 50
231.1342677831410981
 51
244.3315776295332
  0
ARC
  5
19DD7
  8
0
 10
4055.8785355393838472
 20
175.5798591607347134
 30
0.0
 40
0.0181237391633435
 50
204.2872149242857915
 51
231.6264768153669138
  0
ARC
  5
19DD8
  8
0
 10
4055.8756996361989877
 20
175.5784665708098089
 30
0.0
 40
0.0149663935905065
 50
176.7145128345750891
 51
203.8932772991227012
  0
ARC
  5
19DD9
  8
0
 10
4055.8737193436759298
 20
175.578255474244088
 30
0.0
 40
0.0130054966334058
 50
146.1436081441474926
 51
175.2859131453955968
  0
ARC
  5
19DDA
  8
0
 10
4055.8785294904519105
 20
175.5748527490715958
 30
0.0
 40
0.0188962851505126
 50
120.7897639002468964
 51
145.7010630370454862
  0
ARC
  5
19DDB
  8
0
 10
4055.8840775366579692
 20
175.5649241594915964
 30
0.0
 40
0.0302670921759264
 50
87.6482218531213135
 51
120.1910272397954031
  0
ARC
  5
19DDC
  8
0
 10
4055.8841513040651989
 20
175.5890431767163875
 30
0.0
 40
0.0289966013830392
 50
244.6640758317086863
 51
269.2542323531046122
  0
ARC
  5
19DDD
  8
0
 10
4055.8844134903029044
 20
175.5831507000972067
 30
0.0
 40
0.0185923488158952
 50
269.7442606393860274
 51
288.9192794619472124
  0
ARC
  5
19DDE
  8
0
 10
4055.885538976252974
 20
175.5798204549705872
 30
0.0
 40
0.0150771006022448
 50
288.9766678707892993
 51
302.0054758641663284
  0
ARC
  5
19DDF
  8
0
 10
4055.8846485761728218
 20
175.5669316782154965
 30
0.0
 40
0.0171143241914516
 50
57.990326719175151
 51
91.0912301414281131
  0
ARC
  5
19DE0
  8
0
 10
4055.8888652059417836
 20
175.5733413514801953
 30
0.0
 40
0.0094457867846938
 50
18.9530933820168492
 51
59.0700974018845315
  0
ARC
  5
19DE1
  8
0
 10
4055.9470826171332192
 20
175.5668054724135061
 30
0.0
 40
0.0172389893607023
 50
89.228389724111608
 51
122.3744172389967986
  0
ARC
  5
19DE2
  8
0
 10
4055.9542549627481094
 20
175.5743075724099924
 30
0.0
 40
0.0068656506586335
 50
350.0170261959028721
 51
17.8255646942772792
  0
ARC
  5
19DE3
  8
0
 10
4055.9532333000502149
 20
175.574552278042205
 30
0.0
 40
0.0079145236307497
 50
323.1515603953786808
 51
349.554502739617817
  0
ARC
  5
19DE4
  8
0
 10
4055.9506961112251702
 20
175.5764951378911007
 30
0.0
 40
0.0111100279204189
 50
301.6264090746806801
 51
322.9804915264755891
  0
ARC
  5
19DE5
  8
0
 10
4055.9472651008959474
 20
175.5830461001037861
 30
0.0
 40
0.0184876531248613
 50
249.9182121147021007
 51
270.1782900583842775
  0
ARC
  5
19DE6
  8
0
 10
4055.9453064879999147
 20
175.5781128032905087
 30
0.0
 40
0.0131825766178786
 50
223.5512996858952022
 51
250.5511951727212931
  0
ARC
  5
19DE7
  8
0
 10
4055.9415895155148064
 20
175.5745700398495046
 30
0.0
 40
0.0080476973503088
 50
186.3111982218132994
 51
223.5040454053753081
  0
ARC
  5
19DE8
  8
0
 10
4055.9407167865088013
 20
175.57428260013711
 30
0.0
 40
0.0071511778164095
 50
154.2726404410855992
 51
184.7906496159135088
  0
ARC
  5
19DE9
  8
0
 10
4055.9432910122991416
 20
175.572876002212297
 30
0.0
 40
0.0100819210422961
 50
122.6483341477785984
 51
153.4217599213081087
  0
ARC
  5
19DEA
  8
0
 10
4055.9479462994140704
 20
175.5662345901349966
 30
0.0
 40
0.0289334751393148
 50
55.5114033734182826
 51
89.2764619795063368
  0
ARC
  5
19DEB
  8
0
 10
4055.9550786581758075
 20
175.5767244144176118
 30
0.0
 40
0.0162488259048989
 50
20.9328622824732911
 51
55.2962596402885609
  0
ARC
  5
19DEC
  8
0
 10
4055.9587437938098446
 20
175.5784242294172941
 30
0.0
 40
0.0122214570789674
 50
355.9246945276710221
 51
19.6286528306235191
  0
ARC
  5
19DED
  8
0
 10
4055.9558333772279184
 20
175.5785294117515036
 30
0.0
 40
0.0151323329761961
 50
342.2280093890946091
 51
356.310597704012082
  0
ARC
  5
19DEE
  8
0
 10
4055.9545483242659429
 20
175.5790025718071092
 30
0.0
 40
0.0165005872815783
 50
320.5760510092146092
 51
342.0254179140031852
  0
ARC
  5
19DEF
  8
0
 10
4055.9505306720548106
 20
175.5825449840089902
 30
0.0
 40
0.0218544997694999
 50
292.5372131709056021
 51
320.0910927641933768
  0
ARC
  5
19DF0
  8
0
 10
4055.9474397397448229
 20
175.5895637987356963
 30
0.0
 40
0.0295224555372933
 50
268.6923593592632074
 51
292.856827735931688
  0
ARC
  5
19DF1
  8
0
 10
4055.9446725141629031
 20
175.5835132703371073
 30
0.0
 40
0.0229416127743103
 50
231.1342677831410981
 51
244.3315776295332
  0
ARC
  5
19DF2
  8
0
 10
4055.9415276653708133
 20
175.5798591607347134
 30
0.0
 40
0.0181237391633435
 50
204.2872149242857915
 51
231.6264768153669138
  0
ARC
  5
19DF3
  8
0
 10
4055.9386917621868633
 20
175.5784665708098089
 30
0.0
 40
0.0149663935905065
 50
176.7145128345750891
 51
203.8932772991227012
  0
ARC
  5
19DF4
  8
0
 10
4055.9367114696638055
 20
175.578255474244088
 30
0.0
 40
0.0130054966334058
 50
146.1436081441474926
 51
175.2859131453955968
  0
ARC
  5
19DF5
  8
0
 10
4055.9415216164388767
 20
175.5748527490715958
 30
0.0
 40
0.0188962851505126
 50
120.7897639002468964
 51
145.7010630370454862
  0
ARC
  5
19DF6
  8
0
 10
4055.9470696626458448
 20
175.5649241594915964
 30
0.0
 40
0.0302670921759264
 50
87.6482218531213135
 51
120.1910272397954031
  0
ARC
  5
19DF7
  8
0
 10
4055.9471434300530746
 20
175.5890431767163875
 30
0.0
 40
0.0289966013830392
 50
244.6640758317086863
 51
269.2542323531046122
  0
ARC
  5
19DF8
  8
0
 10
4055.9474056162898705
 20
175.5831507000972067
 30
0.0
 40
0.0185923488158952
 50
269.7442606393860274
 51
288.9192794619472124
  0
ARC
  5
19DF9
  8
0
 10
4055.9485311022408496
 20
175.5798204549705872
 30
0.0
 40
0.0150771006022448
 50
288.9766678707892993
 51
302.0054758641663284
  0
ARC
  5
19DFA
  8
0
 10
4055.9476407021597879
 20
175.5669316782154965
 30
0.0
 40
0.0171143241914516
 50
57.990326719175151
 51
91.0912301414281131
  0
ARC
  5
19DFB
  8
0
 10
4055.9518573319310235
 20
175.5733413514801953
 30
0.0
 40
0.0094457867846938
 50
18.9530933820168492
 51
59.0700974018845315
  0
ARC
  5
19DFC
  8
0
 10
4056.0101728563199686
 20
175.5668032176280065
 30
0.0
 40
0.0172389893607023
 50
89.228389724111608
 51
122.3744172389967986
  0
ARC
  5
19DFD
  8
0
 10
4056.017345201936223
 20
175.5743053176244928
 30
0.0
 40
0.0068656506586335
 50
350.0170261959028721
 51
17.8255646942772792
  0
ARC
  5
19DFE
  8
0
 10
4056.0163235392369643
 20
175.5745500232567053
 30
0.0
 40
0.0079145236307497
 50
323.1515603953786808
 51
349.554502739617817
  0
ARC
  5
19DFF
  8
0
 10
4056.0137863504128291
 20
175.5764928831054874
 30
0.0
 40
0.0111100279204189
 50
301.6264090746806801
 51
322.9804915264755891
  0
ARC
  5
19E00
  8
0
 10
4056.010355340084061
 20
175.5830438453182012
 30
0.0
 40
0.0184876531248613
 50
249.9182121147021007
 51
270.1782900583842775
  0
ARC
  5
19E01
  8
0
 10
4056.0083967271880283
 20
175.5781105485048954
 30
0.0
 40
0.0131825766178786
 50
223.5512996858952022
 51
250.5511951727212931
  0
ARC
  5
19E02
  8
0
 10
4056.0046797547020105
 20
175.5745677850638913
 30
0.0
 40
0.0080476973503088
 50
186.3111982218132994
 51
223.5040454053753081
  0
ARC
  5
19E03
  8
0
 10
4056.0038070256969149
 20
175.5742803453514966
 30
0.0
 40
0.0071511778164095
 50
154.2726404410855992
 51
184.7906496159135088
  0
ARC
  5
19E04
  8
0
 10
4056.006381251485891
 20
175.5728737474267973
 30
0.0
 40
0.0100819210422961
 50
122.6483341477785984
 51
153.4217599213081087
  0
ARC
  5
19E05
  8
0
 10
4056.011036538602184
 20
175.5662323353494116
 30
0.0
 40
0.0289334751393148
 50
55.5114033734182826
 51
89.2764619795063368
  0
ARC
  5
19E06
  8
0
 10
4056.0181688973639211
 20
175.5767221596319985
 30
0.0
 40
0.0162488259048989
 50
20.9328622824732911
 51
55.2962596402885609
  0
ARC
  5
19E07
  8
0
 10
4056.0218340329970488
 20
175.5784219746317092
 30
0.0
 40
0.0122214570789674
 50
355.9246945276710221
 51
19.6286528306235191
  0
ARC
  5
19E08
  8
0
 10
4056.018923616416032
 20
175.578527156966004
 30
0.0
 40
0.0151323329761961
 50
342.2280093890946091
 51
356.310597704012082
  0
ARC
  5
19E09
  8
0
 10
4056.0176385634531471
 20
175.5790003170214959
 30
0.0
 40
0.0165005872815783
 50
320.5760510092146092
 51
342.0254179140031852
  0
ARC
  5
19E0A
  8
0
 10
4056.0136209112429242
 20
175.5825427292234053
 30
0.0
 40
0.0218544997694999
 50
292.5372131709056021
 51
320.0910927641933768
  0
ARC
  5
19E0B
  8
0
 10
4056.0105299789329365
 20
175.5895615439501967
 30
0.0
 40
0.0295224555372933
 50
268.6923593592632074
 51
292.856827735931688
  0
ARC
  5
19E0C
  8
0
 10
4056.0077627533510167
 20
175.583511015551494
 30
0.0
 40
0.0229416127743103
 50
231.1342677831410981
 51
244.3315776295332
  0
ARC
  5
19E0D
  8
0
 10
4056.004617904558927
 20
175.5798569059491001
 30
0.0
 40
0.0181237391633435
 50
204.2872149242857915
 51
231.6264768153669138
  0
ARC
  5
19E0E
  8
0
 10
4056.0017820013740675
 20
175.5784643160243093
 30
0.0
 40
0.0149663935905065
 50
176.7145128345750891
 51
203.8932772991227012
  0
ARC
  5
19E0F
  8
0
 10
4055.9998017088519191
 20
175.5782532194585031
 30
0.0
 40
0.0130054966334058
 50
146.1436081441474926
 51
175.2859131453955968
  0
ARC
  5
19E10
  8
0
 10
4056.0046118556269903
 20
175.5748504942860109
 30
0.0
 40
0.0188962851505126
 50
120.7897639002468964
 51
145.7010630370454862
  0
ARC
  5
19E11
  8
0
 10
4056.0101599018330489
 20
175.5649219047060967
 30
0.0
 40
0.0302670921759264
 50
87.6482218531213135
 51
120.1910272397954031
  0
ARC
  5
19E12
  8
0
 10
4056.0102336692398239
 20
175.5890409219308026
 30
0.0
 40
0.0289966013830392
 50
244.6640758317086863
 51
269.2542323531046122
  0
ARC
  5
19E13
  8
0
 10
4056.0104958554770747
 20
175.5831484453117071
 30
0.0
 40
0.0185923488158952
 50
269.7442606393860274
 51
288.9192794619472124
  0
ARC
  5
19E14
  8
0
 10
4056.0116213414280537
 20
175.5798182001850876
 30
0.0
 40
0.0150771006022448
 50
288.9766678707892993
 51
302.0054758641663284
  0
ARC
  5
19E15
  8
0
 10
4056.0107309413479015
 20
175.5669294234299969
 30
0.0
 40
0.0171143241914516
 50
57.990326719175151
 51
91.0912301414281131
  0
ARC
  5
19E16
  8
0
 10
4056.0149475711168634
 20
175.5733390966946104
 30
0.0
 40
0.0094457867846938
 50
18.9530933820168492
 51
59.0700974018845315
  0
ARC
  5
19E17
  8
0
 10
4056.0730668690921448
 20
175.5668054724135061
 30
0.0
 40
0.0172389893607023
 50
89.228389724111608
 51
122.3744172389967986
  0
ARC
  5
19E18
  8
0
 10
4056.0802392147061255
 20
175.5743075724099924
 30
0.0
 40
0.0068656506586335
 50
350.0170261959028721
 51
17.8255646942772792
  0
ARC
  5
19E19
  8
0
 10
4056.0792175520068668
 20
175.574552278042205
 30
0.0
 40
0.0079145236307497
 50
323.1515603953786808
 51
349.554502739617817
  0
ARC
  5
19E1A
  8
0
 10
4056.0766803631840958
 20
175.5764951378911007
 30
0.0
 40
0.0111100279204189
 50
301.6264090746806801
 51
322.9804915264755891
  0
ARC
  5
19E1B
  8
0
 10
4056.073249352854873
 20
175.5830461001037861
 30
0.0
 40
0.0184876531248613
 50
249.9182121147021007
 51
270.1782900583842775
  0
ARC
  5
19E1C
  8
0
 10
4056.0712907399588403
 20
175.5781128032905087
 30
0.0
 40
0.0131825766178786
 50
223.5512996858952022
 51
250.5511951727212931
  0
ARC
  5
19E1D
  8
0
 10
4056.0675737674741868
 20
175.5745700398495046
 30
0.0
 40
0.0080476973503088
 50
186.3111982218132994
 51
223.5040454053753081
  0
ARC
  5
19E1E
  8
0
 10
4056.0667010384681817
 20
175.57428260013711
 30
0.0
 40
0.0071511778164095
 50
154.2726404410855992
 51
184.7906496159135088
  0
ARC
  5
19E1F
  8
0
 10
4056.0692752642571577
 20
175.572876002212297
 30
0.0
 40
0.0100819210422961
 50
122.6483341477785984
 51
153.4217599213081087
  0
ARC
  5
19E20
  8
0
 10
4056.073930551372996
 20
175.5662345901349966
 30
0.0
 40
0.0289334751393148
 50
55.5114033734182826
 51
89.2764619795063368
  0
ARC
  5
19E21
  8
0
 10
4056.0810629101338236
 20
175.5767244144176118
 30
0.0
 40
0.0162488259048989
 50
20.9328622824732911
 51
55.2962596402885609
  0
ARC
  5
19E22
  8
0
 10
4056.0847280457678607
 20
175.5784242294172941
 30
0.0
 40
0.0122214570789674
 50
355.9246945276710221
 51
19.6286528306235191
  0
ARC
  5
19E23
  8
0
 10
4056.081817629186844
 20
175.5785294117515036
 30
0.0
 40
0.0151323329761961
 50
342.2280093890946091
 51
356.310597704012082
  0
ARC
  5
19E24
  8
0
 10
4056.080532576223959
 20
175.5790025718071092
 30
0.0
 40
0.0165005872815783
 50
320.5760510092146092
 51
342.0254179140031852
  0
ARC
  5
19E25
  8
0
 10
4056.0765149240141909
 20
175.5825449840089902
 30
0.0
 40
0.0218544997694999
 50
292.5372131709056021
 51
320.0910927641933768
  0
ARC
  5
19E26
  8
0
 10
4056.0734239917042032
 20
175.5895637987356963
 30
0.0
 40
0.0295224555372933
 50
268.6923593592632074
 51
292.856827735931688
  0
ARC
  5
19E27
  8
0
 10
4056.0706567661218287
 20
175.5835132703371073
 30
0.0
 40
0.0229416127743103
 50
231.1342677831410981
 51
244.3315776295332
  0
ARC
  5
19E28
  8
0
 10
4056.0675119173301937
 20
175.5798591607347134
 30
0.0
 40
0.0181237391633435
 50
204.2872149242857915
 51
231.6264768153669138
  0
ARC
  5
19E29
  8
0
 10
4056.0646760141448794
 20
175.5784665708098089
 30
0.0
 40
0.0149663935905065
 50
176.7145128345750891
 51
203.8932772991227012
  0
ARC
  5
19E2A
  8
0
 10
4056.0626957216218216
 20
175.578255474244088
 30
0.0
 40
0.0130054966334058
 50
146.1436081441474926
 51
175.2859131453955968
  0
ARC
  5
19E2B
  8
0
 10
4056.0675058683978023
 20
175.5748527490715958
 30
0.0
 40
0.0188962851505126
 50
120.7897639002468964
 51
145.7010630370454862
  0
ARC
  5
19E2C
  8
0
 10
4056.0730539146038609
 20
175.5649241594915964
 30
0.0
 40
0.0302670921759264
 50
87.6482218531213135
 51
120.1910272397954031
  0
ARC
  5
19E2D
  8
0
 10
4056.0731276820110907
 20
175.5890431767163875
 30
0.0
 40
0.0289966013830392
 50
244.6640758317086863
 51
269.2542323531046122
  0
ARC
  5
19E2E
  8
0
 10
4056.0733898682478866
 20
175.5831507000972067
 30
0.0
 40
0.0185923488158952
 50
269.7442606393860274
 51
288.9192794619472124
  0
ARC
  5
19E2F
  8
0
 10
4056.0745153541988657
 20
175.5798204549705872
 30
0.0
 40
0.0150771006022448
 50
288.9766678707892993
 51
302.0054758641663284
  0
ARC
  5
19E30
  8
0
 10
4056.0736249541191683
 20
175.5669316782154965
 30
0.0
 40
0.0171143241914516
 50
57.990326719175151
 51
91.0912301414281131
  0
ARC
  5
19E31
  8
0
 10
4056.0778415838881301
 20
175.5733413514801953
 30
0.0
 40
0.0094457867846938
 50
18.9530933820168492
 51
59.0700974018845315
  0
ARC
  5
19E32
  8
0
 10
4056.1360589950850226
 20
175.5668054724135061
 30
0.0
 40
0.0172389893607023
 50
89.228389724111608
 51
122.3744172389967986
  0
ARC
  5
19E33
  8
0
 10
4056.1432313406999128
 20
175.5743075724099924
 30
0.0
 40
0.0068656506586335
 50
350.0170261959028721
 51
17.8255646942772792
  0
ARC
  5
19E34
  8
0
 10
4056.1422096780011088
 20
175.574552278042205
 30
0.0
 40
0.0079145236307497
 50
323.1515603953786808
 51
349.554502739617817
  0
ARC
  5
19E35
  8
0
 10
4056.1396724891778831
 20
175.5764951378911007
 30
0.0
 40
0.0111100279204189
 50
301.6264090746806801
 51
322.9804915264755891
  0
ARC
  5
19E36
  8
0
 10
4056.1362414788482056
 20
175.5830461001037861
 30
0.0
 40
0.0184876531248613
 50
249.9182121147021007
 51
270.1782900583842775
  0
ARC
  5
19E37
  8
0
 10
4056.1342828659530824
 20
175.5781128032905087
 30
0.0
 40
0.0131825766178786
 50
223.5512996858952022
 51
250.5511951727212931
  0
ARC
  5
19E38
  8
0
 10
4056.1305658934670646
 20
175.5745700398495046
 30
0.0
 40
0.0080476973503088
 50
186.3111982218132994
 51
223.5040454053753081
  0
ARC
  5
19E39
  8
0
 10
4056.129693164461969
 20
175.57428260013711
 30
0.0
 40
0.0071511778164095
 50
154.2726404410855992
 51
184.7906496159135088
  0
ARC
  5
19E3A
  8
0
 10
4056.1322673902518545
 20
175.572876002212297
 30
0.0
 40
0.0100819210422961
 50
122.6483341477785984
 51
153.4217599213081087
  0
ARC
  5
19E3B
  8
0
 10
4056.1369226773658738
 20
175.5662345901349966
 30
0.0
 40
0.0289334751393148
 50
55.5114033734182826
 51
89.2764619795063368
  0
ARC
  5
19E3C
  8
0
 10
4056.1440550361280657
 20
175.5767244144176118
 30
0.0
 40
0.0162488259048989
 50
20.9328622824732911
 51
55.2962596402885609
  0
ARC
  5
19E3D
  8
0
 10
4056.1477201717621028
 20
175.5784242294172941
 30
0.0
 40
0.0122214570789674
 50
355.9246945276710221
 51
19.6286528306235191
  0
ARC
  5
19E3E
  8
0
 10
4056.1448097551801766
 20
175.5785294117515036
 30
0.0
 40
0.0151323329761961
 50
342.2280093890946091
 51
356.310597704012082
  0
ARC
  5
19E3F
  8
0
 10
4056.1435247022182011
 20
175.5790025718071092
 30
0.0
 40
0.0165005872815783
 50
320.5760510092146092
 51
342.0254179140031852
  0
ARC
  5
19E40
  8
0
 10
4056.1395070500079783
 20
175.5825449840089902
 30
0.0
 40
0.0218544997694999
 50
292.5372131709056021
 51
320.0910927641933768
  0
ARC
  5
19E41
  8
0
 10
4056.1364161176979906
 20
175.5895637987356963
 30
0.0
 40
0.0295224555372933
 50
268.6923593592632074
 51
292.856827735931688
  0
ARC
  5
19E42
  8
0
 10
4056.1336488921160708
 20
175.5835132703371073
 30
0.0
 40
0.0229416127743103
 50
231.1342677831410981
 51
244.3315776295332
  0
ARC
  5
19E43
  8
0
 10
4056.1305040433230715
 20
175.5798591607347134
 30
0.0
 40
0.0181237391633435
 50
204.2872149242857915
 51
231.6264768153669138
  0
ARC
  5
19E44
  8
0
 10
4056.1276681401391215
 20
175.5784665708098089
 30
0.0
 40
0.0149663935905065
 50
176.7145128345750891
 51
203.8932772991227012
  0
ARC
  5
19E45
  8
0
 10
4056.1256878476160637
 20
175.578255474244088
 30
0.0
 40
0.0130054966334058
 50
146.1436081441474926
 51
175.2859131453955968
  0
ARC
  5
19E46
  8
0
 10
4056.1304979943911349
 20
175.5748527490715958
 30
0.0
 40
0.0188962851505126
 50
120.7897639002468964
 51
145.7010630370454862
  0
ARC
  5
19E47
  8
0
 10
4056.136046040598103
 20
175.5649241594915964
 30
0.0
 40
0.0302670921759264
 50
87.6482218531213135
 51
120.1910272397954031
  0
ARC
  5
19E48
  8
0
 10
4056.1361198080039685
 20
175.5890431767163875
 30
0.0
 40
0.0289966013830392
 50
244.6640758317086863
 51
269.2542323531046122
  0
ARC
  5
19E49
  8
0
 10
4056.1363819942421287
 20
175.5831507000972067
 30
0.0
 40
0.0185923488158952
 50
269.7442606393860274
 51
288.9192794619472124
  0
ARC
  5
19E4A
  8
0
 10
4056.1375074801931078
 20
175.5798204549705872
 30
0.0
 40
0.0150771006022448
 50
288.9766678707892993
 51
302.0054758641663284
  0
ARC
  5
19E4B
  8
0
 10
4056.1366170801120461
 20
175.5669316782154965
 30
0.0
 40
0.0171143241914516
 50
57.990326719175151
 51
91.0912301414281131
  0
ARC
  5
19E4C
  8
0
 10
4056.140833709882827
 20
175.5733413514801953
 30
0.0
 40
0.0094457867846938
 50
18.9530933820168492
 51
59.0700974018845315
  0
ARC
  5
19E4D
  8
0
 10
4056.1990511210728982
 20
175.5668054724135061
 30
0.0
 40
0.0172389893607023
 50
89.228389724111608
 51
122.3744172389967986
  0
ARC
  5
19E4E
  8
0
 10
4056.2062234666877885
 20
175.5743075724099924
 30
0.0
 40
0.0068656506586335
 50
350.0170261959028721
 51
17.8255646942772792
  0
ARC
  5
19E4F
  8
0
 10
4056.2052018039889845
 20
175.574552278042205
 30
0.0
 40
0.0079145236307497
 50
323.1515603953786808
 51
349.554502739617817
  0
ARC
  5
19E50
  8
0
 10
4056.2026646151662135
 20
175.5764951378911007
 30
0.0
 40
0.0111100279204189
 50
301.6264090746806801
 51
322.9804915264755891
  0
ARC
  5
19E51
  8
0
 10
4056.1992336048360812
 20
175.5830461001037861
 30
0.0
 40
0.0184876531248613
 50
249.9182121147021007
 51
270.1782900583842775
  0
ARC
  5
19E52
  8
0
 10
4056.1972749919400485
 20
175.5781128032905087
 30
0.0
 40
0.0131825766178786
 50
223.5512996858952022
 51
250.5511951727212931
  0
ARC
  5
19E53
  8
0
 10
4056.1935580194549402
 20
175.5745700398495046
 30
0.0
 40
0.0080476973503088
 50
186.3111982218132994
 51
223.5040454053753081
  0
ARC
  5
19E54
  8
0
 10
4056.1926852904498446
 20
175.57428260013711
 30
0.0
 40
0.0071511778164095
 50
154.2726404410855992
 51
184.7906496159135088
  0
ARC
  5
19E55
  8
0
 10
4056.1952595162388207
 20
175.572876002212297
 30
0.0
 40
0.0100819210422961
 50
122.6483341477785984
 51
153.4217599213081087
  0
ARC
  5
19E56
  8
0
 10
4056.1999148033551137
 20
175.5662345901349966
 30
0.0
 40
0.0289334751393148
 50
55.5114033734182826
 51
89.2764619795063368
  0
ARC
  5
19E57
  8
0
 10
4056.2070471621159413
 20
175.5767244144176118
 30
0.0
 40
0.0162488259048989
 50
20.9328622824732911
 51
55.2962596402885609
  0
ARC
  5
19E58
  8
0
 10
4056.2107122977499785
 20
175.5784242294172941
 30
0.0
 40
0.0122214570789674
 50
355.9246945276710221
 51
19.6286528306235191
  0
ARC
  5
19E59
  8
0
 10
4056.2078018811680522
 20
175.5785294117515036
 30
0.0
 40
0.0151323329761961
 50
342.2280093890946091
 51
356.310597704012082
  0
ARC
  5
19E5A
  8
0
 10
4056.2065168282069862
 20
175.5790025718071092
 30
0.0
 40
0.0165005872815783
 50
320.5760510092146092
 51
342.0254179140031852
  0
ARC
  5
19E5B
  8
0
 10
4056.2024991759958539
 20
175.5825449840089902
 30
0.0
 40
0.0218544997694999
 50
292.5372131709056021
 51
320.0910927641933768
  0
ARC
  5
19E5C
  8
0
 10
4056.1994082436858662
 20
175.5895637987356963
 30
0.0
 40
0.0295224555372933
 50
268.6923593592632074
 51
292.856827735931688
  0
ARC
  5
19E5D
  8
0
 10
4056.1966410181030369
 20
175.5835132703371073
 30
0.0
 40
0.0229416127743103
 50
231.1342677831410981
 51
244.3315776295332
  0
ARC
  5
19E5E
  8
0
 10
4056.1934961693118566
 20
175.5798591607347134
 30
0.0
 40
0.0181237391633435
 50
204.2872149242857915
 51
231.6264768153669138
  0
ARC
  5
19E5F
  8
0
 10
4056.1906602661269972
 20
175.5784665708098089
 30
0.0
 40
0.0149663935905065
 50
176.7145128345750891
 51
203.8932772991227012
  0
ARC
  5
19E60
  8
0
 10
4056.1886799736039393
 20
175.578255474244088
 30
0.0
 40
0.0130054966334058
 50
146.1436081441474926
 51
175.2859131453955968
  0
ARC
  5
19E61
  8
0
 10
4056.19349012037992
 20
175.5748527490715958
 30
0.0
 40
0.0188962851505126
 50
120.7897639002468964
 51
145.7010630370454862
  0
ARC
  5
19E62
  8
0
 10
4056.1990381665859786
 20
175.5649241594915964
 30
0.0
 40
0.0302670921759264
 50
87.6482218531213135
 51
120.1910272397954031
  0
ARC
  5
19E63
  8
0
 10
4056.1991119339932084
 20
175.5890431767163875
 30
0.0
 40
0.0289966013830392
 50
244.6640758317086863
 51
269.2542323531046122
  0
ARC
  5
19E64
  8
0
 10
4056.1993741202309138
 20
175.5831507000972067
 30
0.0
 40
0.0185923488158952
 50
269.7442606393860274
 51
288.9192794619472124
  0
ARC
  5
19E65
  8
0
 10
4056.2004996061809834
 20
175.5798204549705872
 30
0.0
 40
0.0150771006022448
 50
288.9766678707892993
 51
302.0054758641663284
  0
ARC
  5
19E66
  8
0
 10
4056.1996092060999217
 20
175.5669316782154965
 30
0.0
 40
0.0171143241914516
 50
57.990326719175151
 51
91.0912301414281131
  0
ARC
  5
19E67
  8
0
 10
4056.2038258358697931
 20
175.5733413514801953
 30
0.0
 40
0.0094457867846938
 50
18.9530933820168492
 51
59.0700974018845315
  0
ARC
  5
19E68
  8
0
 10
4056.2621413602619214
 20
175.5668032176280065
 30
0.0
 40
0.0172389893607023
 50
89.228389724111608
 51
122.3744172389967986
  0
ARC
  5
19E69
  8
0
 10
4056.2693137058759021
 20
175.5743053176244928
 30
0.0
 40
0.0068656506586335
 50
350.0170261959028721
 51
17.8255646942772792
  0
ARC
  5
19E6A
  8
0
 10
4056.2682920431780076
 20
175.5745500232567053
 30
0.0
 40
0.0079145236307497
 50
323.1515603953786808
 51
349.554502739617817
  0
ARC
  5
19E6B
  8
0
 10
4056.2657548543529629
 20
175.5764928831054874
 30
0.0
 40
0.0111100279204189
 50
301.6264090746806801
 51
322.9804915264755891
  0
ARC
  5
19E6C
  8
0
 10
4056.2623238440241948
 20
175.5830438453182012
 30
0.0
 40
0.0184876531248613
 50
249.9182121147021007
 51
270.1782900583842775
  0
ARC
  5
19E6D
  8
0
 10
4056.2603652311281621
 20
175.5781105485048954
 30
0.0
 40
0.0131825766178786
 50
223.5512996858952022
 51
250.5511951727212931
  0
ARC
  5
19E6E
  8
0
 10
4056.2566482586430539
 20
175.5745677850638913
 30
0.0
 40
0.0080476973503088
 50
186.3111982218132994
 51
223.5040454053753081
  0
ARC
  5
19E6F
  8
0
 10
4056.2557755296379582
 20
175.5742803453514966
 30
0.0
 40
0.0071511778164095
 50
154.2726404410855992
 51
184.7906496159135088
  0
ARC
  5
19E70
  8
0
 10
4056.2583497554260248
 20
175.5728737474267973
 30
0.0
 40
0.0100819210422961
 50
122.6483341477785984
 51
153.4217599213081087
  0
ARC
  5
19E71
  8
0
 10
4056.2630050425418631
 20
175.5662323353494116
 30
0.0
 40
0.0289334751393148
 50
55.5114033734182826
 51
89.2764619795063368
  0
ARC
  5
19E72
  8
0
 10
4056.2701374013049644
 20
175.5767221596319985
 30
0.0
 40
0.0162488259048989
 50
20.9328622824732911
 51
55.2962596402885609
  0
ARC
  5
19E73
  8
0
 10
4056.2738025369380921
 20
175.5784219746317092
 30
0.0
 40
0.0122214570789674
 50
355.9246945276710221
 51
19.6286528306235191
  0
ARC
  5
19E74
  8
0
 10
4056.2708921203561658
 20
175.578527156966004
 30
0.0
 40
0.0151323329761961
 50
342.2280093890946091
 51
356.310597704012082
  0
ARC
  5
19E75
  8
0
 10
4056.2696070673941904
 20
175.5790003170214959
 30
0.0
 40
0.0165005872815783
 50
320.5760510092146092
 51
342.0254179140031852
  0
ARC
  5
19E76
  8
0
 10
4056.2655894151839675
 20
175.5825427292234053
 30
0.0
 40
0.0218544997694999
 50
292.5372131709056021
 51
320.0910927641933768
  0
ARC
  5
19E77
  8
0
 10
4056.2624984828730703
 20
175.5895615439501967
 30
0.0
 40
0.0295224555372933
 50
268.6923593592632074
 51
292.856827735931688
  0
ARC
  5
19E78
  8
0
 10
4056.2597312572911505
 20
175.583511015551494
 30
0.0
 40
0.0229416127743103
 50
231.1342677831410981
 51
244.3315776295332
  0
ARC
  5
19E79
  8
0
 10
4056.2565864084999703
 20
175.5798569059491001
 30
0.0
 40
0.0181237391633435
 50
204.2872149242857915
 51
231.6264768153669138
  0
ARC
  5
19E7A
  8
0
 10
4056.2537505053151108
 20
175.5784643160243093
 30
0.0
 40
0.0149663935905065
 50
176.7145128345750891
 51
203.8932772991227012
  0
ARC
  5
19E7B
  8
0
 10
4056.2517702127920529
 20
175.5782532194585031
 30
0.0
 40
0.0130054966334058
 50
146.1436081441474926
 51
175.2859131453955968
  0
ARC
  5
19E7C
  8
0
 10
4056.2565803595680336
 20
175.5748504942860109
 30
0.0
 40
0.0188962851505126
 50
120.7897639002468964
 51
145.7010630370454862
  0
ARC
  5
19E7D
  8
0
 10
4056.2621284057750017
 20
175.5649219047060967
 30
0.0
 40
0.0302670921759264
 50
87.6482218531213135
 51
120.1910272397954031
  0
ARC
  5
19E7E
  8
0
 10
4056.2622021731808672
 20
175.5890409219308026
 30
0.0
 40
0.0289966013830392
 50
244.6640758317086863
 51
269.2542323531046122
  0
ARC
  5
19E7F
  8
0
 10
4056.262464359418118
 20
175.5831484453117071
 30
0.0
 40
0.0185923488158952
 50
269.7442606393860274
 51
288.9192794619472124
  0
ARC
  5
19E80
  8
0
 10
4056.2635898453700065
 20
175.5798182001850876
 30
0.0
 40
0.0150771006022448
 50
288.9766678707892993
 51
302.0054758641663284
  0
ARC
  5
19E81
  8
0
 10
4056.2626994452880353
 20
175.5669294234299969
 30
0.0
 40
0.0171143241914516
 50
57.990326719175151
 51
91.0912301414281131
  0
ARC
  5
19E82
  8
0
 10
4056.2669160750588162
 20
175.5733390966946104
 30
0.0
 40
0.0094457867846938
 50
18.9530933820168492
 51
59.0700974018845315
  0
ARC
  5
19E83
  8
0
 10
4056.3250353730318238
 20
175.5668054724135061
 30
0.0
 40
0.0172389893607023
 50
89.228389724111608
 51
122.3744172389967986
  0
ARC
  5
19E84
  8
0
 10
4056.3322077186458046
 20
175.5743075724099924
 30
0.0
 40
0.0068656506586335
 50
350.0170261959028721
 51
17.8255646942772792
  0
ARC
  5
19E85
  8
0
 10
4056.3311860559479101
 20
175.574552278042205
 30
0.0
 40
0.0079145236307497
 50
323.1515603953786808
 51
349.554502739617817
  0
ARC
  5
19E86
  8
0
 10
4056.3286488671251391
 20
175.5764951378911007
 30
0.0
 40
0.0111100279204189
 50
301.6264090746806801
 51
322.9804915264755891
  0
ARC
  5
19E87
  8
0
 10
4056.3252178567950068
 20
175.5830461001037861
 30
0.0
 40
0.0184876531248613
 50
249.9182121147021007
 51
270.1782900583842775
  0
ARC
  5
19E88
  8
0
 10
4056.3232592438998836
 20
175.5781128032905087
 30
0.0
 40
0.0131825766178786
 50
223.5512996858952022
 51
250.5511951727212931
  0
ARC
  5
19E89
  8
0
 10
4056.3195422714138658
 20
175.5745700398495046
 30
0.0
 40
0.0080476973503088
 50
186.3111982218132994
 51
223.5040454053753081
  0
ARC
  5
19E8A
  8
0
 10
4056.318669542409225
 20
175.57428260013711
 30
0.0
 40
0.0071511778164095
 50
154.2726404410855992
 51
184.7906496159135088
  0
ARC
  5
19E8B
  8
0
 10
4056.3212437681991105
 20
175.572876002212297
 30
0.0
 40
0.0100819210422961
 50
122.6483341477785984
 51
153.4217599213081087
  0
ARC
  5
19E8C
  8
0
 10
4056.3258990553131298
 20
175.5662345901349966
 30
0.0
 40
0.0289334751393148
 50
55.5114033734182826
 51
89.2764619795063368
  0
ARC
  5
19E8D
  8
0
 10
4056.3330314140757764
 20
175.5767244144176118
 30
0.0
 40
0.0162488259048989
 50
20.9328622824732911
 51
55.2962596402885609
  0
ARC
  5
19E8E
  8
0
 10
4056.3366965497089041
 20
175.5784242294172941
 30
0.0
 40
0.0122214570789674
 50
355.9246945276710221
 51
19.6286528306235191
  0
ARC
  5
19E8F
  8
0
 10
4056.3337861331269778
 20
175.5785294117515036
 30
0.0
 40
0.0151323329761961
 50
342.2280093890946091
 51
356.310597704012082
  0
ARC
  5
19E90
  8
0
 10
4056.3325010801659118
 20
175.5790025718071092
 30
0.0
 40
0.0165005872815783
 50
320.5760510092146092
 51
342.0254179140031852
  0
ARC
  5
19E91
  8
0
 10
4056.3284834279547795
 20
175.5825449840089902
 30
0.0
 40
0.0218544997694999
 50
292.5372131709056021
 51
320.0910927641933768
  0
ARC
  5
19E92
  8
0
 10
4056.3253924956447918
 20
175.5895637987356963
 30
0.0
 40
0.0295224555372933
 50
268.6923593592632074
 51
292.856827735931688
  0
ARC
  5
19E93
  8
0
 10
4056.322625270062872
 20
175.5835132703371073
 30
0.0
 40
0.0229416127743103
 50
231.1342677831410981
 51
244.3315776295332
  0
ARC
  5
19E94
  8
0
 10
4056.3194804212707822
 20
175.5798591607347134
 30
0.0
 40
0.0181237391633435
 50
204.2872149242857915
 51
231.6264768153669138
  0
ARC
  5
19E95
  8
0
 10
4056.3166445180859228
 20
175.5784665708098089
 30
0.0
 40
0.0149663935905065
 50
176.7145128345750891
 51
203.8932772991227012
  0
ARC
  5
19E96
  8
0
 10
4056.3146642255619554
 20
175.578255474244088
 30
0.0
 40
0.0130054966334058
 50
146.1436081441474926
 51
175.2859131453955968
  0
ARC
  5
19E97
  8
0
 10
4056.3194743723388456
 20
175.5748527490715958
 30
0.0
 40
0.0188962851505126
 50
120.7897639002468964
 51
145.7010630370454862
  0
ARC
  5
19E98
  8
0
 10
4056.3250224185458137
 20
175.5649241594915964
 30
0.0
 40
0.0302670921759264
 50
87.6482218531213135
 51
120.1910272397954031
  0
ARC
  5
19E99
  8
0
 10
4056.325096185952134
 20
175.5890431767163022
 30
0.0
 40
0.0289966013830392
 50
244.6640758317086863
 51
269.2542323531046122
  0
ARC
  5
19E9A
  8
0
 10
4056.3253583721898394
 20
175.5831507000972067
 30
0.0
 40
0.0185923488158952
 50
269.7442606393860274
 51
288.9192794619472124
  0
ARC
  5
19E9B
  8
0
 10
4056.3264838581408185
 20
175.5798204549705872
 30
0.0
 40
0.0150771006022448
 50
288.9766678707892993
 51
302.0054758641663284
  0
ARC
  5
19E9C
  8
0
 10
4056.3255934580588473
 20
175.5669316782154965
 30
0.0
 40
0.0171143241914516
 50
57.990326719175151
 51
91.0912301414281131
  0
ARC
  5
19E9D
  8
0
 10
4056.3298100878300829
 20
175.5733413514801953
 30
0.0
 40
0.0094457867846938
 50
18.9530933820168492
 51
59.0700974018845315
  0
ARC
  5
19E9E
  8
0
 10
4056.3880274990269754
 20
175.5668054724135061
 30
0.0
 40
0.0172389893607023
 50
89.228389724111608
 51
122.3744172389967986
  0
ARC
  5
19E9F
  8
0
 10
4056.3951998446409561
 20
175.5743075724099924
 30
0.0
 40
0.0068656506586335
 50
350.0170261959028721
 51
17.8255646942772792
  0
ARC
  5
19EA0
  8
0
 10
4056.3941781819430616
 20
175.574552278042205
 30
0.0
 40
0.0079145236307497
 50
323.1515603953786808
 51
349.554502739617817
  0
ARC
  5
19EA1
  8
0
 10
4056.3916409931180169
 20
175.5764951378911007
 30
0.0
 40
0.0111100279204189
 50
301.6264090746806801
 51
322.9804915264755891
  0
ARC
  5
19EA2
  8
0
 10
4056.3882099827887942
 20
175.5830461001037861
 30
0.0
 40
0.0184876531248613
 50
249.9182121147021007
 51
270.1782900583842775
  0
ARC
  5
19EA3
  8
0
 10
4056.3862513698932162
 20
175.5781128032905087
 30
0.0
 40
0.0131825766178786
 50
223.5512996858952022
 51
250.5511951727212931
  0
ARC
  5
19EA4
  8
0
 10
4056.3825343974090174
 20
175.5745700398495046
 30
0.0
 40
0.0080476973503088
 50
186.3111982218132994
 51
223.5040454053753081
  0
ARC
  5
19EA5
  8
0
 10
4056.3816616684021028
 20
175.57428260013711
 30
0.0
 40
0.0071511778164095
 50
154.2726404410855992
 51
184.7906496159135088
  0
ARC
  5
19EA6
  8
0
 10
4056.3842358941919883
 20
175.572876002212297
 30
0.0
 40
0.0100819210422961
 50
122.6483341477785984
 51
153.4217599213081087
  0
ARC
  5
19EA7
  8
0
 10
4056.3888911813069171
 20
175.5662345901349966
 30
0.0
 40
0.0289334751393148
 50
55.5114033734182826
 51
89.2764619795063368
  0
ARC
  5
19EA8
  8
0
 10
4056.396023540069109
 20
175.5767244144176118
 30
0.0
 40
0.0162488259048989
 50
20.9328622824732911
 51
55.2962596402885609
  0
ARC
  5
19EA9
  8
0
 10
4056.3996886757017819
 20
175.5784242294172941
 30
0.0
 40
0.0122214570789674
 50
355.9246945276710221
 51
19.6286528306235191
  0
ARC
  5
19EAA
  8
0
 10
4056.3967782591221294
 20
175.5785294117515036
 30
0.0
 40
0.0151323329761961
 50
342.2280093890946091
 51
356.310597704012082
  0
ARC
  5
19EAB
  8
0
 10
4056.3954932061587897
 20
175.5790025718071092
 30
0.0
 40
0.0165005872815783
 50
320.5760510092146092
 51
342.0254179140031852
  0
ARC
  5
19EAC
  8
0
 10
4056.3914755539490216
 20
175.5825449840089902
 30
0.0
 40
0.0218544997694999
 50
292.5372131709056021
 51
320.0910927641933768
  0
ARC
  5
19EAD
  8
0
 10
4056.3883846216390339
 20
175.5895637987356963
 30
0.0
 40
0.0295224555372933
 50
268.6923593592632074
 51
292.856827735931688
  0
ARC
  5
19EAE
  8
0
 10
4056.3856173960562046
 20
175.5835132703371073
 30
0.0
 40
0.0229416127743103
 50
231.1342677831410981
 51
244.3315776295332
  0
ARC
  5
19EAF
  8
0
 10
4056.3824725472650243
 20
175.5798591607347134
 30
0.0
 40
0.0181237391633435
 50
204.2872149242857915
 51
231.6264768153669138
  0
ARC
  5
19EB0
  8
0
 10
4056.3796366440801648
 20
175.5784665708098089
 30
0.0
 40
0.0149663935905065
 50
176.7145128345750891
 51
203.8932772991227012
  0
ARC
  5
19EB1
  8
0
 10
4056.377656351557107
 20
175.578255474244088
 30
0.0
 40
0.0130054966334058
 50
146.1436081441474926
 51
175.2859131453955968
  0
ARC
  5
19EB2
  8
0
 10
4056.3824664983330877
 20
175.5748527490715958
 30
0.0
 40
0.0188962851505126
 50
120.7897639002468964
 51
145.7010630370454862
  0
ARC
  5
19EB3
  8
0
 10
4056.3880145445391463
 20
175.5649241594915964
 30
0.0
 40
0.0302670921759264
 50
87.6482218531213135
 51
120.1910272397954031
  0
ARC
  5
19EB4
  8
0
 10
4056.3880883119459213
 20
175.5890431767163022
 30
0.0
 40
0.0289966013830392
 50
244.6640758317086863
 51
269.2542323531046122
  0
ARC
  5
19EB5
  8
0
 10
4056.3883504981840815
 20
175.5831507000972067
 30
0.0
 40
0.0185923488158952
 50
269.7442606393860274
 51
288.9192794619472124
  0
ARC
  5
19EB6
  8
0
 10
4056.3894759841350606
 20
175.5798204549705872
 30
0.0
 40
0.0150771006022448
 50
288.9766678707892993
 51
302.0054758641663284
  0
ARC
  5
19EB7
  8
0
 10
4056.3885855840539989
 20
175.5669316782154965
 30
0.0
 40
0.0171143241914516
 50
57.990326719175151
 51
91.0912301414281131
  0
ARC
  5
19EB8
  8
0
 10
4056.3928022138238703
 20
175.5733413514801953
 30
0.0
 40
0.0094457867846938
 50
18.9530933820168492
 51
59.0700974018845315
  0
ARC
  5
19EB9
  8
0
 10
4056.4510196250139415
 20
175.5668054724135061
 30
0.0
 40
0.0172389893607023
 50
89.228389724111608
 51
122.3744172389967986
  0
ARC
  5
19EBA
  8
0
 10
4056.4581919706288318
 20
175.5743075724099924
 30
0.0
 40
0.0068656506586335
 50
350.0170261959028721
 51
17.8255646942772792
  0
ARC
  5
19EBB
  8
0
 10
4056.4571703079309373
 20
175.574552278042205
 30
0.0
 40
0.0079145236307497
 50
323.1515603953786808
 51
349.554502739617817
  0
ARC
  5
19EBC
  8
0
 10
4056.4546331191058925
 20
175.5764951378911007
 30
0.0
 40
0.0111100279204189
 50
301.6264090746806801
 51
322.9804915264755891
  0
ARC
  5
19EBD
  8
0
 10
4056.4512021087771245
 20
175.5830461001037861
 30
0.0
 40
0.0184876531248613
 50
249.9182121147021007
 51
270.1782900583842775
  0
ARC
  5
19EBE
  8
0
 10
4056.4492434958810918
 20
175.5781128032905087
 30
0.0
 40
0.0131825766178786
 50
223.5512996858952022
 51
250.5511951727212931
  0
ARC
  5
19EBF
  8
0
 10
4056.4455265233959835
 20
175.5745700398495046
 30
0.0
 40
0.0080476973503088
 50
186.3111982218132994
 51
223.5040454053753081
  0
ARC
  5
19EC0
  8
0
 10
4056.4446537943908879
 20
175.57428260013711
 30
0.0
 40
0.0071511778164095
 50
154.2726404410855992
 51
184.7906496159135088
  0
ARC
  5
19EC1
  8
0
 10
4056.447228020179864
 20
175.572876002212297
 30
0.0
 40
0.0100819210422961
 50
122.6483341477785984
 51
153.4217599213081087
  0
ARC
  5
19EC2
  8
0
 10
4056.4518833072947928
 20
175.5662345901349966
 30
0.0
 40
0.0289334751393148
 50
55.5114033734182826
 51
89.2764619795063368
  0
ARC
  5
19EC3
  8
0
 10
4056.4590156660578941
 20
175.5767244144176118
 30
0.0
 40
0.0162488259048989
 50
20.9328622824732911
 51
55.2962596402885609
  0
ARC
  5
19EC4
  8
0
 10
4056.4626808016919313
 20
175.5784242294172941
 30
0.0
 40
0.0122214570789674
 50
355.9246945276710221
 51
19.6286528306235191
  0
ARC
  5
19EC5
  8
0
 10
4056.4597703851090955
 20
175.5785294117515036
 30
0.0
 40
0.0151323329761961
 50
342.2280093890946091
 51
356.310597704012082
  0
ARC
  5
19EC6
  8
0
 10
4056.4584853321471201
 20
175.5790025718071092
 30
0.0
 40
0.0165005872815783
 50
320.5760510092146092
 51
342.0254179140031852
  0
ARC
  5
19EC7
  8
0
 10
4056.4544676799368972
 20
175.5825449840089902
 30
0.0
 40
0.0218544997694999
 50
292.5372131709056021
 51
320.0910927641933768
  0
ARC
  5
19EC8
  8
0
 10
4056.451376747626
 20
175.5895637987356963
 30
0.0
 40
0.0295224555372933
 50
268.6923593592632074
 51
292.856827735931688
  0
ARC
  5
19EC9
  8
0
 10
4056.4486095220440802
 20
175.5835132703371073
 30
0.0
 40
0.0229416127743103
 50
231.1342677831410981
 51
244.3315776295332
  0
ARC
  5
19ECA
  8
0
 10
4056.4454646732519905
 20
175.5798591607347134
 30
0.0
 40
0.0181237391633435
 50
204.2872149242857915
 51
231.6264768153669138
  0
ARC
  5
19ECB
  8
0
 10
4056.4426287700680405
 20
175.5784665708098089
 30
0.0
 40
0.0149663935905065
 50
176.7145128345750891
 51
203.8932772991227012
  0
ARC
  5
19ECC
  8
0
 10
4056.4406484775449826
 20
175.578255474244088
 30
0.0
 40
0.0130054966334058
 50
146.1436081441474926
 51
175.2859131453955968
  0
ARC
  5
19ECD
  8
0
 10
4056.4454586243200538
 20
175.5748527490715958
 30
0.0
 40
0.0188962851505126
 50
120.7897639002468964
 51
145.7010630370454862
  0
ARC
  5
19ECE
  8
0
 10
4056.4510066705270219
 20
175.5649241594915964
 30
0.0
 40
0.0302670921759264
 50
87.6482218531213135
 51
120.1910272397954031
  0
ARC
  5
19ECF
  8
0
 10
4056.4510804379337969
 20
175.5890431767163875
 30
0.0
 40
0.0289966013830392
 50
244.6640758317086863
 51
269.2542323531046122
  0
ARC
  5
19ED0
  8
0
 10
4056.4513426241710476
 20
175.5831507000972067
 30
0.0
 40
0.0185923488158952
 50
269.7442606393860274
 51
288.9192794619472124
  0
ARC
  5
19ED1
  8
0
 10
4056.4524681101220267
 20
175.5798204549705872
 30
0.0
 40
0.0150771006022448
 50
288.9766678707892993
 51
302.0054758641663284
  0
ARC
  5
19ED2
  8
0
 10
4056.451577710040965
 20
175.5669316782154965
 30
0.0
 40
0.0171143241914516
 50
57.990326719175151
 51
91.0912301414281131
  0
ARC
  5
19ED3
  8
0
 10
4056.4557943398122006
 20
175.5733413514801953
 30
0.0
 40
0.0094457867846938
 50
18.9530933820168492
 51
59.0700974018845315
  0
ARC
  5
19ED4
  8
0
 10
4056.5141098642120596
 20
175.5668032176280065
 30
0.0
 40
0.0172389893607023
 50
89.228389724111608
 51
122.3744172389967986
  0
ARC
  5
19ED5
  8
0
 10
4056.5212822098269498
 20
175.5743053176244928
 30
0.0
 40
0.0068656506586335
 50
350.0170261959028721
 51
17.8255646942772792
  0
ARC
  5
19ED6
  8
0
 10
4056.5202605471290553
 20
175.5745500232567053
 30
0.0
 40
0.0079145236307497
 50
323.1515603953786808
 51
349.554502739617817
  0
ARC
  5
19ED7
  8
0
 10
4056.5177233583058296
 20
175.5764928831054874
 30
0.0
 40
0.0111100279204189
 50
301.6264090746806801
 51
322.9804915264755891
  0
ARC
  5
19ED8
  8
0
 10
4056.5142923479761521
 20
175.5830438453182012
 30
0.0
 40
0.0184876531248613
 50
249.9182121147021007
 51
270.1782900583842775
  0
ARC
  5
19ED9
  8
0
 10
4056.5123337350801194
 20
175.5781105485048954
 30
0.0
 40
0.0131825766178786
 50
223.5512996858952022
 51
250.5511951727212931
  0
ARC
  5
19EDA
  8
0
 10
4056.5086167625941016
 20
175.5745677850638913
 30
0.0
 40
0.0080476973503088
 50
186.3111982218132994
 51
223.5040454053753081
  0
ARC
  5
19EDB
  8
0
 10
4056.5077440335899155
 20
175.5742803453514966
 30
0.0
 40
0.0071511778164095
 50
154.2726404410855992
 51
184.7906496159135088
  0
ARC
  5
19EDC
  8
0
 10
4056.5103182593788915
 20
175.5728737474267973
 30
0.0
 40
0.0100819210422961
 50
122.6483341477785984
 51
153.4217599213081087
  0
ARC
  5
19EDD
  8
0
 10
4056.5149735464938203
 20
175.5662323353494116
 30
0.0
 40
0.0289334751393148
 50
55.5114033734182826
 51
89.2764619795063368
  0
ARC
  5
19EDE
  8
0
 10
4056.5221059052560122
 20
175.5767221596319985
 30
0.0
 40
0.0162488259048989
 50
20.9328622824732911
 51
55.2962596402885609
  0
ARC
  5
19EDF
  8
0
 10
4056.5257710408891398
 20
175.5784219746317092
 30
0.0
 40
0.0122214570789674
 50
355.9246945276710221
 51
19.6286528306235191
  0
ARC
  5
19EE0
  8
0
 10
4056.5228606243081231
 20
175.578527156966004
 30
0.0
 40
0.0151323329761961
 50
342.2280093890946091
 51
356.310597704012082
  0
ARC
  5
19EE1
  8
0
 10
4056.5215755713461476
 20
175.5790003170214959
 30
0.0
 40
0.0165005872815783
 50
320.5760510092146092
 51
342.0254179140031852
  0
ARC
  5
19EE2
  8
0
 10
4056.5175579191350153
 20
175.5825427292234053
 30
0.0
 40
0.0218544997694999
 50
292.5372131709056021
 51
320.0910927641933768
  0
ARC
  5
19EE3
  8
0
 10
4056.5144669868250276
 20
175.5895615439501967
 30
0.0
 40
0.0295224555372933
 50
268.6923593592632074
 51
292.856827735931688
  0
ARC
  5
19EE4
  8
0
 10
4056.5116997612440173
 20
175.583511015551494
 30
0.0
 40
0.0229416127743103
 50
231.1342677831410981
 51
244.3315776295332
  0
ARC
  5
19EE5
  8
0
 10
4056.508554912451018
 20
175.5798569059491001
 30
0.0
 40
0.0181237391633435
 50
204.2872149242857915
 51
231.6264768153669138
  0
ARC
  5
19EE6
  8
0
 10
4056.5057190092661585
 20
175.5784643160243093
 30
0.0
 40
0.0149663935905065
 50
176.7145128345750891
 51
203.8932772991227012
  0
ARC
  5
19EE7
  8
0
 10
4056.5037387167431007
 20
175.5782532194585031
 30
0.0
 40
0.0130054966334058
 50
146.1436081441474926
 51
175.2859131453955968
  0
ARC
  5
19EE8
  8
0
 10
4056.5085488635190814
 20
175.5748504942860109
 30
0.0
 40
0.0188962851505126
 50
120.7897639002468964
 51
145.7010630370454862
  0
ARC
  5
19EE9
  8
0
 10
4056.51409690972514
 20
175.5649219047060967
 30
0.0
 40
0.0302670921759264
 50
87.6482218531213135
 51
120.1910272397954031
  0
ARC
  5
19EEA
  8
0
 10
4056.5141706771310055
 20
175.5890409219308026
 30
0.0
 40
0.0289966013830392
 50
244.6640758317086863
 51
269.2542323531046122
  0
ARC
  5
19EEB
  8
0
 10
4056.5144328633691657
 20
175.5831484453117071
 30
0.0
 40
0.0185923488158952
 50
269.7442606393860274
 51
288.9192794619472124
  0
ARC
  5
19EEC
  8
0
 10
4056.5155583493201448
 20
175.5798182001850876
 30
0.0
 40
0.0150771006022448
 50
288.9766678707892993
 51
302.0054758641663284
  0
ARC
  5
19EED
  8
0
 10
4056.5146679492390831
 20
175.5669294234299969
 30
0.0
 40
0.0171143241914516
 50
57.990326719175151
 51
91.0912301414281131
  0
ARC
  5
19EEE
  8
0
 10
4056.518884579009864
 20
175.5733390966946104
 30
0.0
 40
0.0094457867846938
 50
18.9530933820168492
 51
59.0700974018845315
  0
ARC
  5
19EEF
  8
0
 10
4056.5770038769828716
 20
175.5668054724135061
 30
0.0
 40
0.0172389893607023
 50
89.228389724111608
 51
122.3744172389967986
  0
ARC
  5
19EF0
  8
0
 10
4056.584176222599126
 20
175.5743075724099924
 30
0.0
 40
0.0068656506586335
 50
350.0170261959028721
 51
17.8255646942772792
  0
ARC
  5
19EF1
  8
0
 10
4056.5831545598998673
 20
175.574552278042205
 30
0.0
 40
0.0079145236307497
 50
323.1515603953786808
 51
349.554502739617817
  0
ARC
  5
19EF2
  8
0
 10
4056.5806173710761868
 20
175.5764951378911007
 30
0.0
 40
0.0111100279204189
 50
301.6264090746806801
 51
322.9804915264755891
  0
ARC
  5
19EF3
  8
0
 10
4056.5771863607469641
 20
175.5830461001037861
 30
0.0
 40
0.0184876531248613
 50
249.9182121147021007
 51
270.1782900583842775
  0
ARC
  5
19EF4
  8
0
 10
4056.5752277478509313
 20
175.5781128032905087
 30
0.0
 40
0.0131825766178786
 50
223.5512996858952022
 51
250.5511951727212931
  0
ARC
  5
19EF5
  8
0
 10
4056.5715107753649136
 20
175.5745700398495046
 30
0.0
 40
0.0080476973503088
 50
186.3111982218132994
 51
223.5040454053753081
  0
ARC
  5
19EF6
  8
0
 10
4056.570638046359818
 20
175.57428260013711
 30
0.0
 40
0.0071511778164095
 50
154.2726404410855992
 51
184.7906496159135088
  0
ARC
  5
19EF7
  8
0
 10
4056.5732122721501582
 20
175.572876002212297
 30
0.0
 40
0.0100819210422961
 50
122.6483341477785984
 51
153.4217599213081087
  0
ARC
  5
19EF8
  8
0
 10
4056.577867559265087
 20
175.5662345901349966
 30
0.0
 40
0.0289334751393148
 50
55.5114033734182826
 51
89.2764619795063368
  0
ARC
  5
19EF9
  8
0
 10
4056.5849999180259147
 20
175.5767244144176118
 30
0.0
 40
0.0162488259048989
 50
20.9328622824732911
 51
55.2962596402885609
  0
ARC
  5
19EFA
  8
0
 10
4056.5886650536599518
 20
175.5784242294172941
 30
0.0
 40
0.0122214570789674
 50
355.9246945276710221
 51
19.6286528306235191
  0
ARC
  5
19EFB
  8
0
 10
4056.585754637078935
 20
175.5785294117515036
 30
0.0
 40
0.0151323329761961
 50
342.2280093890946091
 51
356.310597704012082
  0
ARC
  5
19EFC
  8
0
 10
4056.5844695841160501
 20
175.5790025718071092
 30
0.0
 40
0.0165005872815783
 50
320.5760510092146092
 51
342.0254179140031852
  0
ARC
  5
19EFD
  8
0
 10
4056.5804519319058272
 20
175.5825449840089902
 30
0.0
 40
0.0218544997694999
 50
292.5372131709056021
 51
320.0910927641933768
  0
ARC
  5
19EFE
  8
0
 10
4056.5773609995958395
 20
175.5895637987356963
 30
0.0
 40
0.0295224555372933
 50
268.6923593592632074
 51
292.856827735931688
  0
ARC
  5
19EFF
  8
0
 10
4056.5745937740139198
 20
175.5835132703371073
 30
0.0
 40
0.0229416127743103
 50
231.1342677831410981
 51
244.3315776295332
  0
ARC
  5
19F00
  8
0
 10
4056.57144892522183
 20
175.5798591607347134
 30
0.0
 40
0.0181237391633435
 50
204.2872149242857915
 51
231.6264768153669138
  0
ARC
  5
19F01
  8
0
 10
4056.5686130220369705
 20
175.5784665708098089
 30
0.0
 40
0.0149663935905065
 50
176.7145128345750891
 51
203.8932772991227012
  0
ARC
  5
19F02
  8
0
 10
4056.5666327295148221
 20
175.578255474244088
 30
0.0
 40
0.0130054966334058
 50
146.1436081441474926
 51
175.2859131453955968
  0
ARC
  5
19F03
  8
0
 10
4056.5714428762898933
 20
175.5748527490715958
 30
0.0
 40
0.0188962851505126
 50
120.7897639002468964
 51
145.7010630370454862
  0
ARC
  5
19F04
  8
0
 10
4056.576990922495952
 20
175.5649241594915964
 30
0.0
 40
0.0302670921759264
 50
87.6482218531213135
 51
120.1910272397954031
  0
ARC
  5
19F05
  8
0
 10
4056.5770646899031817
 20
175.5890431767163022
 30
0.0
 40
0.0289966013830392
 50
244.6640758317086863
 51
269.2542323531046122
  0
ARC
  5
19F06
  8
0
 10
4056.5773268761408872
 20
175.5831507000972067
 30
0.0
 40
0.0185923488158952
 50
269.7442606393860274
 51
288.9192794619472124
  0
ARC
  5
19F07
  8
0
 10
4056.5784523620909567
 20
175.5798204549705872
 30
0.0
 40
0.0150771006022448
 50
288.9766678707892993
 51
302.0054758641663284
  0
ARC
  5
19F08
  8
0
 10
4056.5775619620108046
 20
175.5669316782154965
 30
0.0
 40
0.0171143241914516
 50
57.990326719175151
 51
91.0912301414281131
  0
ARC
  5
19F09
  8
0
 10
4056.5817785917811307
 20
175.5733413514801953
 30
0.0
 40
0.0094457867846938
 50
18.9530933820168492
 51
59.0700974018845315
  0
ARC
  5
19F0A
  8
0
 10
4056.6399960029771137
 20
175.5668054724135061
 30
0.0
 40
0.0172389893607023
 50
89.228389724111608
 51
122.3744172389967986
  0
ARC
  5
19F0B
  8
0
 10
4056.6471683485920039
 20
175.5743075724099924
 30
0.0
 40
0.0068656506586335
 50
350.0170261959028721
 51
17.8255646942772792
  0
ARC
  5
19F0C
  8
0
 10
4056.6461466858941094
 20
175.574552278042205
 30
0.0
 40
0.0079145236307497
 50
323.1515603953786808
 51
349.554502739617817
  0
ARC
  5
19F0D
  8
0
 10
4056.6436094970690647
 20
175.5764951378911007
 30
0.0
 40
0.0111100279204189
 50
301.6264090746806801
 51
322.9804915264755891
  0
ARC
  5
19F0E
  8
0
 10
4056.6401784867398419
 20
175.5830461001037861
 30
0.0
 40
0.0184876531248613
 50
249.9182121147021007
 51
270.1782900583842775
  0
ARC
  5
19F0F
  8
0
 10
4056.6382198738438092
 20
175.5781128032905087
 30
0.0
 40
0.0131825766178786
 50
223.5512996858952022
 51
250.5511951727212931
  0
ARC
  5
19F10
  8
0
 10
4056.6345029013591557
 20
175.5745700398495046
 30
0.0
 40
0.0080476973503088
 50
186.3111982218132994
 51
223.5040454053753081
  0
ARC
  5
19F11
  8
0
 10
4056.6336301723540601
 20
175.57428260013711
 30
0.0
 40
0.0071511778164095
 50
154.2726404410855992
 51
184.7906496159135088
  0
ARC
  5
19F12
  8
0
 10
4056.6362043981430361
 20
175.572876002212297
 30
0.0
 40
0.0100819210422961
 50
122.6483341477785984
 51
153.4217599213081087
  0
ARC
  5
19F13
  8
0
 10
4056.6408596852579649
 20
175.5662345901349966
 30
0.0
 40
0.0289334751393148
 50
55.5114033734182826
 51
89.2764619795063368
  0
ARC
  5
19F14
  8
0
 10
4056.6479920440210662
 20
175.5767244144176118
 30
0.0
 40
0.0162488259048989
 50
20.9328622824732911
 51
55.2962596402885609
  0
ARC
  5
19F15
  8
0
 10
4056.6516571796541939
 20
175.5784242294172941
 30
0.0
 40
0.0122214570789674
 50
355.9246945276710221
 51
19.6286528306235191
  0
ARC
  5
19F16
  8
0
 10
4056.6487467630718129
 20
175.5785294117515036
 30
0.0
 40
0.0151323329761961
 50
342.2280093890946091
 51
356.310597704012082
  0
ARC
  5
19F17
  8
0
 10
4056.6474617101098374
 20
175.5790025718071092
 30
0.0
 40
0.0165005872815783
 50
320.5760510092146092
 51
342.0254179140031852
  0
ARC
  5
19F18
  8
0
 10
4056.6434440579000693
 20
175.5825449840089902
 30
0.0
 40
0.0218544997694999
 50
292.5372131709056021
 51
320.0910927641933768
  0
ARC
  5
19F19
  8
0
 10
4056.6403531255891721
 20
175.5895637987356963
 30
0.0
 40
0.0295224555372933
 50
268.6923593592632074
 51
292.856827735931688
  0
ARC
  5
19F1A
  8
0
 10
4056.6375859000067976
 20
175.5835132703371073
 30
0.0
 40
0.0229416127743103
 50
231.1342677831410981
 51
244.3315776295332
  0
ARC
  5
19F1B
  8
0
 10
4056.6344410512151626
 20
175.5798591607347134
 30
0.0
 40
0.0181237391633435
 50
204.2872149242857915
 51
231.6264768153669138
  0
ARC
  5
19F1C
  8
0
 10
4056.6316051480312126
 20
175.5784665708098089
 30
0.0
 40
0.0149663935905065
 50
176.7145128345750891
 51
203.8932772991227012
  0
ARC
  5
19F1D
  8
0
 10
4056.6296248555081547
 20
175.578255474244088
 30
0.0
 40
0.0130054966334058
 50
146.1436081441474926
 51
175.2859131453955968
  0
ARC
  5
19F1E
  8
0
 10
4056.6344350022841354
 20
175.5748527490715958
 30
0.0
 40
0.0188962851505126
 50
120.7897639002468964
 51
145.7010630370454862
  0
ARC
  5
19F1F
  8
0
 10
4056.6399830484901941
 20
175.5649241594915964
 30
0.0
 40
0.0302670921759264
 50
87.6482218531213135
 51
120.1910272397954031
  0
ARC
  5
19F20
  8
0
 10
4056.6400568158969691
 20
175.5890431767163875
 30
0.0
 40
0.0289966013830392
 50
244.6640758317086863
 51
269.2542323531046122
  0
ARC
  5
19F21
  8
0
 10
4056.6403190021342198
 20
175.5831507000972067
 30
0.0
 40
0.0185923488158952
 50
269.7442606393860274
 51
288.9192794619472124
  0
ARC
  5
19F22
  8
0
 10
4056.6414444880851988
 20
175.5798204549705872
 30
0.0
 40
0.0150771006022448
 50
288.9766678707892993
 51
302.0054758641663284
  0
ARC
  5
19F23
  8
0
 10
4056.6405540880041372
 20
175.5669316782154965
 30
0.0
 40
0.0171143241914516
 50
57.990326719175151
 51
91.0912301414281131
  0
ARC
  5
19F24
  8
0
 10
4056.644770717774918
 20
175.5733413514801953
 30
0.0
 40
0.0094457867846938
 50
18.9530933820168492
 51
59.0700974018845315
  0
ATTDEF
  5
19F26
  8
DEFPOINTS
 10
4056.0738238913518217
 20
170.2575326289288
 30
0.0
 40
0.001
  1
K-98455T
  3

  2
MODELNUMBER
 70
     0
1001
ACDBATTR
1070
     0
1070
     1
  0
ATTDEF
  5
19F27
  8
DEFPOINTS
 10
4056.0736980816950563
 20
170.2558657885496132
 30
0.0
 40
0.001
  1
LOURE
  3

  2
TRADENAME
 70
     0
1001
ACDBATTR
1070
     0
1070
     1
  0
ATTDEF
  5
19F28
  8
DEFPOINTS
 10
4056.0738238913518217
 20
170.2541992955954981
 30
0.0
 40
0.001
  1
BATHROOM SINK FAUCET
  3

  2
PRODUCT
 70
     0
1001
ACDBATTR
1070
     0
1070
     1
  0
ENDSEC
  0
EOF
