  0
SECTION
  2
HEADER
  9
$ACADVER
  1
AC1009
  9
$INSBASE
 10
-19.3674141123149717
 20
44.204262887322443
 30
0.0
  9
$EXTMIN
 10
-22.1066184413149784
 20
34.7541836302224496
 30
0.0
  9
$EXTMAX
 10
-16.6282097833149685
 20
44.2088700358866689
 30
0.0
  9
$LIMMIN
 10
0.0
 20
0.0
  9
$LIMMAX
 10
11.6929133858000007
 20
8.2677165353999982
  9
$ORTHOMODE
 70
     0
  9
$REGENMODE
 70
     1
  9
$FILLMODE
 70
     1
  9
$QTEXTMODE
 70
     0
  9
$MIRRTEXT
 70
     0
  9
$DRAGMODE
 70
     2
  9
$LTSCALE
 40
0.6431102362
  9
$OSMODE
 70
  3839
  9
$ATTMODE
 70
     1
  9
$TEXTSIZE
 40
0.2
  9
$TRACEWID
 40
0.05
  9
$TEXTSTYLE
  7
STANDARD
  9
$CLAYER
  8
0
  9
$CELTYPE
  6
BYLAYER
  9
$CECOLOR
 62
   256
  9
$DIMSCALE
 40
1.0
  9
$DIMASZ
 40
0.1875
  9
$DIMEXO
 40
0.0625
  9
$DIMDLI
 40
0.4443307087
  9
$DIMRND
 40
0.0
  9
$DIMDLE
 40
0.0
  9
$DIMEXE
 40
0.125
  9
$DIMTP
 40
0.01
  9
$DIMTM
 40
0.01
  9
$DIMTXT
 40
0.15625
  9
$DIMCEN
 40
0.1052362205
  9
$DIMTSZ
 40
0.0
  9
$DIMTOL
 70
     1
  9
$DIMLIM
 70
     0
  9
$DIMTIH
 70
     1
  9
$DIMTOH
 70
     1
  9
$DIMSE1
 70
     0
  9
$DIMSE2
 70
     0
  9
$DIMTAD
 70
     0
  9
$DIMZIN
 70
     0
  9
$DIMBLK
  1

  9
$DIMASO
 70
     1
  9
$DIMSHO
 70
     1
  9
$DIMPOST
  1

  9
$DIMAPOST
  1

  9
$DIMALT
 70
     0
  9
$DIMALTD
 70
     2
  9
$DIMALTF
 40
25.3999999999999986
  9
$DIMLFAC
 40
1.0
  9
$DIMTOFL
 70
     0
  9
$DIMTVP
 40
0.0
  9
$DIMTIX
 70
     0
  9
$DIMSOXD
 70
     0
  9
$DIMSAH
 70
     0
  9
$DIMBLK1
  1

  9
$DIMBLK2
  1

  9
$DIMSTYLE
  2
STANDARD
  9
$DIMCLRD
 70
     0
  9
$DIMCLRE
 70
     0
  9
$DIMCLRT
 70
     0
  9
$DIMTFAC
 40
1.0
  9
$DIMGAP
 40
0.09
  9
$LUNITS
 70
     2
  9
$LUPREC
 70
     4
  9
$SKETCHINC
 40
0.1
  9
$FILLETRAD
 40
0.0
  9
$AUNITS
 70
     0
  9
$AUPREC
 70
     0
  9
$MENU
  1
.
  9
$ELEVATION
 40
0.0
  9
$PELEVATION
 40
0.0
  9
$THICKNESS
 40
0.0
  9
$LIMCHECK
 70
     0
  9
$BLIPMODE
 70
     0
  9
$CHAMFERA
 40
0.0
  9
$CHAMFERB
 40
0.0
  9
$SKPOLY
 70
     0
  9
$TDCREATE
 40
2457730.4652893519960344
  9
$TDUPDATE
 40
2459151.5280208331532776
  9
$TDINDWG
 40
0.0793256829
  9
$TDUSRTIMER
 40
0.0793256829
  9
$USRTIMER
 70
     1
  9
$ANGBASE
 50
0.0
  9
$ANGDIR
 70
     0
  9
$PDMODE
 70
     0
  9
$PDSIZE
 40
0.3125
  9
$PLINEWID
 40
0.0
  9
$COORDS
 70
     1
  9
$SPLFRAME
 70
     0
  9
$SPLINETYPE
 70
     6
  9
$SPLINESEGS
 70
     8
  9
$ATTDIA
 70
     1
  9
$ATTREQ
 70
     1
  9
$HANDLING
 70
     1
  9
$HANDSEED
  5
4738
  9
$SURFTAB1
 70
     6
  9
$SURFTAB2
 70
     6
  9
$SURFTYPE
 70
     6
  9
$SURFU
 70
     6
  9
$SURFV
 70
     6
  9
$UCSNAME
  2

  9
$UCSORG
 10
0.0
 20
0.0
 30
0.0
  9
$UCSXDIR
 10
1.0
 20
0.0
 30
0.0
  9
$UCSYDIR
 10
0.0
 20
1.0
 30
0.0
  9
$PUCSNAME
  2

  9
$PUCSORG
 10
0.0
 20
0.0
 30
0.0
  9
$PUCSXDIR
 10
1.0
 20
0.0
 30
0.0
  9
$PUCSYDIR
 10
0.0
 20
1.0
 30
0.0
  9
$USERI1
 70
     0
  9
$USERI2
 70
     0
  9
$USERI3
 70
     0
  9
$USERI4
 70
     0
  9
$USERI5
 70
     0
  9
$USERR1
 40
0.0
  9
$USERR2
 40
0.0
  9
$USERR3
 40
0.0
  9
$USERR4
 40
0.0
  9
$USERR5
 40
0.0
  9
$WORLDVIEW
 70
     1
  9
$SHADEDGE
 70
     3
  9
$SHADEDIF
 70
    70
  9
$TILEMODE
 70
     1
  9
$MAXACTVP
 70
    64
  9
$PLIMCHECK
 70
     0
  9
$PEXTMIN
 10
1.0000000000000000E+20
 20
1.0000000000000000E+20
 30
1.0000000000000000E+20
  9
$PEXTMAX
 10
-1.0000000000000000E+20
 20
-1.0000000000000000E+20
 30
-1.0000000000000000E+20
  9
$PLIMMIN
 10
0.0
 20
0.0
  9
$PLIMMAX
 10
12.0
 20
9.0
  9
$UNITMODE
 70
     0
  9
$VISRETAIN
 70
     1
  9
$PLINEGEN
 70
     0
  9
$PSLTSCALE
 70
     1
  0
ENDSEC
  0
SECTION
  2
TABLES
  0
TABLE
  2
VPORT
 70
     1
  0
VPORT
  2
*ACTIVE
 70
     0
 10
0.0
 20
0.0
 11
1.0
 21
1.0
 12
0.0
 22
0.0
 13
0.0
 23
0.0
 14
1.0
 24
1.0
 15
0.0
 25
0.0
 16
-0.0000000000000107
 26
0.0
 36
42.9098016991732507
 17
-19.3674144744873011
 27
39.4872074636220489
 37
0.0
 40
10.9173876414129403
 41
3.1182994454713491
 42
50.0
 43
0.0
 44
0.0
 50
0.0
 51
0.0
 71
     0
 72
   100
 73
     1
 74
     1
 75
     0
 76
     0
 77
     0
 78
     0
  0
ENDTAB
  0
TABLE
  2
LTYPE
 70
     2
  0
LTYPE
  2
CONTINUOUS
 70
     0
  3
Solid line
 72
    65
 73
     0
 40
0.0
  0
LTYPE
  2
PHANTOM2
 70
     0
  3
___ _ _ ___ _ _ ___ _ _ ___ _ _
 72
    65
 73
     6
 40
1.25
 49
0.625
 49
-0.125
 49
0.125
 49
-0.125
 49
0.125
 49
-0.125
  0
ENDTAB
  0
TABLE
  2
LAYER
 70
     2
  0
LAYER
  2
0
 70
     0
 62
     7
  6
CONTINUOUS
  0
LAYER
  2
DEFPOINTS
 70
     0
 62
     7
  6
CONTINUOUS
  0
ENDTAB
  0
TABLE
  2
STYLE
 70
     1
  0
STYLE
  2
STANDARD
 70
     0
 40
0.0
 41
0.8
 50
0.0
 71
     0
 42
0.2
  3
txt
  4

  0
ENDTAB
  0
TABLE
  2
VIEW
 70
     0
  0
ENDTAB
  0
TABLE
  2
UCS
 70
     0
  0
ENDTAB
  0
TABLE
  2
APPID
 70
     5
  0
APPID
  2
ACAD
 70
     0
  0
APPID
  2
ACAD_NAV_VCDISPLAY
 70
     0
  0
APPID
  2
ACAD_MLEADERVER
 70
     0
  0
APPID
  2
ACAD_EXEMPT_FROM_CAD_STANDARDS
 70
     0
  0
APPID
  2
ACDBATTR
 70
     0
  0
ENDTAB
  0
TABLE
  2
DIMSTYLE
 70
     1
  0
DIMSTYLE
  2
STANDARD
 70
     0
  3

  4

  5

  6

  7

 40
1.0
 41
0.1875
 42
0.0625
 43
0.38
 44
0.125
 45
0.0
 46
0.0
 47
0.01
 48
0.01
140
0.15625
141
0.09
142
0.0
143
25.3999999999999986
144
1.0
145
0.0
146
1.0
147
0.09
 71
     1
 72
     0
 73
     1
 74
     1
 75
     0
 76
     0
 77
     0
 78
     4
170
     0
171
     2
172
     0
173
     0
174
     0
175
     0
176
     0
177
     0
178
     0
  0
ENDTAB
  0
ENDSEC
  0
SECTION
  2
BLOCKS
  0
BLOCK
  8
0
  2
$MODEL_SPACE
 70
     0
 10
0.0
 20
0.0
 30
0.0
  3
$MODEL_SPACE
  1

  0
ENDBLK
  5
21
  8
0
  0
BLOCK
 67
     1
  8
0
  2
$PAPER_SPACE
 70
     0
 10
0.0
 20
0.0
 30
0.0
  3
$PAPER_SPACE
  1

  0
ENDBLK
  5
1D
 67
     1
  8
0
  0
BLOCK
  8
0
  2
_FILLED
 70
     0
 10
0.0
 20
0.0
 30
0.0
  3
_FILLED
  1

  0
SOLID
  5
7FB
  8
0
  6
BYBLOCK
 62
     0
 10
0.0
 20
0.0
 30
0.0
 11
-1.0
 21
0.1666666667
 31
0.0
 12
-1.0
 22
-0.1666666667
 32
0.0
 13
-1.0
 23
-0.1666666667
 33
0.0
  0
ENDBLK
  5
7FC
  8
0
  6
BYBLOCK
 62
     0
  0
ENDSEC
  0
SECTION
  2
ENTITIES
  0
ATTDEF
  5
766
  8
DEFPOINTS
 10
-19.3670577883003396
 20
44.2078700358866712
 30
0.0
 40
0.001
  1
K-98457X-AK
  3

  2
MODELNUMBER
 70
     0
1001
ACDBATTR
1070
     0
1070
     1
  0
ATTDEF
  5
767
  8
DEFPOINTS
 10
-19.3670577883003396
 20
44.2062033692200131
 30
0.0
 40
0.001
  1
PURIST
  3

  2
TRADENAME
 70
     0
1001
ACDBATTR
1070
     0
1070
     1
  0
ATTDEF
  5
768
  8
DEFPOINTS
 10
-19.3670577883003396
 20
44.2045367025533409
 30
0.0
 40
0.001
  1
SHOWERHEAD
  3

  2
PRODUCT
 70
     0
1001
ACDBATTR
1070
     0
1070
     1
  0
LINE
  5
455D
  8
0
 10
-18.1024141123149711
 20
44.204262887322443
 30
0.0
 11
-20.6324141123149793
 21
44.204262887322443
 31
0.0
  0
LINE
  5
455E
  8
0
 10
-18.2303716238691891
 20
43.9646780059224298
 30
0.0
 11
-20.5044566007607685
 21
43.9646780059224298
 31
0.0
  0
LINE
  5
455F
  8
0
 10
-18.8105095745029196
 20
43.7642628873224382
 30
0.0
 11
-19.9243186501270095
 21
43.7642628873224382
 31
0.0
  0
LINE
  5
4560
  8
0
 10
-18.9614141123149693
 20
39.2106806253817766
 30
0.0
 11
-18.9614141123149693
 21
43.7642628873224382
 31
0.0
  0
LINE
  5
4561
  8
0
 10
-18.8733196241149699
 20
39.2643020433228429
 30
0.0
 11
-18.8733196241149699
 21
38.8791294346316789
 31
0.0
  0
ARC
  5
4562
  8
0
 10
-19.1776676612199992
 20
39.2785891567320533
 30
0.0
 40
0.2266653172502763
 50
318.6474433898085863
 51
17.4177416138195511
  0
ARC
  5
4563
  8
0
 10
-19.1762753558896399
 20
39.2530341204089268
 30
0.0
 40
0.303165204965743
 50
2.130037193182384
 51
44.8685981376292986
  0
ARC
  5
4564
  8
0
 10
-19.1823183536219588
 20
39.28049311487068
 30
0.0
 40
0.3094226327126079
 50
305.277269931070407
 51
357.0005299082196757
  0
ARC
  5
4565
  8
0
 10
-19.2587922150112512
 20
38.9028078940287969
 30
0.0
 40
0.3861991555813082
 50
314.5668439715003046
 51
356.484903731749398
  0
ARC
  5
4566
  8
0
 10
-19.135686902663231
 20
38.5178607827357382
 30
0.0
 40
0.5498699511780086
 50
22.3971277273442517
 51
61.5009468321576094
  0
ARC
  5
4567
  8
0
 10
-19.0041420304293283
 20
38.5796286468889278
 30
0.0
 40
0.4047734097839931
 50
349.8711863510948774
 51
21.4081155810364692
  0
ARC
  5
4568
  8
0
 10
-19.1294432792621798
 20
38.6362717713947106
 30
0.0
 40
0.5391390018493145
 50
296.5357130260366034
 51
346.2848360630711113
  0
ARC
  5
4569
  8
0
 10
-19.156536411130741
 20
38.2252009757588809
 30
0.0
 40
0.5931495004709606
 50
297.2258844632016235
 51
331.9715754702900199
  0
ARC
  5
456A
  8
0
 10
-18.9710075476685596
 20
38.1264354354654884
 30
0.0
 40
0.3829695986558392
 50
331.9715754702903041
 51
2.0605120832382648
  0
LINE
  5
456B
  8
0
 10
-18.5882855729149803
 20
38.1402050954224521
 30
0.0
 11
-18.599368620645329
 21
38.5796286468889278
 31
0.0
  0
ARC
  5
456C
  8
0
 10
-19.1944131395809308
 20
36.4362711715887713
 30
0.0
 40
3.047122009210649
 50
47.6562816627370083
 51
85.6145817253355546
  0
ARC
  5
456D
  8
0
 10
-18.2019294793111683
 20
37.53152517648995
 30
0.0
 40
1.5690924794814991
 50
24.2558899994629797
 51
47.5038063156655994
  0
ARC
  5
456E
  8
0
 10
-18.24975459875618
 20
37.5099756167255194
 30
0.0
 40
1.62154841885894
 50
0.1207897426911964
 51
24.2558899994629797
  0
ARC
  5
456F
  8
0
 10
-18.1979319006975899
 20
37.5936739762516865
 30
0.0
 40
1.5717736414087231
 50
316.1268968035133753
 51
357.0722891486532262
  0
ARC
  5
4570
  8
0
 10
-18.8380272480881708
 20
37.222883540101023
 30
0.0
 40
2.3586422100257911
 50
291.9186799048138141
 51
324.5495617128223103
  0
ARC
  5
4571
  8
0
 10
-18.0716145712895511
 20
36.6772063372420618
 30
0.0
 40
1.4178170398280561
 50
324.5495617128223103
 51
358.6475468477381128
  0
LINE
  5
4572
  8
0
 10
-16.6541925061149705
 20
36.643742213422442
 30
0.0
 11
-16.6282097833149685
 21
37.5133941280513881
 31
0.0
  0
ARC
  5
4573
  8
0
 10
-18.9290557835220987
 20
38.2704306346223717
 30
0.0
 40
2.5679282732576749
 50
292.5620701655619769
 51
316.5476453417792868
  0
ARC
  5
4574
  8
0
 10
-19.1651946578628802
 20
39.2699636517836979
 30
0.0
 40
0.2729507169665923
 50
7.6190433380690612
 51
41.7046956597155685
  0
ARC
  5
4575
  8
0
 10
-19.1907427361796117
 20
39.2908004335066181
 30
0.0
 40
0.2964868171473615
 50
300.6470598723155945
 51
2.9682051392840592
  0
LINE
  5
4576
  8
0
 10
-18.1024141123149711
 20
44.204262887322443
 30
0.0
 11
-18.1024141123149711
 21
44.1400357442626685
 31
0.0
  0
ARC
  5
4577
  8
0
 10
-18.2924980047417307
 20
44.1443750525201395
 30
0.0
 40
0.1901334156750408
 50
289.0717235739850253
 51
358.6922570314928862
  0
ARC
  5
4578
  8
0
 10
-438.1744853614296744
 20
1258.6293005843961055
 30
0.0
 40
1285.2094008396179561
 50
289.0443607012293796
 51
289.0717235739847979
  0
LINE
  5
4579
  8
0
 10
-19.7734141123149705
 20
39.2106806253817766
 30
0.0
 11
-19.7734141123149705
 21
43.7642628873224382
 31
0.0
  0
LINE
  5
457A
  8
0
 10
-19.8615086005149806
 20
39.2643020433228429
 30
0.0
 11
-19.8615086005149806
 21
38.8791294346316789
 31
0.0
  0
ARC
  5
457B
  8
0
 10
-19.5571605634099512
 20
39.2785891567320533
 30
0.0
 40
0.2266653172502763
 50
162.5822583861803992
 51
221.3525566101909021
  0
ARC
  5
457C
  8
0
 10
-19.5585528687403105
 20
39.2530341204089268
 30
0.0
 40
0.303165204965743
 50
135.1314018623706943
 51
177.8699628068175969
  0
ARC
  5
457D
  8
0
 10
-19.552509871007981
 20
39.28049311487068
 30
0.0
 40
0.3094226327126079
 50
182.999470091779898
 51
234.722730068929593
  0
ARC
  5
457E
  8
0
 10
-19.4760360096186993
 20
38.9028078940287969
 30
0.0
 40
0.3861991555813082
 50
183.515096268250602
 51
225.4331560284996954
  0
ARC
  5
457F
  8
0
 10
-19.5991413219667194
 20
38.5178607827357382
 30
0.0
 40
0.5498699511780086
 50
118.4990531678424048
 51
157.6028722726557874
  0
ARC
  5
4580
  8
0
 10
-19.7306861942006186
 20
38.5796286468889278
 30
0.0
 40
0.4047734097839931
 50
158.5918844189635024
 51
190.1288136489050942
  0
ARC
  5
4581
  8
0
 10
-19.6053849453677707
 20
38.6362717713947106
 30
0.0
 40
0.5391390018493145
 50
193.7151639369290024
 51
243.4642869739633113
  0
ARC
  5
4582
  8
0
 10
-19.5782918134992094
 20
38.2252009757588809
 30
0.0
 40
0.5931495004709606
 50
208.0284245297096959
 51
242.7741155367984049
  0
ARC
  5
4583
  8
0
 10
-19.7638206769613909
 20
38.1264354354654884
 30
0.0
 40
0.3829695986558392
 50
177.9394879167616921
 51
208.0284245297096959
  0
LINE
  5
4584
  8
0
 10
-20.1465426517149808
 20
38.1402050954224521
 30
0.0
 11
-20.1354596039846108
 21
38.5796286468889278
 31
0.0
  0
ARC
  5
4585
  8
0
 10
-19.5404150850490197
 20
36.4362711715887713
 30
0.0
 40
3.047122009210649
 50
94.3854182746644739
 51
132.3437183372629988
  0
ARC
  5
4586
  8
0
 10
-20.5328987453187786
 20
37.53152517648995
 30
0.0
 40
1.5690924794814991
 50
132.4961936843344006
 51
155.744110000537006
  0
ARC
  5
4587
  8
0
 10
-20.4850736258737705
 20
37.5099756167255194
 30
0.0
 40
1.62154841885894
 50
155.744110000537006
 51
179.879210257308813
  0
ARC
  5
4588
  8
0
 10
-20.5368963239323605
 20
37.5936739762516865
 30
0.0
 40
1.5717736414087231
 50
182.9277108513464043
 51
223.873103196486511
  0
ARC
  5
4589
  8
0
 10
-19.8968009765417797
 20
37.222883540101023
 30
0.0
 40
2.3586422100257911
 50
215.4504382871778034
 51
248.0813200951861006
  0
ARC
  5
458A
  8
0
 10
-20.6632136533403994
 20
36.6772063372420618
 30
0.0
 40
1.4178170398280561
 50
181.3524531522618872
 51
215.4504382871778034
  0
LINE
  5
458B
  8
0
 10
-22.08063571851498
 20
36.643742213422442
 30
0.0
 11
-22.1066184413149784
 21
37.5133941280513881
 31
0.0
  0
ARC
  5
458C
  8
0
 10
-19.8057724411078517
 20
38.2704306346223717
 30
0.0
 40
2.5679282732576749
 50
223.4523546582205995
 51
247.4379298344381937
  0
ARC
  5
458D
  8
0
 10
-19.5696335667670702
 20
39.2699636517836979
 30
0.0
 40
0.2729507169665923
 50
138.2953043402843889
 51
172.3809566619308953
  0
ARC
  5
458E
  8
0
 10
-19.5440854884503388
 20
39.2908004335066181
 30
0.0
 40
0.2964868171473615
 50
177.0317948607159053
 51
239.3529401276842918
  0
LINE
  5
458F
  8
0
 10
-20.6324141123149793
 20
44.204262887322443
 30
0.0
 11
-20.6324141123149793
 21
44.1400357442626685
 31
0.0
  0
ARC
  5
4590
  8
0
 10
-20.4423302198882304
 20
44.1443750525201395
 30
0.0
 40
0.1901334156750408
 50
181.3077429685071991
 51
250.9282764260150032
  0
ARC
  5
4591
  8
0
 10
399.4396571368000082
 20
1258.6293005843961055
 30
0.0
 40
1285.2094008396179561
 50
250.9282764260150032
 51
250.9556392987705919
  0
ARC
  5
4592
  8
0
 10
-19.3674141123149717
 20
39.5004613140842906
 30
0.0
 40
0.5173310228928943
 50
225.9189051707390945
 51
314.0810948292606781
  0
ARC
  5
4593
  8
0
 10
-19.3674141123149717
 20
39.5672032765339807
 30
0.0
 40
0.6244392757430023
 50
238.3345185351820987
 51
301.6654814648176739
  0
ARC
  5
4594
  8
0
 10
-19.3674141123149788
 20
39.5571967252838022
 30
0.0
 40
0.6422722450934405
 50
235.4988326969098864
 51
304.5011673030900852
  0
ARC
  5
4595
  8
0
 10
-19.3674141123149788
 20
39.0424899073796183
 30
0.0
 40
0.5623162915316834
 50
227.5361623007615037
 51
312.4638376992386952
  0
ARC
  5
4596
  8
0
 10
-19.3674141123149788
 20
39.0626509636480179
 30
0.0
 40
1.027161121025524
 50
242.2138752995134894
 51
297.7861247004864822
  0
ARC
  5
4597
  8
0
 10
-19.3674141123149717
 20
38.6225013744882304
 30
0.0
 40
1.042925233065783
 50
242.4582391354711035
 51
297.541760864528726
  0
ARC
  5
4598
  8
0
 10
-19.3674141123149788
 20
39.3506198836257894
 30
0.0
 40
3.733648171803345
 50
247.585910850403792
 51
292.4140891495961796
  0
ARC
  5
4599
  8
0
 10
-19.3674141123149788
 20
38.436860991220307
 30
0.0
 40
3.6826773609978729
 50
247.4908148164176112
 51
292.5091851835824173
  0
ARC
  5
459A
  8
0
 10
-19.3670132887709805
 20
38.8611319605914574
 30
0.0
 40
0.4350522556409091
 50
216.7056240901154922
 51
323.547637048032982
  0
ENDSEC
  0
EOF
