  0
SECTION
  2
HEADER
  9
$ACADVER
  1
AC1009
  9
$INSBASE
 10
-19.154430354881729
 20
45.0791835815823987
 30
0.0
  9
$EXTMIN
 10
-28.6045081545154787
 20
38.9737246326479223
 30
0.0
  9
$EXTMAX
 10
-19.154430354881729
 20
46.3441835815823993
 30
0.0
  9
$LIMMIN
 10
0.0
 20
0.0
  9
$LIMMAX
 10
11.6929133858000007
 20
8.2677165353999982
  9
$ORTHOMODE
 70
     0
  9
$REGENMODE
 70
     1
  9
$FILLMODE
 70
     1
  9
$QTEXTMODE
 70
     0
  9
$MIRRTEXT
 70
     0
  9
$DRAGMODE
 70
     2
  9
$LTSCALE
 40
0.6431102362
  9
$OSMODE
 70
  3839
  9
$ATTMODE
 70
     1
  9
$TEXTSIZE
 40
0.2
  9
$TRACEWID
 40
0.05
  9
$TEXTSTYLE
  7
STANDARD
  9
$CLAYER
  8
0
  9
$CELTYPE
  6
BYLAYER
  9
$CECOLOR
 62
   256
  9
$DIMSCALE
 40
1.0
  9
$DIMASZ
 40
0.1875
  9
$DIMEXO
 40
0.0625
  9
$DIMDLI
 40
0.4443307087
  9
$DIMRND
 40
0.0
  9
$DIMDLE
 40
0.0
  9
$DIMEXE
 40
0.125
  9
$DIMTP
 40
0.01
  9
$DIMTM
 40
0.01
  9
$DIMTXT
 40
0.15625
  9
$DIMCEN
 40
0.1052362205
  9
$DIMTSZ
 40
0.0
  9
$DIMTOL
 70
     1
  9
$DIMLIM
 70
     0
  9
$DIMTIH
 70
     1
  9
$DIMTOH
 70
     1
  9
$DIMSE1
 70
     0
  9
$DIMSE2
 70
     0
  9
$DIMTAD
 70
     0
  9
$DIMZIN
 70
     0
  9
$DIMBLK
  1

  9
$DIMASO
 70
     1
  9
$DIMSHO
 70
     1
  9
$DIMPOST
  1

  9
$DIMAPOST
  1

  9
$DIMALT
 70
     0
  9
$DIMALTD
 70
     2
  9
$DIMALTF
 40
25.3999999999999986
  9
$DIMLFAC
 40
1.0
  9
$DIMTOFL
 70
     0
  9
$DIMTVP
 40
0.0
  9
$DIMTIX
 70
     0
  9
$DIMSOXD
 70
     0
  9
$DIMSAH
 70
     0
  9
$DIMBLK1
  1

  9
$DIMBLK2
  1

  9
$DIMSTYLE
  2
STANDARD
  9
$DIMCLRD
 70
     0
  9
$DIMCLRE
 70
     0
  9
$DIMCLRT
 70
     0
  9
$DIMTFAC
 40
1.0
  9
$DIMGAP
 40
0.09
  9
$LUNITS
 70
     2
  9
$LUPREC
 70
     4
  9
$SKETCHINC
 40
0.1
  9
$FILLETRAD
 40
0.0
  9
$AUNITS
 70
     0
  9
$AUPREC
 70
     0
  9
$MENU
  1
.
  9
$ELEVATION
 40
0.0
  9
$PELEVATION
 40
0.0
  9
$THICKNESS
 40
0.0
  9
$LIMCHECK
 70
     0
  9
$BLIPMODE
 70
     0
  9
$CHAMFERA
 40
0.0
  9
$CHAMFERB
 40
0.0
  9
$SKPOLY
 70
     0
  9
$TDCREATE
 40
2457730.4652893519960344
  9
$TDUPDATE
 40
2459151.5276157408952713
  9
$TDINDWG
 40
0.0790942014
  9
$TDUSRTIMER
 40
0.0790942014
  9
$USRTIMER
 70
     1
  9
$ANGBASE
 50
0.0
  9
$ANGDIR
 70
     0
  9
$PDMODE
 70
     0
  9
$PDSIZE
 40
0.3125
  9
$PLINEWID
 40
0.0
  9
$COORDS
 70
     1
  9
$SPLFRAME
 70
     0
  9
$SPLINETYPE
 70
     6
  9
$SPLINESEGS
 70
     8
  9
$ATTDIA
 70
     1
  9
$ATTREQ
 70
     1
  9
$HANDLING
 70
     1
  9
$HANDSEED
  5
475B
  9
$SURFTAB1
 70
     6
  9
$SURFTAB2
 70
     6
  9
$SURFTYPE
 70
     6
  9
$SURFU
 70
     6
  9
$SURFV
 70
     6
  9
$UCSNAME
  2

  9
$UCSORG
 10
0.0
 20
0.0
 30
0.0
  9
$UCSXDIR
 10
1.0
 20
0.0
 30
0.0
  9
$UCSYDIR
 10
0.0
 20
1.0
 30
0.0
  9
$PUCSNAME
  2

  9
$PUCSORG
 10
0.0
 20
0.0
 30
0.0
  9
$PUCSXDIR
 10
1.0
 20
0.0
 30
0.0
  9
$PUCSYDIR
 10
0.0
 20
1.0
 30
0.0
  9
$USERI1
 70
     0
  9
$USERI2
 70
     0
  9
$USERI3
 70
     0
  9
$USERI4
 70
     0
  9
$USERI5
 70
     0
  9
$USERR1
 40
0.0
  9
$USERR2
 40
0.0
  9
$USERR3
 40
0.0
  9
$USERR4
 40
0.0
  9
$USERR5
 40
0.0
  9
$WORLDVIEW
 70
     1
  9
$SHADEDGE
 70
     3
  9
$SHADEDIF
 70
    70
  9
$TILEMODE
 70
     1
  9
$MAXACTVP
 70
    64
  9
$PLIMCHECK
 70
     0
  9
$PEXTMIN
 10
1.0000000000000000E+20
 20
1.0000000000000000E+20
 30
1.0000000000000000E+20
  9
$PEXTMAX
 10
-1.0000000000000000E+20
 20
-1.0000000000000000E+20
 30
-1.0000000000000000E+20
  9
$PLIMMIN
 10
0.0
 20
0.0
  9
$PLIMMAX
 10
12.0
 20
9.0
  9
$UNITMODE
 70
     0
  9
$VISRETAIN
 70
     1
  9
$PLINEGEN
 70
     0
  9
$PSLTSCALE
 70
     1
  0
ENDSEC
  0
SECTION
  2
TABLES
  0
TABLE
  2
VPORT
 70
     1
  0
VPORT
  2
*ACTIVE
 70
     0
 10
0.0
 20
0.0
 11
1.0
 21
1.0
 12
0.0
 22
0.0
 13
0.0
 23
0.0
 14
1.0
 24
1.0
 15
0.0
 25
0.0
 16
-0.0000000000000107
 26
0.0
 36
47.1036608491189526
 17
-23.8794479370117188
 27
42.658975601196282
 37
0.0
 40
11.9844162512031804
 41
3.1182994454713491
 42
50.0
 43
0.0
 44
0.0
 50
0.0
 51
0.0
 71
     0
 72
   100
 73
     1
 74
     1
 75
     0
 76
     0
 77
     0
 78
     0
  0
ENDTAB
  0
TABLE
  2
LTYPE
 70
     2
  0
LTYPE
  2
CONTINUOUS
 70
     0
  3
Solid line
 72
    65
 73
     0
 40
0.0
  0
LTYPE
  2
PHANTOM2
 70
     0
  3
___ _ _ ___ _ _ ___ _ _ ___ _ _
 72
    65
 73
     6
 40
1.25
 49
0.625
 49
-0.125
 49
0.125
 49
-0.125
 49
0.125
 49
-0.125
  0
ENDTAB
  0
TABLE
  2
LAYER
 70
     2
  0
LAYER
  2
0
 70
     0
 62
     7
  6
CONTINUOUS
  0
LAYER
  2
DEFPOINTS
 70
     0
 62
     7
  6
CONTINUOUS
  0
ENDTAB
  0
TABLE
  2
STYLE
 70
     1
  0
STYLE
  2
STANDARD
 70
     0
 40
0.0
 41
0.8
 50
0.0
 71
     0
 42
0.2
  3
txt
  4

  0
ENDTAB
  0
TABLE
  2
VIEW
 70
     0
  0
ENDTAB
  0
TABLE
  2
UCS
 70
     0
  0
ENDTAB
  0
TABLE
  2
APPID
 70
     5
  0
APPID
  2
ACAD
 70
     0
  0
APPID
  2
ACAD_NAV_VCDISPLAY
 70
     0
  0
APPID
  2
ACAD_MLEADERVER
 70
     0
  0
APPID
  2
ACAD_EXEMPT_FROM_CAD_STANDARDS
 70
     0
  0
APPID
  2
ACDBATTR
 70
     0
  0
ENDTAB
  0
TABLE
  2
DIMSTYLE
 70
     1
  0
DIMSTYLE
  2
STANDARD
 70
     0
  3

  4

  5

  6

  7

 40
1.0
 41
0.1875
 42
0.0625
 43
0.38
 44
0.125
 45
0.0
 46
0.0
 47
0.01
 48
0.01
140
0.15625
141
0.09
142
0.0
143
25.3999999999999986
144
1.0
145
0.0
146
1.0
147
0.09
 71
     1
 72
     0
 73
     1
 74
     1
 75
     0
 76
     0
 77
     0
 78
     4
170
     0
171
     2
172
     0
173
     0
174
     0
175
     0
176
     0
177
     0
178
     0
  0
ENDTAB
  0
ENDSEC
  0
SECTION
  2
BLOCKS
  0
BLOCK
  8
0
  2
$MODEL_SPACE
 70
     0
 10
0.0
 20
0.0
 30
0.0
  3
$MODEL_SPACE
  1

  0
ENDBLK
  5
21
  8
0
  0
BLOCK
 67
     1
  8
0
  2
$PAPER_SPACE
 70
     0
 10
0.0
 20
0.0
 30
0.0
  3
$PAPER_SPACE
  1

  0
ENDBLK
  5
1D
 67
     1
  8
0
  0
BLOCK
  8
0
  2
_FILLED
 70
     0
 10
0.0
 20
0.0
 30
0.0
  3
_FILLED
  1

  0
SOLID
  5
7FB
  8
0
  6
BYBLOCK
 62
     0
 10
0.0
 20
0.0
 30
0.0
 11
-1.0
 21
0.1666666667
 31
0.0
 12
-1.0
 22
-0.1666666667
 32
0.0
 13
-1.0
 23
-0.1666666667
 33
0.0
  0
ENDBLK
  5
7FC
  8
0
  6
BYBLOCK
 62
     0
  0
ENDSEC
  0
SECTION
  2
ENTITIES
  0
ATTDEF
  5
766
  8
DEFPOINTS
 10
-19.1656538457570704
 20
45.078018144705652
 30
0.0
 40
0.001
  1
K-98457X-AK
  3

  2
MODELNUMBER
 70
     0
1001
ACDBATTR
1070
     0
1070
     1
  0
ATTDEF
  5
767
  8
DEFPOINTS
 10
-19.1656538457570704
 20
45.0763514780389798
 30
0.0
 40
0.001
  1
PURIST
  3

  2
TRADENAME
 70
     0
1001
ACDBATTR
1070
     0
1070
     1
  0
ATTDEF
  5
768
  8
DEFPOINTS
 10
-19.1656538457570704
 20
45.0746848113723217
 30
0.0
 40
0.001
  1
SHOWERHEAD
  3

  2
PRODUCT
 70
     0
1001
ACDBATTR
1070
     0
1070
     1
  0
LINE
  5
454D
  8
0
 10
-19.154430354881729
 20
43.814183581582391
 30
0.0
 11
-19.154430354881729
 21
46.3441835815823993
 31
0.0
  0
LINE
  5
454E
  8
0
 10
-19.3940152362817315
 20
43.9421410931366125
 30
0.0
 11
-19.3940152362817315
 21
46.2162260700281919
 31
0.0
  0
LINE
  5
454F
  8
0
 10
-19.5944303548817302
 20
44.5222790437703466
 30
0.0
 11
-19.5944303548817302
 21
45.6360881193944365
 31
0.0
  0
LINE
  5
4550
  8
0
 10
-21.6347453156991598
 20
44.6731835815823999
 30
0.0
 11
-19.5944303548817302
 21
44.6731835815823999
 31
0.0
  0
LINE
  5
4551
  8
0
 10
-19.154430354881729
 20
43.814183581582391
 30
0.0
 11
-19.2186574979414893
 21
43.814183581582391
 31
0.0
  0
ARC
  5
4552
  8
0
 10
-19.2143181896840289
 20
44.00426747400914
 30
0.0
 40
0.1901334156750408
 50
199.0717235739849968
 51
268.6922570314927725
  0
ARC
  5
4553
  8
0
 10
1195.2706073421920792
 20
463.8862548306969984
 30
0.0
 40
1285.2094008396179561
 50
199.0443607012294081
 51
199.0717235739849968
  0
LINE
  5
4554
  8
0
 10
-21.7638049365996586
 20
45.4851835815823904
 30
0.0
 11
-19.5944303548817302
 21
45.4851835815823904
 31
0.0
  0
LINE
  5
4555
  8
0
 10
-19.154430354881729
 20
46.3441835815823993
 30
0.0
 11
-19.2186574979414893
 21
46.3441835815823993
 31
0.0
  0
ARC
  5
4556
  8
0
 10
-19.2143181896840289
 20
46.1540996891556503
 30
0.0
 40
0.1901334156750408
 50
91.3077429685071991
 51
160.9282764260148895
  0
ARC
  5
4557
  8
0
 10
1195.2706073421920792
 20
-373.7278876675326842
 30
0.0
 40
1285.2094008396179561
 50
160.9282764260148895
 51
160.9556392987705067
  0
LINE
  5
4558
  8
0
 10
-23.745013635748041
 20
43.1623028746486881
 30
0.0
 11
-24.4171411993348997
 21
43.8344304382355574
 31
0.0
  0
LINE
  5
4559
  8
0
 10
-24.2373136376361309
 20
42.3110999923367928
 30
0.0
 11
-25.2703426485973104
 21
43.3441290032979722
 31
0.0
  0
LINE
  5
455A
  8
0
 10
-23.9458181346120611
 20
39.9506100475127326
 30
0.0
 11
-27.6276227314171585
 21
43.6324146443178194
 31
0.0
  0
LINE
  5
455B
  8
0
 10
-24.8085618332133606
 20
38.9825819086139376
 30
0.0
 11
-28.5956508823205802
 21
42.7696709578213188
 31
0.0
  0
ARC
  5
455C
  8
0
 10
-21.6347453156991598
 20
42.9925694087404366
 30
0.0
 40
1.6806141728242689
 50
90.0
 51
135.0000000028479121
  0
LINE
  5
455D
  8
0
 10
-22.8231189939204988
 20
44.1809430868436266
 30
0.0
 11
-23.7933864208835111
 21
43.2106756597841581
 31
0.0
  0
ARC
  5
455E
  8
0
 10
-23.7589330604666706
 20
43.1483834499300585
 30
0.0
 40
0.0196850392849296
 50
314.9999996650773255
 51
45.00000013872544
  0
LINE
  5
455F
  8
0
 10
-23.7450136357817385
 20
43.1344640250823872
 30
0.0
 11
-24.1128837476354185
 21
42.7665939175294909
 31
0.0
  0
ARC
  5
4560
  8
0
 10
-24.2743490774229898
 20
42.9280592492047504
 30
0.0
 40
0.2283464605734387
 50
247.5247591382992027
 51
314.9999996650767002
  0
ARC
  5
4561
  8
0
 10
-24.3884022045113298
 20
42.6523737483097634
 30
0.0
 40
0.0700000011155703
 50
67.5247591382992027
 51
185.5379068400166034
  0
ARC
  5
4562
  8
0
 10
-24.9751052140297993
 20
42.5954888878328219
 30
0.0
 40
0.5194542453951519
 50
353.111523141197722
 51
5.537906840016662
  0
ARC
  5
4563
  8
0
 10
-24.2655979088880187
 20
42.2828157210849014
 30
0.0
 40
0.0400000000062617
 50
316.0000024785730943
 51
44.999999991101177
  0
LINE
  5
4564
  8
0
 10
-24.236824315667949
 20
42.2550293875069087
 30
0.0
 11
-24.6770950394314212
 21
41.7991156673063102
 31
0.0
  0
ARC
  5
4565
  8
0
 10
-24.1808266865683095
 20
41.2367857126161894
 30
0.0
 40
0.7499981706612712
 50
131.4290997374037033
 51
179.8815447303676081
  0
ARC
  5
4566
  8
0
 10
-23.714666016539681
 20
41.4692590040983688
 30
0.0
 40
1.237886800153577
 50
190.7512757202366913
 51
223.2300575531317861
  0
LINE
  5
4567
  8
0
 10
-23.8667242499927106
 20
39.8650798208933921
 30
0.0
 11
-27.7131802576463606
 21
43.7115358285469497
 31
0.0
  0
ARC
  5
4568
  8
0
 10
-23.8808775964609303
 20
39.8509488809462269
 30
0.0
 40
0.0200000170009886
 50
315.0000306193458073
 51
44.9546108685761894
  0
LINE
  5
4569
  8
0
 10
-23.8667354412580011
 20
39.8368067408586697
 30
0.0
 11
-24.7552556962263495
 21
38.9850379093176116
 31
0.0
  0
ARC
  5
456A
  8
0
 10
-24.7833070044157999
 20
39.0141579282728586
 30
0.0
 40
0.0404332956249536
 50
231.3468164383137946
 51
313.9290875562505221
  0
ARC
  5
456B
  8
0
 10
-23.9608004762057085
 20
39.9370896737198109
 30
0.0
 40
0.020180958032987
 50
5.6392816894388877
 51
42.0637449510048214
  0
ARC
  5
456C
  8
0
 10
-21.6193472042408992
 20
42.9695245034375191
 30
0.0
 40
2.5198032926978571
 50
93.2865100641428739
 51
134.8770522184867957
  0
LINE
  5
456D
  8
0
 10
-23.39728970075722
 20
44.7551137935522121
 30
0.0
 11
-24.3675571276001506
 21
43.7848463663726619
 31
0.0
  0
ARC
  5
456E
  8
0
 10
-24.429787438117021
 20
43.8191502885392765
 30
0.0
 40
0.019834574108732
 50
50.3879817257557505
 51
134.8211925276162901
  0
LINE
  5
456F
  8
0
 10
-24.4437687623127218
 20
43.8332191514574276
 30
0.0
 11
-24.8116388697835184
 21
43.465349039521648
 31
0.0
  0
ARC
  5
4570
  8
0
 10
-24.6501735380722202
 20
43.3038837097701119
 30
0.0
 40
0.2283464605734387
 50
135.0000003477096868
 51
202.4752408744870991
  0
ARC
  5
4571
  8
0
 10
-24.9258590389417698
 20
43.1898305826202531
 30
0.0
 40
0.0700000011155703
 50
264.4620931727696984
 51
22.4752408744871488
  0
ARC
  5
4572
  8
0
 10
-24.9827438992877688
 20
42.6031275730890826
 30
0.0
 40
0.5194542453951519
 50
84.4620931727701247
 51
96.8884768715889635
  0
ARC
  5
4573
  8
0
 10
-25.2951916442611484
 20
43.3120420510871469
 30
0.0
 40
0.0405838032678163
 50
52.2448396527241528
 51
133.6475318102939127
  0
LINE
  5
4574
  8
0
 10
-25.3232033997784391
 20
43.3414084713749475
 30
0.0
 11
-25.7791171198807909
 21
42.9011377475097433
 31
0.0
  0
ARC
  5
4575
  8
0
 10
-26.3414470746816711
 20
43.3974061002473519
 30
0.0
 40
0.7499981706612712
 50
270.1184552824188927
 51
318.5709002753825985
  0
ARC
  5
4576
  8
0
 10
-26.1089737833035116
 20
43.8635667703278713
 30
0.0
 40
1.237886800153577
 50
226.7699424596549989
 51
259.2487242925498094
  0
ARC
  5
4577
  8
0
 10
-27.7272838580397405
 20
43.6973552415440167
 30
0.0
 40
0.0200000147950918
 50
45.1559527535883518
 51
135.0001717160702981
  0
LINE
  5
4578
  8
0
 10
-27.7414260465092788
 20
43.7114973452452276
 30
0.0
 11
-28.5931948778520386
 21
42.8229770900868019
 31
0.0
  0
ARC
  5
4579
  8
0
 10
-28.5640748588905211
 20
42.7949257819038422
 30
0.0
 40
0.0404332956249579
 50
136.0709124565410946
 51
218.6531750060896968
  0
ARC
  5
457A
  8
0
 10
-27.641143113627141
 20
43.6174323103198986
 30
0.0
 40
0.02018095803298
 50
47.9362228601235572
 51
84.3607183233582987
  0
ENDSEC
  0
EOF
