  0
SECTION
  2
HEADER
  9
$ACADVER
  1
AC1009
  9
$INSBASE
 10
3207.1289072679660421
 20
143.1902193392265872
 30
0.0
  9
$EXTMIN
 10
3204.2745792936348153
 20
143.1743968193507044
 30
-0.0000000349181948
  9
$EXTMAX
 10
3208.9260445360050653
 20
149.862865647751903
 30
0.0000000814935746
  9
$LIMMIN
 10
0.0
 20
0.0
  9
$LIMMAX
 10
11.6929133858000007
 20
8.2677165353999982
  9
$ORTHOMODE
 70
     0
  9
$REGENMODE
 70
     1
  9
$FILLMODE
 70
     1
  9
$QTEXTMODE
 70
     0
  9
$MIRRTEXT
 70
     0
  9
$DRAGMODE
 70
     2
  9
$LTSCALE
 40
0.6431102362
  9
$OSMODE
 70
  4095
  9
$ATTMODE
 70
     1
  9
$TEXTSIZE
 40
0.2
  9
$TRACEWID
 40
0.05
  9
$TEXTSTYLE
  7
STANDARD
  9
$CLAYER
  8
0
  9
$CELTYPE
  6
BYLAYER
  9
$CECOLOR
 62
   256
  9
$DIMSCALE
 40
1.0
  9
$DIMASZ
 40
0.1875
  9
$DIMEXO
 40
0.0625
  9
$DIMDLI
 40
0.4443307087
  9
$DIMRND
 40
0.0
  9
$DIMDLE
 40
0.0
  9
$DIMEXE
 40
0.125
  9
$DIMTP
 40
0.01
  9
$DIMTM
 40
0.01
  9
$DIMTXT
 40
2.0
  9
$DIMCEN
 40
0.1052362205
  9
$DIMTSZ
 40
0.0
  9
$DIMTOL
 70
     1
  9
$DIMLIM
 70
     0
  9
$DIMTIH
 70
     1
  9
$DIMTOH
 70
     1
  9
$DIMSE1
 70
     0
  9
$DIMSE2
 70
     0
  9
$DIMTAD
 70
     0
  9
$DIMZIN
 70
     0
  9
$DIMBLK
  1

  9
$DIMASO
 70
     1
  9
$DIMSHO
 70
     1
  9
$DIMPOST
  1
\X
  9
$DIMAPOST
  1

  9
$DIMALT
 70
     1
  9
$DIMALTD
 70
     2
  9
$DIMALTF
 40
25.3999999999999986
  9
$DIMLFAC
 40
1.0
  9
$DIMTOFL
 70
     0
  9
$DIMTVP
 40
0.0
  9
$DIMTIX
 70
     0
  9
$DIMSOXD
 70
     0
  9
$DIMSAH
 70
     0
  9
$DIMBLK1
  1

  9
$DIMBLK2
  1

  9
$DIMSTYLE
  2
STANDARD
  9
$DIMCLRD
 70
     0
  9
$DIMCLRE
 70
     0
  9
$DIMCLRT
 70
     0
  9
$DIMTFAC
 40
1.0
  9
$DIMGAP
 40
0.09
  9
$LUNITS
 70
     2
  9
$LUPREC
 70
     4
  9
$SKETCHINC
 40
0.1
  9
$FILLETRAD
 40
0.0
  9
$AUNITS
 70
     0
  9
$AUPREC
 70
     0
  9
$MENU
  1
.
  9
$ELEVATION
 40
0.0
  9
$PELEVATION
 40
0.0
  9
$THICKNESS
 40
0.0
  9
$LIMCHECK
 70
     0
  9
$BLIPMODE
 70
     0
  9
$CHAMFERA
 40
0.0
  9
$CHAMFERB
 40
0.0
  9
$SKPOLY
 70
     0
  9
$TDCREATE
 40
2458060.468368056230247
  9
$TDUPDATE
 40
2460070.3832870381884277
  9
$TDINDWG
 40
0.6404700231
  9
$TDUSRTIMER
 40
0.6404700231
  9
$USRTIMER
 70
     1
  9
$ANGBASE
 50
0.0
  9
$ANGDIR
 70
     0
  9
$PDMODE
 70
     0
  9
$PDSIZE
 40
0.3125
  9
$PLINEWID
 40
0.0
  9
$COORDS
 70
     1
  9
$SPLFRAME
 70
     0
  9
$SPLINETYPE
 70
     6
  9
$SPLINESEGS
 70
     8
  9
$ATTDIA
 70
     1
  9
$ATTREQ
 70
     1
  9
$HANDLING
 70
     1
  9
$HANDSEED
  5
25790
  9
$SURFTAB1
 70
     6
  9
$SURFTAB2
 70
     6
  9
$SURFTYPE
 70
     6
  9
$SURFU
 70
     6
  9
$SURFV
 70
     6
  9
$UCSNAME
  2

  9
$UCSORG
 10
0.0
 20
0.0
 30
0.0
  9
$UCSXDIR
 10
1.0
 20
0.0
 30
0.0
  9
$UCSYDIR
 10
0.0
 20
1.0
 30
0.0
  9
$PUCSNAME
  2

  9
$PUCSORG
 10
0.0
 20
0.0
 30
0.0
  9
$PUCSXDIR
 10
1.0
 20
0.0
 30
0.0
  9
$PUCSYDIR
 10
0.0
 20
1.0
 30
0.0
  9
$USERI1
 70
     0
  9
$USERI2
 70
     0
  9
$USERI3
 70
     0
  9
$USERI4
 70
     0
  9
$USERI5
 70
     0
  9
$USERR1
 40
0.0
  9
$USERR2
 40
0.0
  9
$USERR3
 40
0.0
  9
$USERR4
 40
0.0
  9
$USERR5
 40
0.0
  9
$WORLDVIEW
 70
     1
  9
$SHADEDGE
 70
     3
  9
$SHADEDIF
 70
    70
  9
$TILEMODE
 70
     1
  9
$MAXACTVP
 70
    64
  9
$PLIMCHECK
 70
     0
  9
$PEXTMIN
 10
1.0000000000000000E+20
 20
1.0000000000000000E+20
 30
1.0000000000000000E+20
  9
$PEXTMAX
 10
-1.0000000000000000E+20
 20
-1.0000000000000000E+20
 30
-1.0000000000000000E+20
  9
$PLIMMIN
 10
0.0
 20
0.0
  9
$PLIMMAX
 10
12.0
 20
9.0
  9
$UNITMODE
 70
     0
  9
$VISRETAIN
 70
     1
  9
$PLINEGEN
 70
     0
  9
$PSLTSCALE
 70
     1
  0
ENDSEC
  0
SECTION
  2
TABLES
  0
TABLE
  2
VPORT
 70
     1
  0
VPORT
  2
*ACTIVE
 70
     0
 10
0.0
 20
0.0
 11
1.0
 21
1.0
 12
0.0529486335699394
 22
-0.0006661380596427
 13
0.0
 23
0.0
 14
1.0
 24
1.0
 15
0.0
 25
0.0
 16
0.0
 26
0.0
 36
26.2321229131171094
 17
3206.54736328125
 27
146.5192973716110032
 37
0.0
 40
6.7375885505191988
 41
2.3419117647058818
 42
50.0
 43
0.0
 44
0.0
 50
0.0
 51
0.0
 71
     0
 72
   100
 73
     1
 74
     1
 75
     0
 76
     0
 77
     0
 78
     0
  0
ENDTAB
  0
TABLE
  2
LTYPE
 70
     2
  0
LTYPE
  2
CONTINUOUS
 70
     0
  3
Solid line
 72
    65
 73
     0
 40
0.0
  0
LTYPE
  2
PHANTOM2
 70
     0
  3
___ _ _ ___ _ _ ___ _ _ ___ _ _
 72
    65
 73
     6
 40
1.25
 49
0.625
 49
-0.125
 49
0.125
 49
-0.125
 49
0.125
 49
-0.125
  0
ENDTAB
  0
TABLE
  2
LAYER
 70
     2
  0
LAYER
  2
0
 70
     0
 62
   255
  6
CONTINUOUS
  0
LAYER
  2
DEFPOINTS
 70
     0
 62
     7
  6
CONTINUOUS
  0
ENDTAB
  0
TABLE
  2
STYLE
 70
     1
  0
STYLE
  2
STANDARD
 70
     0
 40
0.0
 41
0.8
 50
0.0
 71
     0
 42
0.2
  3
txt
  4

  0
ENDTAB
  0
TABLE
  2
VIEW
 70
     0
  0
ENDTAB
  0
TABLE
  2
UCS
 70
     0
  0
ENDTAB
  0
TABLE
  2
APPID
 70
     9
  0
APPID
  2
ACAD
 70
     0
  0
APPID
  2
ACAD_MLEADERVER
 70
     0
  0
APPID
  2
ACAD_EXEMPT_FROM_CAD_STANDARDS
 70
     0
  0
APPID
  2
ACAD_NAV_VCDISPLAY
 70
     0
  0
APPID
  2
ACAECLAYERSTANDARD
 70
     0
  0
APPID
  2
ACCMTRANSPARENCY
 70
     0
  0
APPID
  2
ACAD_DSTYLE_DIMJAG
 70
     0
  0
APPID
  2
ACAD_DSTYLE_DIMTALN
 70
     0
  0
APPID
  2
ACDBATTR
 70
     0
  0
ENDTAB
  0
TABLE
  2
DIMSTYLE
 70
     1
  0
DIMSTYLE
  2
STANDARD
 70
     0
  3

  4

  5

  6

  7

 40
1.0
 41
0.1875
 42
0.0625
 43
0.38
 44
0.125
 45
0.0
 46
0.0
 47
0.01
 48
0.01
140
0.15625
141
0.09
142
0.0
143
25.3999999999999986
144
1.0
145
0.0
146
1.0
147
0.09
 71
     1
 72
     0
 73
     1
 74
     1
 75
     0
 76
     0
 77
     0
 78
     4
170
     0
171
     2
172
     0
173
     0
174
     0
175
     0
176
     0
177
     0
178
     0
  0
ENDTAB
  0
ENDSEC
  0
SECTION
  2
BLOCKS
  0
BLOCK
  8
0
  2
$MODEL_SPACE
 70
     0
 10
0.0
 20
0.0
 30
0.0
  3
$MODEL_SPACE
  1

  0
ENDBLK
  5
21
  8
0
  0
BLOCK
 67
     1
  8
0
  2
$PAPER_SPACE
 70
     0
 10
0.0
 20
0.0
 30
0.0
  3
$PAPER_SPACE
  1

  0
ENDBLK
  5
1D
 67
     1
  8
0
  0
BLOCK
  8
0
  2
_FILLED
 70
     0
 10
0.0
 20
0.0
 30
0.0
  3
_FILLED
  1

  0
SOLID
  5
211E5
  8
0
  6
BYBLOCK
 62
     0
 10
0.0
 20
0.0
 30
0.0
 11
-1.0
 21
0.1666666667
 31
0.0
 12
-1.0
 22
-0.1666666667
 32
0.0
 13
-1.0
 23
-0.1666666667
 33
0.0
  0
ENDBLK
  5
211E6
  8
0
  6
BYBLOCK
 62
     0
  0
ENDSEC
  0
SECTION
  2
ENTITIES
  0
ATTDEF
  5
24C12
  8
DEFPOINTS
 10
3207.1163958492711572
 20
143.1883819339772117
 30
0.0
 40
0.001
  1
K-98630T
  3

  2
MODELNUMBER
 70
     0
1001
ACDBATTR
1070
     0
1070
     1
  0
ATTDEF
  5
24C13
  8
DEFPOINTS
 10
3207.1163958492711572
 20
143.1867152673104897
 30
0.0
 40
0.001
  1
ARTIFACTS
  3

  2
TRADENAME
 70
     0
1001
ACDBATTR
1070
     0
1070
     1
  0
ATTDEF
  5
24C14
  8
DEFPOINTS
 10
3207.1163958492711572
 20
143.1850486006439098
 30
0.0
 40
0.001
  1
SOAP DISPENSER
  3

  2
PRODUCT
 70
     0
1001
ACDBATTR
1070
     0
1070
     1
  0
LINE
  5
25519
  8
0
 10
3204.3723264097161518
 20
148.6214807459257941
 30
0.0
 11
3206.5560819501101832
 21
148.6214807459257941
 31
0.0
  0
LINE
  5
2551A
  8
0
 10
3204.5927986999158747
 20
148.385260273525887
 30
0.0
 11
3204.621033251917197
 21
148.385260273525887
 31
0.0
  0
LINE
  5
2551B
  8
0
 10
3204.7548915218189904
 20
148.385260273525887
 30
0.0
 11
3206.556072622316151
 21
148.385260273525887
 31
0.0
  0
LINE
  5
2551D
  8
0
 10
3208.3671553301369386
 20
143.1902193392265872
 30
0.0
 11
3205.8906592057960552
 21
143.1902193392265872
 31
0.0
  0
LINE
  5
2551E
  8
0
 10
3208.7301812571668052
 20
146.2911265038511033
 30
0.0
 11
3208.7301812571668052
 21
143.6322454162911981
 31
0.0
  0
LINE
  5
2551F
  8
0
 10
3208.315090748181774
 20
146.7441557092687106
 30
0.0
 11
3205.9427237877498555
 21
146.7441557092687106
 31
0.0
  0
LINE
  5
25520
  8
0
 10
3207.8257938472120259
 20
147.1344753740590932
 30
0.0
 11
3206.4320206887200584
 21
147.1344753740590932
 31
0.0
  0
LINE
  5
25521
  8
0
 10
3207.7982005907501843
 20
147.3143941318259067
 30
0.0
 11
3206.4596139451818999
 21
147.3143941318259067
 31
0.0
  0
LINE
  5
25522
  8
0
 10
3207.7622149232429365
 20
147.7356539743259134
 30
0.0
 11
3206.4955996126891478
 21
147.7356539743259134
 31
0.0
  0
LINE
  5
25523
  8
0
 10
3207.5845626096052001
 20
148.2966928066259129
 30
0.0
 11
3207.1063227926279069
 21
148.2966928066259129
 31
0.0
  0
LINE
  5
25524
  8
0
 10
3207.4766981703160127
 20
148.4055397113259005
 30
0.0
 11
3207.2141872319170943
 21
148.4055397113259005
 31
0.0
  0
LINE
  5
25525
  8
0
 10
3207.5615813052559133
 20
148.9439696690531889
 30
0.0
 11
3207.1293040969771937
 21
148.9439696690531889
 31
0.0
  0
LINE
  5
25526
  8
0
 10
3207.8178836459660488
 20
147.6765988562258087
 30
0.0
 11
3207.8178836459660488
 21
147.3340791711258078
 31
0.0
  0
LINE
  5
25527
  8
0
 10
3207.5918967749162221
 20
149.1920251985162906
 30
0.0
 11
3207.5918967749162221
 21
148.9745471903258078
 31
0.0
  0
LINE
  5
25528
  8
0
 10
3206.9911119924167906
 20
148.1864413759259094
 30
0.0
 11
3206.9911119924167906
 21
147.7356539743259134
 31
0.0
  0
ARC
  5
25529
  8
0
 10
3207.3170045423630654
 20
148.5135807342660996
 30
0.0
 40
1.3425155371599911
 50
71.3768201350870015
 51
81.1801080085033675
  0
ARC
  5
2552A
  8
0
 10
3207.6663655437491798
 20
149.5080309122404003
 30
0.0
 40
0.2888850883490878
 50
55.7339076879380713
 51
74.0548679884448404
  0
ARC
  5
2552B
  8
0
 10
3207.7740231343677806
 20
149.6658337983473928
 30
0.0
 40
0.0978566527987267
 50
1.4655805177684591
 51
55.8057880440940011
  0
ARC
  5
2552C
  8
0
 10
3207.7594711850151725
 20
149.6796597362715033
 30
0.0
 40
0.1129456107658937
 50
306.1209896331383788
 51
354.2462711178181962
  0
ARC
  5
2552D
  8
0
 10
3206.3735016675459519
 20
151.1397144334900986
 30
0.0
 40
2.1251823473916138
 50
307.3396010412408828
 51
313.1173095740761028
  0
ARC
  5
2552E
  8
0
 10
3207.8395038944217958
 20
149.1813354319581038
 30
0.0
 40
0.321793955026258
 50
123.3694796008510934
 51
143.6215321376485861
  0
ARC
  5
2552F
  8
0
 10
3207.6925457487682252
 20
149.2939785237128092
 30
0.0
 40
0.1367105482461234
 50
145.1001065151149021
 51
218.6091107620007961
  0
ARC
  5
25530
  8
0
 10
3207.5608300185999724
 20
149.1899615464047884
 30
0.0
 40
0.0311352213427551
 50
3.8003680318661401
 51
36.934182141215409
  0
ARC
  5
25531
  8
0
 10
3207.5585345027998301
 20
148.9773069527483926
 30
0.0
 40
0.0334762227466189
 50
275.2219401764273243
 51
355.2711989675719906
  0
LINE
  5
25532
  8
0
 10
3207.4438678980159239
 20
148.9439696690531889
 30
0.0
 11
3207.4438678980159239
 21
148.4055397113259005
 31
0.0
  0
LINE
  5
25533
  8
0
 10
3207.6031201745167891
 20
148.2770077672259106
 30
0.0
 11
3207.6031201745167891
 21
147.7356539743259134
 31
0.0
  0
ARC
  5
25534
  8
0
 10
3207.4766981703160127
 20
148.3858546719258129
 30
0.0
 40
0.0196850394000041
 50
0.0000000000097707
 51
90.0
  0
LINE
  5
25535
  8
0
 10
3207.4963832097159866
 20
148.3858546719258129
 30
0.0
 11
3207.4963832097159866
 21
148.3753589582258883
 31
0.0
  0
ARC
  5
25536
  8
0
 10
3207.5160472926058901
 20
148.3753589582258883
 30
0.0
 40
0.0196640828893857
 50
180.0000000000113971
 51
242.8784677702697081
  0
ARC
  5
25537
  8
0
 10
3207.4667082507830855
 20
148.2790313009105887
 30
0.0
 40
0.0885641879635822
 50
20.1616949201664006
 51
62.8784677702697508
  0
ARC
  5
25538
  8
0
 10
3207.5683323370581093
 20
148.3163926810350119
 30
0.0
 40
0.0197101709713283
 50
200.2929927101035901
 51
268.1479297105228738
  0
ARC
  5
25539
  8
0
 10
3207.58314596363698
 20
148.2767674466938104
 30
0.0
 40
0.0199756565404201
 50
0.6893232452929088
 51
85.9332486716390918
  0
ARC
  5
2553A
  8
0
 10
3207.5130171940832042
 20
149.0649625026711931
 30
0.0
 40
0.1437992599485792
 50
56.7331226621582587
 51
118.9779166147361025
  0
ARC
  5
2553B
  8
0
 10
3207.5130171940832042
 20
149.1016098861709054
 30
0.0
 40
0.1437992599485792
 50
241.0220833852638975
 51
303.26687733784172
  0
LINE
  5
2553C
  8
0
 10
3207.4433504097769401
 20
148.9758133586904023
 30
0.0
 11
3207.4433504097769401
 21
149.1907590301516962
 31
0.0
  0
ARC
  5
2553D
  8
0
 10
3207.7563007913640831
 20
147.6743131605911117
 30
0.0
 40
0.0616252576914184
 50
2.125601797646206
 51
84.4928893681862263
  0
ARC
  5
2553E
  8
0
 10
3207.7975856552338882
 20
147.3346920606776962
 30
0.0
 40
0.0203072415990608
 50
271.73527243776158
 51
358.270502779330684
  0
ARC
  5
2553F
  8
0
 10
3207.7284810980959264
 20
147.1260463799351044
 30
0.0
 40
0.196216544310014
 50
52.290620537787909
 51
73.7188130482450816
  0
ARC
  5
25540
  8
0
 10
3207.785251741907814
 20
147.1994741638866913
 30
0.0
 40
0.103401968650888
 50
24.8130074850040998
 51
52.2906205377673174
  0
ARC
  5
25541
  8
0
 10
3207.8128048844168916
 20
147.2146241532738884
 30
0.0
 40
0.0720678903936386
 50
0.4849117761443166
 51
23.0728473987742717
  0
ARC
  5
25542
  8
0
 10
3207.7848445041800005
 20
147.2264175264949984
 30
0.0
 40
0.1006489348646244
 50
294.0073115552938816
 51
353.6204964236425212
  0
ARC
  5
25543
  8
0
 10
3207.8550764323222211
 20
147.0819446221719886
 30
0.0
 40
0.0601410815043127
 50
119.1369131824793044
 51
197.9903863838663938
  0
ARC
  5
25544
  8
0
 10
3208.15582186890515
 20
147.1820471533912951
 30
0.0
 40
0.3771071290953768
 50
198.343014001148191
 51
238.6874989928660113
  0
ARC
  5
25545
  8
0
 10
3208.4131483552209829
 20
147.6484070891825979
 30
0.0
 40
0.9095525561363745
 50
240.1065143635537993
 51
263.8109924603954255
  0
ARC
  5
25546
  8
0
 10
3208.2496422084518599
 20
146.2675090364018047
 30
0.0
 40
0.4811190726920136
 50
2.813701083379641
 51
82.1815861277795534
  0
ARC
  5
25547
  8
0
 10
3208.2721014823791847
 20
143.6383703867074928
 30
0.0
 40
0.458120721351812
 50
281.975093046008908
 51
359.2339455650749187
  0
LINE
  5
25548
  8
0
 10
3205.5276332787661886
 20
146.2911265038511033
 30
0.0
 11
3205.5276332787661886
 21
143.6322454162911981
 31
0.0
  0
LINE
  5
25549
  8
0
 10
3206.4399308899660355
 20
147.6765988562258087
 30
0.0
 11
3206.4399308899660355
 21
147.3340791711258078
 31
0.0
  0
LINE
  5
2554A
  8
0
 10
3207.0989886273159755
 20
149.1920251985162906
 30
0.0
 11
3207.0989886273159755
 21
148.9745471903258078
 31
0.0
  0
LINE
  5
2554B
  8
0
 10
3206.7548915200168267
 20
148.1864413759259094
 30
0.0
 11
3206.7548915200168267
 21
147.7356539743259134
 31
0.0
  0
ARC
  5
2554C
  8
0
 10
3207.3738808598709511
 20
148.5135807342660996
 30
0.0
 40
1.3425155371599911
 50
98.8198919914966467
 51
108.6231798649129985
  0
ARC
  5
2554D
  8
0
 10
3207.0245198584839272
 20
149.5080309122404003
 30
0.0
 40
0.2888850883490878
 50
105.9451320115551027
 51
124.2660923120619003
  0
ARC
  5
2554E
  8
0
 10
3206.9168622678639622
 20
149.6658337983473928
 30
0.0
 40
0.0978566527987267
 50
124.1942119559059989
 51
178.5344194822314989
  0
ARC
  5
2554F
  8
0
 10
3206.9314142172179345
 20
149.6796597362715033
 30
0.0
 40
0.1129456107658937
 50
185.7537288821816901
 51
233.8790103668615927
  0
ARC
  5
25550
  8
0
 10
3208.3173837346871551
 20
151.1397144334900986
 30
0.0
 40
2.1251823473916138
 50
226.882690425923812
 51
232.6603989587590036
  0
ARC
  5
25551
  8
0
 10
3206.8513815078108564
 20
149.1813354319581038
 30
0.0
 40
0.321793955026258
 50
36.3784678623513997
 51
56.6305203991488995
  0
ARC
  5
25552
  8
0
 10
3206.9983396534648818
 20
149.2939785237128092
 30
0.0
 40
0.1367105482461234
 50
321.3908892379992039
 51
34.8998934848850979
  0
ARC
  5
25553
  8
0
 10
3207.1300553836331346
 20
149.1899615464047884
 30
0.0
 40
0.0311352213427551
 50
143.0658178587846123
 51
176.1996319681339003
  0
ARC
  5
25554
  8
0
 10
3207.1323508994328222
 20
148.9773069527483926
 30
0.0
 40
0.0334762227466189
 50
184.7288010324278957
 51
264.7780598235726757
  0
LINE
  5
25555
  8
0
 10
3207.2470175042158189
 20
148.9439696690531889
 30
0.0
 11
3207.2470175042158189
 21
148.4055397113259005
 31
0.0
  0
LINE
  5
25556
  8
0
 10
3207.0877652277158631
 20
148.2770077672259106
 30
0.0
 11
3207.0877652277158631
 21
147.7356539743259134
 31
0.0
  0
ARC
  5
25557
  8
0
 10
3207.2141872319170943
 20
148.3858546719258129
 30
0.0
 40
0.0196850394000041
 50
90.0
 51
179.9999999999901945
  0
LINE
  5
25558
  8
0
 10
3207.1945021925162109
 20
148.3858546719258129
 30
0.0
 11
3207.1945021925162109
 21
148.3753589582258883
 31
0.0
  0
ARC
  5
25559
  8
0
 10
3207.1748381096272169
 20
148.3753589582258883
 30
0.0
 40
0.0196640828893857
 50
297.1215322297301782
 51
359.9999999999885745
  0
ARC
  5
2555A
  8
0
 10
3207.224177151449112
 20
148.2790313009105887
 30
0.0
 40
0.0885641879635822
 50
117.1215322297302066
 51
159.8383050798335887
  0
ARC
  5
2555B
  8
0
 10
3207.1225530651749978
 20
148.3163926810350119
 30
0.0
 40
0.0197101709713283
 50
271.8520702894771262
 51
339.7070072898964099
  0
ARC
  5
2555C
  8
0
 10
3207.107739438596127
 20
148.2767674466938104
 30
0.0
 40
0.0199756565404201
 50
94.0667513283609225
 51
179.3106767547070888
  0
ARC
  5
2555D
  8
0
 10
3207.1778682081489933
 20
149.0649625026711931
 30
0.0
 40
0.1437992599485792
 50
61.0220833852639117
 51
123.2668773378417058
  0
ARC
  5
2555E
  8
0
 10
3207.1778682081489933
 20
149.1016098861709054
 30
0.0
 40
0.1437992599485792
 50
236.7331226621581948
 51
298.9779166147361025
  0
LINE
  5
2555F
  8
0
 10
3207.2475349924561669
 20
148.9758133586904023
 30
0.0
 11
3207.2475349924561669
 21
149.1907590301516962
 31
0.0
  0
ARC
  5
25560
  8
0
 10
3206.5015137445689106
 20
147.6743131605911117
 30
0.0
 40
0.0616252576914184
 50
95.5071106318137879
 51
177.8743982023538024
  0
ARC
  5
25561
  8
0
 10
3206.460228880698196
 20
147.3346920606776962
 30
0.0
 40
0.0203072415990608
 50
181.7294972206692023
 51
268.26472756223842
  0
ARC
  5
25562
  8
0
 10
3206.5293334378361578
 20
147.1260463799351044
 30
0.0
 40
0.196216544310014
 50
106.2811869517549042
 51
127.7093794622120981
  0
ARC
  5
25563
  8
0
 10
3206.4725627940260893
 20
147.1994741638866913
 30
0.0
 40
0.103401968650888
 50
127.7093794622327039
 51
155.1869925149958931
  0
ARC
  5
25564
  8
0
 10
3206.4450096515170117
 20
147.2146241532738884
 30
0.0
 40
0.0720678903936386
 50
156.9271526012257141
 51
179.5150882238557131
  0
ARC
  5
25565
  8
0
 10
3206.4729700317529932
 20
147.2264175264949984
 30
0.0
 40
0.1006489348646244
 50
186.3795035763575072
 51
245.99268844470609
  0
ARC
  5
25566
  8
0
 10
3206.4027381036107727
 20
147.0819446221719886
 30
0.0
 40
0.0601410815043127
 50
342.0096136161334925
 51
60.8630868175206672
  0
ARC
  5
25567
  8
0
 10
3206.1019926670269342
 20
147.1820471533912951
 30
0.0
 40
0.3771071290953768
 50
301.3125010071339034
 51
341.6569859988517806
  0
ARC
  5
25568
  8
0
 10
3205.8446661807120108
 20
147.6484070891825979
 30
0.0
 40
0.9095525561363745
 50
276.1890075396045745
 51
299.8934856364462007
  0
ARC
  5
25569
  8
0
 10
3206.0081723274811338
 20
146.2675090364018047
 30
0.0
 40
0.4811190726920136
 50
97.8184138722204466
 51
177.1862989166203874
  0
ARC
  5
2556A
  8
0
 10
3205.985713053553809
 20
143.6383703867074928
 30
0.0
 40
0.458120721351812
 50
180.7660544349251097
 51
258.024906953991092
  0
ARC
  5
2556B
  8
0
 10
3207.3454427011170083
 20
148.6810318831896041
 30
0.0
 40
1.1726865820362451
 50
81.2986770474031744
 51
98.7013229525968114
  0
ARC
  5
2556C
  8
0
 10
3207.3454427011170083
 20
148.9933357015237902
 30
0.0
 40
0.2203676248945606
 50
63.6219105448289994
 51
116.3780894551709935
  0
ARC
  5
2556D
  8
0
 10
3207.3454427011170083
 20
149.1969259796441918
 30
0.0
 40
0.2418195826648372
 50
246.116445310388599
 51
293.8835546896107189
  0
ARC
  5
2556F
  8
0
 10
3206.5560726222461199
 20
148.1864413757550949
 30
0.0
 40
0.1988188977707121
 50
0.0000000491969216
 51
89.9999999796249028
  0
ARC
  5
25570
  8
0
 10
3206.556072622316151
 20
148.1864413759259094
 30
0.0
 40
0.4350393701000018
 50
0.0
 51
89.9987715060435107
  0
ARC
  5
25571
  8
0
 10
3204.7549094017272182
 20
148.3931935463403136
 30
0.0
 40
0.0079332929631595
 50
238.9905149835001055
 51
269.8708677325391818
  0
ARC
  5
25572
  8
0
 10
3204.6879605834451468
 20
148.2818136595363114
 30
0.0
 40
0.1220190962173251
 50
58.9905420161987522
 51
121.0080872162851051
  0
ARC
  5
25573
  8
0
 10
3204.6210085868628994
 20
148.3932048765908007
 30
0.0
 40
0.0079446413528385
 50
270.1778816251219268
 51
301.0080872162843093
  0
ARC
  5
25574
  8
0
 10
3204.5928023630071948
 20
148.3931431004554895
 30
0.0
 40
0.0078828277807127
 50
225.0269946920797963
 51
269.973375083881308
  0
ARC
  5
25575
  8
0
 10
3160.9985929079289235
 20
105.0197711755956931
 30
0.0
 40
61.4876820085492
 50
44.8544865321727073
 51
45.1450255484217422
  0
ARC
  5
25576
  8
0
 10
3204.3723281510210654
 20
148.6136067297647969
 30
0.0
 40
0.0078740163535948
 50
90.012670714793245
 51
224.9898747254063949
  0
ENDSEC
  0
EOF
