  0
SECTION
  2
HEADER
  9
$ACADVER
  1
AC1009
  9
$INSBASE
 10
212.0230145440787055
 20
67.4683012450125972
 30
0.0
  9
$EXTMIN
 10
204.5600738865410904
 20
67.4647922969111846
 30
-0.0015258207003583
  9
$EXTMAX
 10
219.4793658545409869
 20
98.4823964474063729
 30
0.0000000349246037
  9
$LIMMIN
 10
0.0
 20
0.0
  9
$LIMMAX
 10
11.6929133858000007
 20
8.2677165353999982
  9
$ORTHOMODE
 70
     0
  9
$REGENMODE
 70
     1
  9
$FILLMODE
 70
     1
  9
$QTEXTMODE
 70
     0
  9
$MIRRTEXT
 70
     0
  9
$DRAGMODE
 70
     2
  9
$LTSCALE
 40
0.6431102362
  9
$OSMODE
 70
  2039
  9
$ATTMODE
 70
     1
  9
$TEXTSIZE
 40
0.2
  9
$TRACEWID
 40
0.05
  9
$TEXTSTYLE
  7
STANDARD
  9
$CLAYER
  8
0
  9
$CELTYPE
  6
BYLAYER
  9
$CECOLOR
 62
   256
  9
$DIMSCALE
 40
1.0
  9
$DIMASZ
 40
0.1875
  9
$DIMEXO
 40
0.0625
  9
$DIMDLI
 40
0.4443307087
  9
$DIMRND
 40
0.0
  9
$DIMDLE
 40
0.0
  9
$DIMEXE
 40
0.125
  9
$DIMTP
 40
0.01
  9
$DIMTM
 40
0.01
  9
$DIMTXT
 40
1.0
  9
$DIMCEN
 40
0.1052362205
  9
$DIMTSZ
 40
0.0
  9
$DIMTOL
 70
     1
  9
$DIMLIM
 70
     0
  9
$DIMTIH
 70
     0
  9
$DIMTOH
 70
     1
  9
$DIMSE1
 70
     0
  9
$DIMSE2
 70
     0
  9
$DIMTAD
 70
     0
  9
$DIMZIN
 70
     0
  9
$DIMBLK
  1

  9
$DIMASO
 70
     1
  9
$DIMSHO
 70
     1
  9
$DIMPOST
  1
\X
  9
$DIMAPOST
  1

  9
$DIMALT
 70
     1
  9
$DIMALTD
 70
     2
  9
$DIMALTF
 40
25.3999999999999986
  9
$DIMLFAC
 40
1.0
  9
$DIMTOFL
 70
     0
  9
$DIMTVP
 40
0.0
  9
$DIMTIX
 70
     0
  9
$DIMSOXD
 70
     0
  9
$DIMSAH
 70
     0
  9
$DIMBLK1
  1

  9
$DIMBLK2
  1

  9
$DIMSTYLE
  2
STANDARD
  9
$DIMCLRD
 70
     0
  9
$DIMCLRE
 70
     0
  9
$DIMCLRT
 70
     0
  9
$DIMTFAC
 40
1.0
  9
$DIMGAP
 40
0.09
  9
$LUNITS
 70
     2
  9
$LUPREC
 70
     4
  9
$SKETCHINC
 40
0.1
  9
$FILLETRAD
 40
0.0
  9
$AUNITS
 70
     0
  9
$AUPREC
 70
     0
  9
$MENU
  1
.
  9
$ELEVATION
 40
0.0
  9
$PELEVATION
 40
0.0
  9
$THICKNESS
 40
0.0
  9
$LIMCHECK
 70
     0
  9
$BLIPMODE
 70
     0
  9
$CHAMFERA
 40
0.0
  9
$CHAMFERB
 40
0.0
  9
$SKPOLY
 70
     0
  9
$TDCREATE
 40
2458172.5207638889551163
  9
$TDUPDATE
 40
2459140.3845717590302229
  9
$TDINDWG
 40
0.2885504398
  9
$TDUSRTIMER
 40
0.2885504398
  9
$USRTIMER
 70
     1
  9
$ANGBASE
 50
0.0
  9
$ANGDIR
 70
     0
  9
$PDMODE
 70
     0
  9
$PDSIZE
 40
0.3125
  9
$PLINEWID
 40
0.0
  9
$COORDS
 70
     1
  9
$SPLFRAME
 70
     0
  9
$SPLINETYPE
 70
     6
  9
$SPLINESEGS
 70
     8
  9
$ATTDIA
 70
     1
  9
$ATTREQ
 70
     1
  9
$HANDLING
 70
     1
  9
$HANDSEED
  5
1BA5F
  9
$SURFTAB1
 70
     6
  9
$SURFTAB2
 70
     6
  9
$SURFTYPE
 70
     6
  9
$SURFU
 70
     6
  9
$SURFV
 70
     6
  9
$UCSNAME
  2

  9
$UCSORG
 10
0.0
 20
0.0
 30
0.0
  9
$UCSXDIR
 10
1.0
 20
0.0
 30
0.0
  9
$UCSYDIR
 10
0.0
 20
1.0
 30
0.0
  9
$PUCSNAME
  2

  9
$PUCSORG
 10
0.0
 20
0.0
 30
0.0
  9
$PUCSXDIR
 10
1.0
 20
0.0
 30
0.0
  9
$PUCSYDIR
 10
0.0
 20
1.0
 30
0.0
  9
$USERI1
 70
     0
  9
$USERI2
 70
     0
  9
$USERI3
 70
     0
  9
$USERI4
 70
     0
  9
$USERI5
 70
     0
  9
$USERR1
 40
0.0
  9
$USERR2
 40
0.0
  9
$USERR3
 40
0.0
  9
$USERR4
 40
0.0
  9
$USERR5
 40
0.0
  9
$WORLDVIEW
 70
     1
  9
$SHADEDGE
 70
     3
  9
$SHADEDIF
 70
    70
  9
$TILEMODE
 70
     1
  9
$MAXACTVP
 70
    64
  9
$PLIMCHECK
 70
     0
  9
$PEXTMIN
 10
1.0000000000000000E+20
 20
1.0000000000000000E+20
 30
1.0000000000000000E+20
  9
$PEXTMAX
 10
-1.0000000000000000E+20
 20
-1.0000000000000000E+20
 30
-1.0000000000000000E+20
  9
$PLIMMIN
 10
0.0
 20
0.0
  9
$PLIMMAX
 10
12.0
 20
9.0
  9
$UNITMODE
 70
     0
  9
$VISRETAIN
 70
     1
  9
$PLINEGEN
 70
     0
  9
$PSLTSCALE
 70
     1
  0
ENDSEC
  0
SECTION
  2
TABLES
  0
TABLE
  2
VPORT
 70
     1
  0
VPORT
  2
*ACTIVE
 70
     0
 10
0.0
 20
0.0
 11
1.0
 21
1.0
 12
-217.6095692375126873
 22
13.2710528599400792
 13
0.0
 23
0.0
 14
1.0
 24
1.0
 15
0.0
 25
0.0
 16
0.0
 26
0.0
 36
14.6338572656650907
 17
429.6292891080536833
 27
69.7025415122186871
 37
0.0
 40
31.2966230783856894
 41
2.848348348348348
 42
50.0
 43
0.0
 44
0.0
 50
0.0
 51
0.0
 71
     0
 72
   100
 73
     1
 74
     1
 75
     0
 76
     0
 77
     0
 78
     0
  0
ENDTAB
  0
TABLE
  2
LTYPE
 70
     2
  0
LTYPE
  2
CONTINUOUS
 70
     0
  3
Solid line
 72
    65
 73
     0
 40
0.0
  0
LTYPE
  2
PHANTOM2
 70
     0
  3
___ _ _ ___ _ _ ___ _ _ ___ _ _
 72
    65
 73
     6
 40
1.25
 49
0.625
 49
-0.125
 49
0.125
 49
-0.125
 49
0.125
 49
-0.125
  0
ENDTAB
  0
TABLE
  2
LAYER
 70
     2
  0
LAYER
  2
0
 70
     0
 62
   255
  6
CONTINUOUS
  0
LAYER
  2
DEFPOINTS
 70
     0
 62
     7
  6
CONTINUOUS
  0
ENDTAB
  0
TABLE
  2
STYLE
 70
     1
  0
STYLE
  2
STANDARD
 70
     0
 40
0.0
 41
0.8
 50
0.0
 71
     0
 42
0.2
  3
txt
  4

  0
ENDTAB
  0
TABLE
  2
VIEW
 70
     0
  0
ENDTAB
  0
TABLE
  2
UCS
 70
     0
  0
ENDTAB
  0
TABLE
  2
APPID
 70
    10
  0
APPID
  2
ACAD
 70
     0
  0
APPID
  2
ACAD_MLEADERVER
 70
     0
  0
APPID
  2
ACAD_EXEMPT_FROM_CAD_STANDARDS
 70
     0
  0
APPID
  2
ACAD_DSTYLE_DIMJAG
 70
     0
  0
APPID
  2
ACAD_DSTYLE_DIMTALN
 70
     0
  0
APPID
  2
ACAD_NAV_VCDISPLAY
 70
     0
  0
APPID
  2
ACAECLAYERSTANDARD
 70
     0
  0
APPID
  2
ACCMTRANSPARENCY
 70
     0
  0
APPID
  2
DCO15
 70
     0
  0
APPID
  2
ACDBATTR
 70
     0
  0
ENDTAB
  0
TABLE
  2
DIMSTYLE
 70
     1
  0
DIMSTYLE
  2
STANDARD
 70
     0
  3

  4

  5

  6

  7

 40
1.0
 41
0.1875
 42
0.0625
 43
0.38
 44
0.125
 45
0.0
 46
0.0
 47
0.01
 48
0.01
140
0.15625
141
0.09
142
0.0
143
25.3999999999999986
144
1.0
145
0.0
146
1.0
147
0.09
 71
     1
 72
     0
 73
     1
 74
     1
 75
     0
 76
     0
 77
     0
 78
     4
170
     0
171
     2
172
     0
173
     0
174
     0
175
     0
176
     0
177
     0
178
     0
  0
ENDTAB
  0
ENDSEC
  0
SECTION
  2
BLOCKS
  0
BLOCK
  8
0
  2
$MODEL_SPACE
 70
     0
 10
0.0
 20
0.0
 30
0.0
  3
$MODEL_SPACE
  1

  0
ENDBLK
  5
21
  8
0
  0
BLOCK
 67
     1
  8
0
  2
$PAPER_SPACE
 70
     0
 10
0.0
 20
0.0
 30
0.0
  3
$PAPER_SPACE
  1

  0
ENDBLK
  5
1D
 67
     1
  8
0
  0
BLOCK
  8
0
  2
_FILLED
 70
     0
 10
0.0
 20
0.0
 30
0.0
  3
_FILLED
  1

  0
SOLID
  5
87E2
  8
0
  6
BYBLOCK
 62
     0
 10
0.0
 20
0.0
 30
0.0
 11
-1.0
 21
0.1666666667
 31
0.0
 12
-1.0
 22
-0.1666666667
 32
0.0
 13
-1.0
 23
-0.1666666667
 33
0.0
  0
ENDBLK
  5
87E3
  8
0
  6
BYBLOCK
 62
     0
  0
ENDSEC
  0
SECTION
  2
ENTITIES
  0
ATTDEF
  5
1B24A
  8
DEFPOINTS
 10
212.0243514034945065
 20
67.4715621471022757
 30
0.0
 40
0.001
  1
K-98695IN-S
  3

  2
MODELNUMBER
 70
     0
1001
ACDBATTR
1070
     0
1070
     1
  0
ATTDEF
  5
1B24B
  8
DEFPOINTS
 10
212.0243514034945065
 20
67.4698954804356106
 30
0.0
 40
0.001
  1
ODEON
  3

  2
TRADENAME
 70
     0
1001
ACDBATTR
1070
     0
1070
     1
  0
ATTDEF
  5
1B24C
  8
DEFPOINTS
 10
212.0243514034945065
 20
67.4682288137689454
 30
0.0
 40
0.001
  1
TOILET
  3

  2
PRODUCT
 70
     0
1001
ACDBATTR
1070
     0
1070
     1
  0
LINE
  5
1B720
  8
0
 10
217.7055486669489994
 20
98.1583012450125949
 30
0.0
 11
206.3404804212084969
 21
98.1583012450125949
 31
0.0
  0
ARC
  5
1B722
  8
0
 10
206.3430700744881108
 20
97.841397710113327
 30
0.0
 40
0.3169141157092434
 50
90.4681957895641062
 51
137.2490361375294867
  0
ARC
  5
1B723
  8
0
 10
206.3407205516382135
 20
97.8435696599959925
 30
0.0
 40
0.3137144869939972
 50
137.2490361375288899
 51
172.2312027788665887
  0
LINE
  5
1B724
  8
0
 10
206.0298854607316059
 20
97.8859763294126139
 30
0.0
 11
205.8865949881580093
 21
96.8356767496253923
 31
0.0
  0
LINE
  5
1B725
  8
0
 10
206.0033912884562142
 20
96.7016083332335938
 30
0.0
 11
218.0132645907042104
 21
96.7016083315899522
 31
0.0
  0
ARC
  5
1B726
  8
0
 10
310.264228747646996
 20
82.7161390469365045
 30
0.0
 40
105.3006402126245007
 50
172.442961985268397
 51
178.6402694310899051
  0
ARC
  5
1B727
  8
0
 10
212.0367311865030899
 20
26.8663141969934607
 30
0.0
 40
58.7875127727662132
 50
90.0133685827160122
 51
91.6248395049065749
  0
ARC
  5
1B728
  8
0
 10
212.5814073620155114
 20
12.0410750308607408
 30
0.0
 40
73.6223398148113688
 50
91.7214093194900641
 51
94.0088538917394629
  0
ARC
  5
1B729
  8
0
 10
210.9906992639616021
 20
31.6002047373845301
 30
0.0
 40
54.0003046437182022
 50
93.776037361386102
 51
95.4522001212614697
  0
ARC
  5
1B72A
  8
0
 10
210.5599298850603986
 20
36.5336545651535403
 30
0.0
 40
49.048261242894867
 50
95.4988475440060398
 51
96.2450888756201124
  0
ARC
  5
1B72B
  8
0
 10
205.2956739342531876
 20
84.6806515529301151
 30
0.0
 40
0.6143465052815223
 50
96.6642698580150181
 51
109.7611386013249017
  0
ARC
  5
1B72C
  8
0
 10
205.285531145490495
 20
84.7088843007076235
 30
0.0
 40
0.584347101771559
 50
109.7611386013249017
 51
120.0133540447374969
  0
ARC
  5
1B72D
  8
0
 10
205.2888302572895896
 20
84.7031731459337607
 30
0.0
 40
0.5909426629693576
 50
120.0133540447374969
 51
173.9850821610488083
  0
ARC
  5
1B72E
  8
0
 10
252.6723943077869876
 20
79.3673140869313158
 30
0.0
 40
48.2739806135760503
 50
173.5800144797051132
 51
175.157032757894001
  0
ARC
  5
1B72F
  8
0
 10
204.904796280952695
 20
83.4122274712152034
 30
0.0
 40
0.3354368723471034
 50
174.7620586436638064
 51
183.3517562976311126
  0
ARC
  5
1B730
  8
0
 10
204.6494944805623959
 20
83.3953779189552336
 30
0.0
 40
0.079609206145447
 50
181.9882755513148993
 51
270.0004809620190258
  0
LINE
  5
1B731
  8
0
 10
204.6494951488315905
 20
83.3157687128125986
 30
0.0
 11
219.3965427143243971
 21
83.3157769742708467
 31
0.0
  0
ARC
  5
1B732
  8
0
 10
205.1449440279330076
 20
83.3643834452222308
 30
0.0
 40
0.1753174926781853
 50
196.0987888961441001
 51
221.0713749096921106
  0
ARC
  5
1B733
  8
0
 10
205.1203227007273995
 20
83.3429265449796759
 30
0.0
 40
0.1426585226793872
 50
221.0713749096921106
 51
248.430182696230105
  0
ARC
  5
1B734
  8
0
 10
205.1555268658663067
 20
83.431979147171603
 30
0.0
 40
0.238417069035719
 50
248.430182696230105
 51
254.8674056247901945
  0
ARC
  5
1B735
  8
0
 10
205.1295805378200896
 20
83.3580735625594542
 30
0.0
 40
0.1604040401888586
 50
256.9229035670679764
 51
269.728455802281303
  0
LINE
  5
1B736
  8
0
 10
205.1288203313316103
 20
83.1976713238125996
 30
0.0
 11
218.9166349092591872
 21
83.1976713082126054
 31
0.0
  0
ARC
  5
1B737
  8
0
 10
205.252155677462099
 20
82.8778723176810388
 30
0.0
 40
0.3198612594208849
 50
91.1304334619909042
 51
101.1695705436761017
  0
ARC
  5
1B738
  8
0
 10
205.2510792222564078
 20
82.8833240080752631
 30
0.0
 40
0.3143043102611352
 50
101.1695705436761017
 51
128.1810912247358942
  0
ARC
  5
1B739
  8
0
 10
205.2518747411004938
 20
82.8823123971602627
 30
0.0
 40
0.3155912472737889
 50
128.1810912247358942
 51
156.2475097008098999
  0
ARC
  5
1B73A
  8
0
 10
205.2506123049548137
 20
82.8828679478540238
 30
0.0
 40
0.3142119787737765
 50
156.2475097008098999
 51
180.0286748878779974
  0
LINE
  5
1B73B
  8
0
 10
204.9364003655315969
 20
82.8827106938125837
 30
0.0
 11
204.9364003655315969
 21
80.8551517405426949
 31
0.0
  0
ARC
  5
1B73C
  8
0
 10
219.1096248960886896
 20
80.8551512884683348
 30
0.0
 40
14.1732245305571496
 50
179.9999981724729992
 51
190.4883392253840952
  0
ARC
  5
1B73D
  8
0
 10
219.1096310812222896
 20
80.8551525052810263
 30
0.0
 40
14.1732308338522692
 50
190.4883395106614046
 51
209.6932226610387033
  0
ARC
  5
1B73E
  8
0
 10
219.1096261461428867
 20
80.8551496911350966
 30
0.0
 40
14.17322515279381
 50
209.6932226610387033
 51
224.7057001404878065
  0
ARC
  5
1B73F
  8
0
 10
217.5777045103112073
 20
79.2202582721392332
 30
0.0
 40
11.9346515084669402
 50
224.3009340294337051
 51
234.3160302916963929
  0
ARC
  5
1B740
  8
0
 10
212.4101071266555891
 20
72.1885002582013016
 30
0.0
 40
3.210222069294542
 50
236.0232837363965928
 51
250.8624532121880861
  0
ARC
  5
1B741
  8
0
 10
212.0334345159361931
 20
71.1459713510682974
 30
0.0
 40
2.1018691628381658
 50
251.2461574424150967
 51
269.7159562231013865
  0
LINE
  5
1B742
  8
0
 10
205.0534564996549989
 20
81.7409784104125947
 30
0.0
 11
218.9925725885028953
 21
81.7409784104125947
 31
0.0
  0
ARC
  5
1B743
  8
0
 10
205.0552817961236087
 20
81.8592326246711792
 30
0.0
 40
0.1189307003491641
 50
181.6492855237704873
 51
229.0124565703519863
  0
ARC
  5
1B744
  8
0
 10
205.0534718548364879
 20
81.8571496109388335
 30
0.0
 40
0.116171201541036
 50
229.0124565703519863
 51
269.9924268061175212
  0
ARC
  5
1B745
  8
0
 10
215.0611730588585999
 20
82.855070191978669
 30
0.0
 40
9.0626732222155137
 50
187.0613421628729895
 51
199.0916013927775907
  0
ARC
  5
1B746
  8
0
 10
213.6779287428610985
 20
82.3763059637119852
 30
0.0
 40
7.5989177699601527
 50
199.0916013927775907
 51
220.4249407125772109
  0
ARC
  5
1B747
  8
0
 10
237.3727375476103134
 20
102.5599605866700017
 30
0.0
 40
38.7248535507920835
 50
220.4249407125772109
 51
223.602227339447893
  0
ARC
  5
1B748
  8
0
 10
208.8062320186901104
 20
75.3543273677301926
 30
0.0
 40
0.7237423301427302
 50
26.0295600115289716
 51
43.6022273394478717
  0
ARC
  5
1B749
  8
0
 10
207.1352212166189872
 20
74.2544464967709104
 30
0.0
 40
2.719906547277342
 50
22.6363089035192111
 51
31.4095435778238397
  0
ARC
  5
1B74A
  8
0
 10
207.662104286249388
 20
74.5602539950203038
 30
0.0
 40
2.1174034407637401
 50
0.5663033271552739
 51
20.4855740211860287
  0
ARC
  5
1B74B
  8
0
 10
464.3685771800808197
 20
83.073368608254853
 30
0.0
 40
254.7307680351160002
 50
181.9104745106697862
 51
182.6340122537073114
  0
ARC
  5
1B74C
  8
0
 10
211.9333474612226098
 20
71.4013565465478166
 30
0.0
 40
2.0266982377028002
 50
180.9723765552058978
 51
213.7773315755190993
  0
ARC
  5
1B74D
  8
0
 10
212.0196928472446984
 20
71.4429806576563777
 30
0.0
 40
2.1216528955877161
 50
213.4152691627787135
 51
236.7786785583004985
  0
ARC
  5
1B74E
  8
0
 10
212.0229291321936103
 20
71.4439900502854783
 30
0.0
 40
2.1242714842113011
 50
236.7205720969841138
 51
270.0023037265108883
  0
LINE
  5
1B74F
  8
0
 10
209.2213135470506984
 20
75.9683903195531229
 30
0.0
 11
209.5225501475819954
 21
71.3514386220987262
 31
0.0
  0
ARC
  5
1B750
  8
0
 10
211.858603600964102
 20
71.5038562446058705
 30
0.0
 40
2.341020475926868
 50
183.7330164843257876
 51
204.4096018406968085
  0
ARC
  5
1B751
  8
0
 10
211.8303809598455985
 20
71.4910481834906477
 30
0.0
 40
2.3100275105761092
 50
204.4096018406968085
 51
224.0530520973563
  0
ARC
  5
1B752
  8
0
 10
211.8240348320215958
 20
71.484908433047309
 30
0.0
 40
2.301197455431077
 50
224.0530520973563
 51
228.3461996412711983
  0
LINE
  5
1B753
  8
0
 10
211.0426995781315895
 20
98.1583011957125962
 30
0.0
 11
211.0426995781315895
 21
98.197671323712612
 31
0.0
  0
ARC
  5
1B754
  8
0
 10
211.2001798931316046
 20
98.197671323712612
 30
0.0
 40
0.1574803150000015
 50
90.0
 51
179.9999999999992042
  0
LINE
  5
1B755
  8
0
 10
211.2001798931316046
 20
98.3551516387125986
 30
0.0
 11
212.8458491844315859
 21
98.355151638712627
 31
0.0
  0
ARC
  5
1B756
  8
0
 10
212.8458491844315859
 20
98.197671323712612
 30
0.0
 40
0.1574803150000008
 50
359.9999999999935199
 51
90.0000000000016058
  0
LINE
  5
1B757
  8
0
 10
213.0033294994316009
 20
98.197671323712612
 30
0.0
 11
213.0033294994316009
 21
98.1583011957125962
 31
0.0
  0
ARC
  5
1B758
  8
0
 10
212.023014535927814
 20
96.9215671129344969
 30
0.0
 40
1.5905511742775991
 50
109.0234586120926963
 51
115.6687981913524936
  0
ARC
  5
1B759
  8
0
 10
211.6582075581733875
 20
97.9796360237950239
 30
0.0
 40
0.4713577365074186
 50
82.3198252188816468
 51
109.0234586120926963
  0
ARC
  5
1B75A
  8
0
 10
211.6571516153171046
 20
97.9718056973694331
 30
0.0
 40
0.4792589406717881
 50
63.9149221853303899
 51
82.3198252188816468
  0
ARC
  5
1B75B
  8
0
 10
214.1906034910024914
 20
87.6869305156166661
 30
0.0
 40
10.9641716754992302
 50
102.2305720733427989
 51
103.3425721520300016
  0
ARC
  5
1B75C
  8
0
 10
216.2729341426826011
 20
78.0805885974864253
 30
0.0
 40
20.7936124526214492
 50
101.2905265254574942
 51
102.2305720733427989
  0
ARC
  5
1B75D
  8
0
 10
212.2899059117690967
 20
98.0308643581481505
 30
0.0
 40
0.4496202973265379
 50
77.1263341557454254
 51
101.2905265254574942
  0
ARC
  5
1B75E
  8
0
 10
212.0230126694920898
 20
96.9215626133623545
 30
0.0
 40
1.590556040710551
 50
64.3312112403305463
 51
76.656963019103955
  0
ARC
  5
1B75F
  8
0
 10
205.0015814194192956
 20
84.8195846840873742
 30
0.0
 40
0.3053507590812468
 50
190.2852679134433913
 51
202.6943575836955915
  0
ARC
  5
1B760
  8
0
 10
205.2085222871394024
 20
84.9061259799265144
 30
0.0
 40
0.5296584018807613
 50
202.6943575836955915
 51
220.7469687802185092
  0
ARC
  5
1B761
  8
0
 10
280.9459943220248874
 20
141.3657127911309885
 30
0.0
 40
94.9944766053518066
 50
216.7257447675658
 51
216.8011749708078924
  0
ARC
  5
1B762
  8
0
 10
205.0377881544623051
 20
84.6207915819519343
 30
0.0
 40
0.2236536312975782
 50
225.8853927445171053
 51
249.9517375207869918
  0
ARC
  5
1B763
  8
0
 10
205.944586050695392
 20
87.5140049407725371
 30
0.0
 40
3.2554219638363331
 50
252.4161120075748954
 51
263.401093937557107
  0
ARC
  5
1B764
  8
0
 10
207.5560379016582999
 20
101.0497465431013069
 30
0.0
 40
16.886734544101369
 50
263.2474846648407834
 51
267.4598752588212278
  0
ARC
  5
1B765
  8
0
 10
211.5949337259854985
 20
212.201716925811013
 30
0.0
 40
128.1115901436376987
 50
267.8584613388807725
 51
270.1914523875851728
  0
ARC
  5
1B766
  8
0
 10
205.898925984148093
 20
83.8866370653500866
 30
0.0
 40
0.6102505094379682
 50
249.3033409372422966
 51
269.9989602910023905
  0
LINE
  5
1B767
  8
0
 10
205.8989149103315981
 20
83.2763865560125964
 30
0.0
 11
206.5920294772498949
 21
83.2763739785163466
 31
0.0
  0
ARC
  5
1B768
  8
0
 10
206.5920405450625879
 20
83.8862936349291033
 30
0.0
 40
0.6099196565131857
 50
269.9989602910023905
 51
290.705843006600503
  0
ARC
  5
1B769
  8
0
 10
207.7603611192186008
 20
83.8414411908687072
 30
0.0
 40
0.6508776775508829
 50
233.8654079730492015
 51
249.1092634626315885
  0
ARC
  5
1B76A
  8
0
 10
207.7193808720184052
 20
83.734072446942335
 30
0.0
 40
0.5359541036728079
 50
249.1092634626315885
 51
261.1503815400145072
  0
ARC
  5
1B76B
  8
0
 10
207.7272849794319995
 20
83.784839038460234
 30
0.0
 40
0.5873323259887734
 50
261.1503815400145072
 51
267.2947127283973145
  0
ARC
  5
1B76C
  8
0
 10
207.7288853368891921
 20
83.8187081137315886
 30
0.0
 40
0.6212391896557234
 50
267.2947127283973145
 51
268.5374125778070038
  0
ARC
  5
1B76D
  8
0
 10
207.7208538482169899
 20
83.3701044798992257
 30
0.0
 40
0.1727490809797014
 50
273.4656592948988987
 51
295.8504180303680755
  0
ARC
  5
1B76E
  8
0
 10
207.6806538351875133
 20
83.453075794919954
 30
0.0
 40
0.2649460449418672
 50
295.8504180303680755
 51
319.2038943709670775
  0
ARC
  5
1B76F
  8
0
 10
205.4445345724772949
 20
85.3829769506570102
 30
0.0
 40
3.2187144563070951
 50
319.2038943709670775
 51
320.0404990539825008
  0
ARC
  5
1B770
  8
0
 10
207.8996883043049877
 20
83.5525332219383756
 30
0.0
 40
0.3912445195776408
 50
312.5520912576712931
 51
322.739719907112999
  0
ARC
  5
1B771
  8
0
 10
207.9736578852013906
 20
83.471956786198632
 30
0.0
 40
0.2818641699049766
 50
294.5049385184689186
 51
312.5520912576712931
  0
ARC
  5
1B772
  8
0
 10
208.0115245167417015
 20
83.3888850223528237
 30
0.0
 40
0.1905690455408475
 50
282.5049568758743135
 51
294.5049385184689186
  0
ARC
  5
1B773
  8
0
 10
207.9697250614636914
 20
83.577353017016037
 30
0.0
 40
0.3836166548860754
 50
278.213553490312222
 51
282.5049568758743135
  0
LINE
  5
1B774
  8
0
 10
209.723806187031613
 20
83.3157269641125993
 30
0.0
 11
209.7238063286316105
 21
83.1976636208125768
 31
0.0
  0
ARC
  5
1B775
  8
0
 10
208.2453896948991883
 20
83.8589658938133908
 30
0.0
 40
0.6709645018406777
 50
292.2907326517088791
 51
305.9394757045384949
  0
ARC
  5
1B776
  8
0
 10
208.2978083219630889
 20
83.7310971675494926
 30
0.0
 40
0.5327685409025201
 50
279.4436584835877966
 51
292.2907326517088791
  0
ARC
  5
1B777
  8
0
 10
208.2507278171123062
 20
84.0141487460132055
 30
0.0
 40
0.8197089005729896
 50
275.089216959783414
 51
279.4436584835877966
  0
ARC
  5
1B778
  8
0
 10
217.7029590136693002
 20
97.841397710113327
 30
0.0
 40
0.3169141157092434
 50
42.7509638624704991
 51
89.5318042104358938
  0
ARC
  5
1B779
  8
0
 10
217.7053085365193112
 20
97.8435696599959925
 30
0.0
 40
0.3137144869939972
 50
7.768797221133382
 51
42.750963862471103
  0
LINE
  5
1B77A
  8
0
 10
218.0161436274258051
 20
97.8859763294126139
 30
0.0
 11
218.1594340999994017
 21
96.8356767496253923
 31
0.0
  0
ARC
  5
1B77B
  8
0
 10
218.0115610022072019
 20
96.5438223626962468
 30
0.0
 40
0.1577951653045708
 50
47.8653079173843778
 51
89.3814111668879292
  0
ARC
  5
1B77C
  8
0
 10
218.0119623375393019
 20
96.5442659890254902
 30
0.0
 40
0.1571969392864609
 50
7.415313016182127
 51
47.8653079173843778
  0
ARC
  5
1B77D
  8
0
 10
113.7818003405104008
 20
82.7161390469365045
 30
0.0
 40
105.3006402126245007
 50
1.359730568910152
 51
7.5570380147316083
  0
ARC
  5
1B77E
  8
0
 10
212.0092979016542927
 20
26.866314196988931
 30
0.0
 40
58.7875127727707465
 50
88.3751604950934251
 51
89.9866314172840021
  0
ARC
  5
1B77F
  8
0
 10
211.4646217261418997
 20
12.0410750308607408
 30
0.0
 40
73.6223398148113688
 50
85.9911461082605229
 51
88.2785906805099643
  0
ARC
  5
1B780
  8
0
 10
213.0553298241958942
 20
31.6002047373845301
 30
0.0
 40
54.0003046437182022
 50
84.5477998787385445
 51
86.2239626386138838
  0
ARC
  5
1B781
  8
0
 10
213.4860992030970976
 20
36.5336545651535403
 30
0.0
 40
49.048261242894867
 50
83.7549111243798876
 51
84.5011524559939744
  0
ARC
  5
1B782
  8
0
 10
218.7503551539043087
 20
84.6806515529301151
 30
0.0
 40
0.6143465052815223
 50
70.2388613986750414
 51
83.3357301419849676
  0
ARC
  5
1B783
  8
0
 10
218.7604979426668876
 20
84.7088843007076235
 30
0.0
 40
0.584347101771559
 50
59.9866459552625031
 51
70.2388613986750414
  0
ARC
  5
1B784
  8
0
 10
218.7571988308679067
 20
84.7031731459337607
 30
0.0
 40
0.5909426629693576
 50
6.0149178389511411
 51
59.9866459552625031
  0
ARC
  5
1B785
  8
0
 10
171.373634780370395
 20
79.3673140869313158
 30
0.0
 40
48.2739806135760503
 50
4.842967242105944
 51
6.4199855202949232
  0
ARC
  5
1B786
  8
0
 10
219.1412328072048012
 20
83.4122274712152034
 30
0.0
 40
0.3354368723471034
 50
356.6482437023688021
 51
5.2379413563362007
  0
ARC
  5
1B787
  8
0
 10
219.3965491066281004
 20
83.395371466199478
 30
0.0
 40
0.0795944921853327
 50
269.9953985255248767
 51
358.0160045287121875
  0
ARC
  5
1B788
  8
0
 10
218.9010850602244034
 20
83.3643834452222308
 30
0.0
 40
0.1753174926781853
 50
318.9286250903078894
 51
343.9012111038559283
  0
ARC
  5
1B789
  8
0
 10
218.9257063874300115
 20
83.3429265449796759
 30
0.0
 40
0.1426585226793872
 50
291.5698173037699235
 51
318.9286250903078894
  0
ARC
  5
1B78A
  8
0
 10
218.8905022222911043
 20
83.431979147171603
 30
0.0
 40
0.238417069035719
 50
285.1325943752096919
 51
291.5698173037699235
  0
ARC
  5
1B78B
  8
0
 10
218.9164705660722916
 20
83.3579471015491151
 30
0.0
 40
0.1602758775934052
 50
270.0587497806353099
 51
283.0796590533283847
  0
ARC
  5
1B78C
  8
0
 10
218.7938734106953973
 20
82.8778723176810388
 30
0.0
 40
0.3198612594208849
 50
78.8304294563238557
 51
88.8695665380090531
  0
ARC
  5
1B78D
  8
0
 10
218.7949498659010032
 20
82.8833240080752631
 30
0.0
 40
0.3143043102611352
 50
51.8189087752641271
 51
78.8304294563238557
  0
ARC
  5
1B78E
  8
0
 10
218.7941543470570025
 20
82.8823123971602627
 30
0.0
 40
0.3155912472737889
 50
23.7524902991900611
 51
51.8189087752641271
  0
ARC
  5
1B78F
  8
0
 10
218.7954167832025973
 20
82.8828679478540238
 30
0.0
 40
0.3142119787737765
 50
359.9713251121219741
 51
23.7524902991900611
  0
LINE
  5
1B790
  8
0
 10
219.1096287226258141
 20
82.8827106938125837
 30
0.0
 11
219.1096287226258141
 21
80.8551517405426949
 31
0.0
  0
ARC
  5
1B791
  8
0
 10
204.9364041920688919
 20
80.8551512884683348
 30
0.0
 40
14.1732245305569506
 50
349.5116607746151089
 51
0.0000018275269751
  0
ARC
  5
1B792
  8
0
 10
204.9363980069352067
 20
80.8551525052810263
 30
0.0
 40
14.1732308338522692
 50
330.3067773389612967
 51
349.5116604893385102
  0
ARC
  5
1B793
  8
0
 10
204.9364029420146096
 20
80.8551496911350966
 30
0.0
 40
14.17322515279381
 50
315.2942998595121935
 51
330.3067773389612967
  0
ARC
  5
1B794
  8
0
 10
206.4683245778462037
 20
79.2202582721392332
 30
0.0
 40
11.9346515084669402
 50
305.6839697083037208
 51
315.6990659705663234
  0
ARC
  5
1B795
  8
0
 10
211.6359219615019072
 20
72.1885002582013016
 30
0.0
 40
3.210222069294542
 50
289.1375467878119139
 51
303.9767162636032936
  0
ARC
  5
1B796
  8
0
 10
212.0125945722213032
 20
71.1459713510683258
 30
0.0
 40
2.1018691628381889
 50
270.2840437768986135
 51
288.7538425575849033
  0
ARC
  5
1B797
  8
0
 10
218.9907472920338023
 20
81.8592326246711792
 30
0.0
 40
0.1189307003491641
 50
310.9875434296479852
 51
358.3507144762294274
  0
ARC
  5
1B798
  8
0
 10
218.9925572333210084
 20
81.8571496109388335
 30
0.0
 40
0.116171201541036
 50
270.0075731938824788
 51
310.9875434296479852
  0
ARC
  5
1B799
  8
0
 10
208.9848560292988964
 20
82.855070191978669
 30
0.0
 40
9.0626732222155137
 50
340.9083986072224093
 51
352.9386578371269252
  0
ARC
  5
1B79A
  8
0
 10
210.3681003452963978
 20
82.3763059637119852
 30
0.0
 40
7.5989177699601527
 50
319.5750592874226754
 51
340.9083986072224093
  0
ARC
  5
1B79B
  8
0
 10
186.6732915405472113
 20
102.5599605866700017
 30
0.0
 40
38.7248535507920835
 50
316.397772660552107
 51
319.5750592874226754
  0
ARC
  5
1B79C
  8
0
 10
215.2397970694673859
 20
75.3543273677301926
 30
0.0
 40
0.7237423301427302
 50
136.397772660552107
 51
153.9704399884710142
  0
ARC
  5
1B79D
  8
0
 10
216.9108078715383954
 20
74.2544464967709104
 30
0.0
 40
2.719906547277342
 50
148.590456422176203
 51
157.3636910964808067
  0
ARC
  5
1B79E
  8
0
 10
216.3839248019081083
 20
74.5602539950203038
 30
0.0
 40
2.1174034407637401
 50
159.5144259788139038
 51
179.4336966728446896
  0
ARC
  5
1B79F
  8
0
 10
-40.3225480919233803
 20
83.073368608254853
 30
0.0
 40
254.7307680351160002
 50
357.365987746292717
 51
358.0895254893301853
  0
ARC
  5
1B7A0
  8
0
 10
212.1126816269348865
 20
71.4013565465478166
 30
0.0
 40
2.0266982377028002
 50
326.2226684244809007
 51
359.0276234447940737
  0
ARC
  5
1B7A1
  8
0
 10
212.0263362409127978
 20
71.4429806576563777
 30
0.0
 40
2.1216528955877161
 50
303.2213214416993878
 51
326.5847308372212865
  0
ARC
  5
1B7A2
  8
0
 10
212.0230999559638008
 20
71.4439900502854499
 30
0.0
 40
2.1242714842112749
 50
269.997696273488998
 51
303.2794279030159146
  0
LINE
  5
1B7A3
  8
0
 10
214.8247155411067979
 20
75.9683903195531229
 30
0.0
 11
214.5234789405753872
 21
71.3514386220987262
 31
0.0
  0
ARC
  5
1B7A4
  8
0
 10
212.1874254871933942
 20
71.5038562446058705
 30
0.0
 40
2.341020475926868
 50
335.5903981593032199
 51
356.2669835156742124
  0
ARC
  5
1B7A5
  8
0
 10
212.2156481283118978
 20
71.4910481834906477
 30
0.0
 40
2.3100275105761092
 50
315.9469479026437284
 51
335.5903981593032199
  0
ARC
  5
1B7A6
  8
0
 10
212.2219942561357868
 20
71.484908433047309
 30
0.0
 40
2.301197455431077
 50
311.6538003587288017
 51
315.9469479026437284
  0
ARC
  5
1B7A7
  8
0
 10
219.044447668738087
 20
84.8195846840873742
 30
0.0
 40
0.3053507590812468
 50
337.3056424163042948
 51
349.7147320865565234
  0
ARC
  5
1B7A8
  8
0
 10
218.8375068010180087
 20
84.9061259799265144
 30
0.0
 40
0.5296584018807613
 50
319.2530312197815192
 51
337.3056424163042948
  0
ARC
  5
1B7A9
  8
0
 10
143.1000347661324952
 20
141.3657127911309885
 30
0.0
 40
94.9944766053518066
 50
323.198825029191994
 51
323.2742552324342
  0
ARC
  5
1B7AA
  8
0
 10
219.0082409336951912
 20
84.6207915819519343
 30
0.0
 40
0.2236536312975782
 50
290.0482624792130082
 51
314.1146072554828947
  0
ARC
  5
1B7AB
  8
0
 10
218.1014430374621043
 20
87.5140049407725371
 30
0.0
 40
3.2554219638363331
 50
276.598906062442893
 51
287.5838879924251046
  0
ARC
  5
1B7AC
  8
0
 10
216.4899911864991964
 20
101.0497465431013069
 30
0.0
 40
16.886734544101369
 50
272.5401247411787722
 51
276.752515335159103
  0
ARC
  5
1B7AD
  8
0
 10
212.4510953621719977
 20
212.201716925811013
 30
0.0
 40
128.1115901436376987
 50
269.8085476124148272
 51
272.1415386611192275
  0
ARC
  5
1B7AE
  8
0
 10
218.1471031040094033
 20
83.8866370653500866
 30
0.0
 40
0.6102505094379682
 50
270.0010397089974958
 51
290.6966590627575897
  0
LINE
  5
1B7AF
  8
0
 10
218.1471141778258982
 20
83.2763865560125964
 30
0.0
 11
217.4539996109076014
 21
83.2763739785163466
 31
0.0
  0
ARC
  5
1B7B0
  8
0
 10
217.4539885430949084
 20
83.8862936349291033
 30
0.0
 40
0.6099196565131857
 50
249.294156993399497
 51
270.0010397089974958
  0
ARC
  5
1B7B1
  8
0
 10
216.2856679689388955
 20
83.8414411908687072
 30
0.0
 40
0.6508776775508829
 50
290.8907365373684115
 51
306.1345920269508269
  0
ARC
  5
1B7B2
  8
0
 10
216.3266482161390059
 20
83.734072446942335
 30
0.0
 40
0.5359541036728079
 50
278.8496184599853791
 51
290.8907365373684115
  0
ARC
  5
1B7B3
  8
0
 10
216.3187441087254967
 20
83.784839038460234
 30
0.0
 40
0.5873323259887734
 50
272.7052872716026855
 51
278.8496184599853791
  0
ARC
  5
1B7B4
  8
0
 10
216.3171437512683042
 20
83.8187081137315886
 30
0.0
 40
0.6212391896557234
 50
271.4625874221928825
 51
272.7052872716026855
  0
ARC
  5
1B7B5
  8
0
 10
216.3251752399403927
 20
83.3701044798992257
 30
0.0
 40
0.1727490809797014
 50
244.1495819696318961
 51
266.5343407051011013
  0
ARC
  5
1B7B6
  8
0
 10
216.3653752529698977
 20
83.453075794919954
 30
0.0
 40
0.2649460449418672
 50
220.7961056290328941
 51
244.1495819696318961
  0
ARC
  5
1B7B7
  8
0
 10
218.6014945156802014
 20
85.3829769506570102
 30
0.0
 40
3.2187144563070951
 50
219.959500946017414
 51
220.7961056290328941
  0
ARC
  5
1B7B8
  8
0
 10
216.1463407838525086
 20
83.5525332219383756
 30
0.0
 40
0.3912445195776408
 50
217.260280092887001
 51
227.4479087423287069
  0
ARC
  5
1B7B9
  8
0
 10
216.0723712029561057
 20
83.471956786198632
 30
0.0
 40
0.2818641699049766
 50
227.4479087423287069
 51
245.4950614815309962
  0
ARC
  5
1B7BA
  8
0
 10
216.0345045714157095
 20
83.3888850223528237
 30
0.0
 40
0.1905690455408475
 50
245.4950614815309962
 51
257.4950431241258002
  0
ARC
  5
1B7BB
  8
0
 10
216.0763040266938049
 20
83.577353017016037
 30
0.0
 40
0.3836166548860754
 50
257.4950431241258002
 51
261.786446509687778
  0
LINE
  5
1B7BC
  8
0
 10
214.3222229011259117
 20
83.3157269641125993
 30
0.0
 11
214.3222227595259142
 21
83.1976636208125768
 31
0.0
  0
ARC
  5
1B7BD
  8
0
 10
215.800639393258308
 20
83.8589658938133908
 30
0.0
 40
0.6709645018406777
 50
234.0605242954615051
 51
247.7092673482910925
  0
ARC
  5
1B7BE
  8
0
 10
215.7482207661942937
 20
83.7310971675494926
 30
0.0
 40
0.5327685409025201
 50
247.7092673482910925
 51
260.5563415164123171
  0
ARC
  5
1B7BF
  8
0
 10
215.7953012710451901
 20
84.0141487460132055
 30
0.0
 40
0.8197089005729896
 50
260.5563415164123171
 51
264.910783040216586
  0
ARC
  5
1B7C1
  8
0
 10
218.0143233403410932
 20
98.2584951689926811
 30
0.0
 40
1.556887197400201
 50
269.9610364254172055
 51
270.0389647998374016
  0
ARC
  5
1B7C2
  8
0
 10
218.0267842576510873
 20
79.9353454638439729
 30
0.0
 40
16.7662667448596103
 50
89.9610352001625984
 51
90.0389647998374159
  0
ARC
  5
1B7C3
  8
0
 10
218.0383075732476073
 20
96.879799192327269
 30
0.0
 40
0.1781909019201644
 50
269.9610352001625984
 51
276.0750296895873248
  0
ARC
  5
1B7C4
  8
0
 10
218.0460562802676066
 20
96.8069924315558552
 30
0.0
 40
0.104972960986879
 50
276.0750296895888027
 51
293.6307136933922948
  0
ARC
  5
1B7C5
  8
0
 10
218.0367543298515898
 20
96.8282526825298362
 30
0.0
 40
0.1281790927847249
 50
293.6307136933922948
 51
313.6292324959011921
  0
ARC
  5
1B7C6
  8
0
 10
218.0478513546871966
 20
96.8166115571371506
 30
0.0
 40
0.1120961900426976
 50
313.6292324959006237
 51
344.82743391908582
  0
ARC
  5
1B7C7
  8
0
 10
218.0350774336943971
 20
96.8200755877107895
 30
0.0
 40
0.1253314673478924
 50
344.82743391908582
 51
7.1506817603723833
  0
ARC
  5
1B7C8
  8
0
 10
206.0344680927069874
 20
96.5438223517798519
 30
0.0
 40
0.1577951779327873
 50
90.618591237144912
 51
132.134691242786289
  0
ARC
  5
1B7C9
  8
0
 10
206.0340667506181944
 20
96.5442659890254902
 30
0.0
 40
0.1571969392864609
 50
132.1346920826156008
 51
172.5846869838179032
  0
ARC
  5
1B7CA
  8
0
 10
206.0317045450171065
 20
98.254957915796922
 30
0.0
 40
1.553349944204897
 50
269.9609908360127974
 51
270.0390966671852198
  0
ARC
  5
1B7CB
  8
0
 10
206.0192448305062953
 20
79.9353454638439729
 30
0.0
 40
16.7662667448596103
 50
89.9610352001625984
 51
90.0389647998374159
  0
ARC
  5
1B7CC
  8
0
 10
206.007721514909889
 20
96.879799192327269
 30
0.0
 40
0.1781909019201644
 50
263.9249703104126752
 51
270.0389647998374016
  0
ARC
  5
1B7CD
  8
0
 10
205.9999728078898045
 20
96.8069924315558552
 30
0.0
 40
0.104972960986879
 50
246.3692863066077052
 51
263.9249703104110836
  0
ARC
  5
1B7CE
  8
0
 10
206.0092747583057928
 20
96.8282526825298362
 30
0.0
 40
0.1281790927847249
 50
226.3707675040988079
 51
246.3692863066077052
  0
ARC
  5
1B7CF
  8
0
 10
205.998177733470186
 20
96.8166115571371506
 30
0.0
 40
0.1120961900426976
 50
195.1725660809140948
 51
226.370767504099291
  0
ARC
  5
1B7D0
  8
0
 10
206.0109516544630139
 20
96.8200755877107895
 30
0.0
 40
0.1253314673478924
 50
172.8493182396275927
 51
195.1725660809140948
  0
ENDSEC
  0
EOF
