  0
SECTION
  2
HEADER
  9
$ACADVER
  1
AC1009
  9
$INSBASE
 10
212.0189530404572906
 20
131.9672452947370971
 30
0.0
  9
$EXTMIN
 10
204.5600738865410904
 20
104.7910560191914016
 30
-0.0015258207003583
  9
$EXTMAX
 10
219.4793658545409869
 20
131.9765597686817955
 30
0.0000000349246037
  9
$LIMMIN
 10
0.0
 20
0.0
  9
$LIMMAX
 10
11.6929133858000007
 20
8.2677165353999982
  9
$ORTHOMODE
 70
     0
  9
$REGENMODE
 70
     1
  9
$FILLMODE
 70
     1
  9
$QTEXTMODE
 70
     0
  9
$MIRRTEXT
 70
     0
  9
$DRAGMODE
 70
     2
  9
$LTSCALE
 40
0.6431102362
  9
$OSMODE
 70
  2039
  9
$ATTMODE
 70
     1
  9
$TEXTSIZE
 40
0.2
  9
$TRACEWID
 40
0.05
  9
$TEXTSTYLE
  7
STANDARD
  9
$CLAYER
  8
0
  9
$CELTYPE
  6
BYLAYER
  9
$CECOLOR
 62
   256
  9
$DIMSCALE
 40
1.0
  9
$DIMASZ
 40
0.1875
  9
$DIMEXO
 40
0.0625
  9
$DIMDLI
 40
0.4443307087
  9
$DIMRND
 40
0.0
  9
$DIMDLE
 40
0.0
  9
$DIMEXE
 40
0.125
  9
$DIMTP
 40
0.01
  9
$DIMTM
 40
0.01
  9
$DIMTXT
 40
1.0
  9
$DIMCEN
 40
0.1052362205
  9
$DIMTSZ
 40
0.0
  9
$DIMTOL
 70
     1
  9
$DIMLIM
 70
     0
  9
$DIMTIH
 70
     0
  9
$DIMTOH
 70
     1
  9
$DIMSE1
 70
     0
  9
$DIMSE2
 70
     0
  9
$DIMTAD
 70
     0
  9
$DIMZIN
 70
     0
  9
$DIMBLK
  1

  9
$DIMASO
 70
     1
  9
$DIMSHO
 70
     1
  9
$DIMPOST
  1
\X
  9
$DIMAPOST
  1

  9
$DIMALT
 70
     1
  9
$DIMALTD
 70
     2
  9
$DIMALTF
 40
25.3999999999999986
  9
$DIMLFAC
 40
1.0
  9
$DIMTOFL
 70
     0
  9
$DIMTVP
 40
0.0
  9
$DIMTIX
 70
     0
  9
$DIMSOXD
 70
     0
  9
$DIMSAH
 70
     0
  9
$DIMBLK1
  1

  9
$DIMBLK2
  1

  9
$DIMSTYLE
  2
STANDARD
  9
$DIMCLRD
 70
     0
  9
$DIMCLRE
 70
     0
  9
$DIMCLRT
 70
     0
  9
$DIMTFAC
 40
1.0
  9
$DIMGAP
 40
0.09
  9
$LUNITS
 70
     2
  9
$LUPREC
 70
     4
  9
$SKETCHINC
 40
0.1
  9
$FILLETRAD
 40
0.0
  9
$AUNITS
 70
     0
  9
$AUPREC
 70
     0
  9
$MENU
  1
.
  9
$ELEVATION
 40
0.0
  9
$PELEVATION
 40
0.0
  9
$THICKNESS
 40
0.0
  9
$LIMCHECK
 70
     0
  9
$BLIPMODE
 70
     0
  9
$CHAMFERA
 40
0.0
  9
$CHAMFERB
 40
0.0
  9
$SKPOLY
 70
     0
  9
$TDCREATE
 40
2458172.5207638889551163
  9
$TDUPDATE
 40
2459140.3841435192152858
  9
$TDINDWG
 40
0.287647662
  9
$TDUSRTIMER
 40
0.287647662
  9
$USRTIMER
 70
     1
  9
$ANGBASE
 50
0.0
  9
$ANGDIR
 70
     0
  9
$PDMODE
 70
     0
  9
$PDSIZE
 40
0.3125
  9
$PLINEWID
 40
0.0
  9
$COORDS
 70
     1
  9
$SPLFRAME
 70
     0
  9
$SPLINETYPE
 70
     6
  9
$SPLINESEGS
 70
     8
  9
$ATTDIA
 70
     1
  9
$ATTREQ
 70
     1
  9
$HANDLING
 70
     1
  9
$HANDSEED
  5
1BA21
  9
$SURFTAB1
 70
     6
  9
$SURFTAB2
 70
     6
  9
$SURFTYPE
 70
     6
  9
$SURFU
 70
     6
  9
$SURFV
 70
     6
  9
$UCSNAME
  2

  9
$UCSORG
 10
0.0
 20
0.0
 30
0.0
  9
$UCSXDIR
 10
1.0
 20
0.0
 30
0.0
  9
$UCSYDIR
 10
0.0
 20
1.0
 30
0.0
  9
$PUCSNAME
  2

  9
$PUCSORG
 10
0.0
 20
0.0
 30
0.0
  9
$PUCSXDIR
 10
1.0
 20
0.0
 30
0.0
  9
$PUCSYDIR
 10
0.0
 20
1.0
 30
0.0
  9
$USERI1
 70
     0
  9
$USERI2
 70
     0
  9
$USERI3
 70
     0
  9
$USERI4
 70
     0
  9
$USERI5
 70
     0
  9
$USERR1
 40
0.0
  9
$USERR2
 40
0.0
  9
$USERR3
 40
0.0
  9
$USERR4
 40
0.0
  9
$USERR5
 40
0.0
  9
$WORLDVIEW
 70
     1
  9
$SHADEDGE
 70
     3
  9
$SHADEDIF
 70
    70
  9
$TILEMODE
 70
     1
  9
$MAXACTVP
 70
    64
  9
$PLIMCHECK
 70
     0
  9
$PEXTMIN
 10
1.0000000000000000E+20
 20
1.0000000000000000E+20
 30
1.0000000000000000E+20
  9
$PEXTMAX
 10
-1.0000000000000000E+20
 20
-1.0000000000000000E+20
 30
-1.0000000000000000E+20
  9
$PLIMMIN
 10
0.0
 20
0.0
  9
$PLIMMAX
 10
12.0
 20
9.0
  9
$UNITMODE
 70
     0
  9
$VISRETAIN
 70
     1
  9
$PLINEGEN
 70
     0
  9
$PSLTSCALE
 70
     1
  0
ENDSEC
  0
SECTION
  2
TABLES
  0
TABLE
  2
VPORT
 70
     1
  0
VPORT
  2
*ACTIVE
 70
     0
 10
0.0
 20
0.0
 11
1.0
 21
1.0
 12
-217.6095692375126873
 22
48.6812663817179114
 13
0.0
 23
0.0
 14
1.0
 24
1.0
 15
0.0
 25
0.0
 16
0.0
 26
0.0
 36
14.6338572656650907
 17
429.6292891080536833
 27
69.7025415122186871
 37
0.0
 40
27.4300510096057586
 41
2.848348348348348
 42
50.0
 43
0.0
 44
0.0
 50
0.0
 51
0.0
 71
     0
 72
   100
 73
     1
 74
     1
 75
     0
 76
     0
 77
     0
 78
     0
  0
ENDTAB
  0
TABLE
  2
LTYPE
 70
     2
  0
LTYPE
  2
CONTINUOUS
 70
     0
  3
Solid line
 72
    65
 73
     0
 40
0.0
  0
LTYPE
  2
PHANTOM2
 70
     0
  3
___ _ _ ___ _ _ ___ _ _ ___ _ _
 72
    65
 73
     6
 40
1.25
 49
0.625
 49
-0.125
 49
0.125
 49
-0.125
 49
0.125
 49
-0.125
  0
ENDTAB
  0
TABLE
  2
LAYER
 70
     2
  0
LAYER
  2
0
 70
     0
 62
   255
  6
CONTINUOUS
  0
LAYER
  2
DEFPOINTS
 70
     0
 62
     7
  6
CONTINUOUS
  0
ENDTAB
  0
TABLE
  2
STYLE
 70
     1
  0
STYLE
  2
STANDARD
 70
     0
 40
0.0
 41
0.8
 50
0.0
 71
     0
 42
0.2
  3
txt
  4

  0
ENDTAB
  0
TABLE
  2
VIEW
 70
     0
  0
ENDTAB
  0
TABLE
  2
UCS
 70
     0
  0
ENDTAB
  0
TABLE
  2
APPID
 70
    10
  0
APPID
  2
ACAD
 70
     0
  0
APPID
  2
ACAD_MLEADERVER
 70
     0
  0
APPID
  2
ACAD_EXEMPT_FROM_CAD_STANDARDS
 70
     0
  0
APPID
  2
ACAD_DSTYLE_DIMJAG
 70
     0
  0
APPID
  2
ACAD_DSTYLE_DIMTALN
 70
     0
  0
APPID
  2
ACAD_NAV_VCDISPLAY
 70
     0
  0
APPID
  2
ACAECLAYERSTANDARD
 70
     0
  0
APPID
  2
ACCMTRANSPARENCY
 70
     0
  0
APPID
  2
DCO15
 70
     0
  0
APPID
  2
ACDBATTR
 70
     0
  0
ENDTAB
  0
TABLE
  2
DIMSTYLE
 70
     1
  0
DIMSTYLE
  2
STANDARD
 70
     0
  3

  4

  5

  6

  7

 40
1.0
 41
0.1875
 42
0.0625
 43
0.38
 44
0.125
 45
0.0
 46
0.0
 47
0.01
 48
0.01
140
0.15625
141
0.09
142
0.0
143
25.3999999999999986
144
1.0
145
0.0
146
1.0
147
0.09
 71
     1
 72
     0
 73
     1
 74
     1
 75
     0
 76
     0
 77
     0
 78
     4
170
     0
171
     2
172
     0
173
     0
174
     0
175
     0
176
     0
177
     0
178
     0
  0
ENDTAB
  0
ENDSEC
  0
SECTION
  2
BLOCKS
  0
BLOCK
  8
0
  2
$MODEL_SPACE
 70
     0
 10
0.0
 20
0.0
 30
0.0
  3
$MODEL_SPACE
  1

  0
ENDBLK
  5
21
  8
0
  0
BLOCK
 67
     1
  8
0
  2
$PAPER_SPACE
 70
     0
 10
0.0
 20
0.0
 30
0.0
  3
$PAPER_SPACE
  1

  0
ENDBLK
  5
1D
 67
     1
  8
0
  0
BLOCK
  8
0
  2
_FILLED
 70
     0
 10
0.0
 20
0.0
 30
0.0
  3
_FILLED
  1

  0
SOLID
  5
87E2
  8
0
  6
BYBLOCK
 62
     0
 10
0.0
 20
0.0
 30
0.0
 11
-1.0
 21
0.1666666667
 31
0.0
 12
-1.0
 22
-0.1666666667
 32
0.0
 13
-1.0
 23
-0.1666666667
 33
0.0
  0
ENDBLK
  5
87E3
  8
0
  6
BYBLOCK
 62
     0
  0
ENDSEC
  0
SECTION
  2
ENTITIES
  0
ATTDEF
  5
1B250
  8
DEFPOINTS
 10
212.0190124337815973
 20
131.971038155260004
 30
0.0
 40
0.001
  1
K-98695IN-S
  3

  2
MODELNUMBER
 70
     0
1001
ACDBATTR
1070
     0
1070
     1
  0
ATTDEF
  5
1B251
  8
DEFPOINTS
 10
212.0190124337815973
 20
131.9693714885933105
 30
0.0
 40
0.001
  1
ODEON
  3

  2
TRADENAME
 70
     0
1001
ACDBATTR
1070
     0
1070
     1
  0
ATTDEF
  5
1B252
  8
DEFPOINTS
 10
212.0190124337815973
 20
131.9677048219267022
 30
0.0
 40
0.001
  1
TOILET
  3

  2
PRODUCT
 70
     0
1001
ACDBATTR
1070
     0
1070
     1
  0
LINE
  5
1B743
  8
0
 10
205.1271439331229942
 20
131.9672452947370971
 30
0.0
 11
218.9107621477915018
 21
131.9672452947370971
 31
0.0
  0
ARC
  5
1B744
  8
0
 10
205.129258347638995
 20
131.7702144477169099
 30
0.0
 40
0.1970421919951177
 50
90.6148396534060936
 51
117.9219501770843976
  0
ARC
  5
1B745
  8
0
 10
205.1289793742348877
 20
131.7705906985744093
 30
0.0
 40
0.1965791200496159
 50
117.9014571209502975
 51
156.0751879147578052
  0
ARC
  5
1B746
  8
0
 10
205.1296327357663927
 20
131.7703008300300098
 30
0.0
 40
0.197293896283076
 50
156.0751879147578052
 51
179.9726810005207085
  0
LINE
  5
1B747
  8
0
 10
204.9323388619102104
 20
131.7703949010364965
 30
0.0
 11
204.9323388619102104
 21
122.2521864009930965
 31
0.0
  0
ARC
  5
1B748
  8
0
 10
212.0162566435840859
 20
111.1117203236126016
 30
0.0
 40
6.3185533334699882
 50
265.37285176746758
 51
270.0244505596861018
  0
ARC
  5
1B749
  8
0
 10
212.045254804248799
 20
111.470009818123998
 30
0.0
 40
6.6780143956159916
 50
255.2458318630488066
 51
265.3728517674691716
  0
ARC
  5
1B74A
  8
0
 10
211.9789838140237066
 20
111.2183693182791018
 30
0.0
 40
6.4177937482653391
 50
242.38417434213261
 51
255.2458318630488066
  0
ARC
  5
1B74B
  8
0
 10
212.0727229230867863
 20
111.397555133383193
 30
0.0
 40
6.6200178242367302
 50
230.7494600719446112
 51
242.38417434213261
  0
ARC
  5
1B74C
  8
0
 10
211.9579267440558965
 20
111.2570543301799972
 30
0.0
 40
6.4385828815689656
 50
217.3868444236337041
 51
230.7494600719446112
  0
ARC
  5
1B74D
  8
0
 10
213.4020737701721941
 20
112.3606627787629009
 30
0.0
 40
8.2561395494129641
 50
200.9972691301643977
 51
217.3868444236337041
  0
ARC
  5
1B74E
  8
0
 10
215.1139581076307081
 20
113.0176999939322968
 30
0.0
 40
10.0897823409492702
 50
194.4062305774533002
 51
200.9972691301643977
  0
ARC
  5
1B74F
  8
0
 10
221.8035898185555084
 20
114.9425338502174014
 30
0.0
 40
17.0491281368595082
 50
182.1565138250468863
 51
195.078241374554608
  0
ARC
  5
1B750
  8
0
 10
456.6981689710664227
 20
125.1013451894564952
 30
0.0
 40
252.1630329980596912
 50
180.8861981265858105
 51
182.4547784216887862
  0
ARC
  5
1B751
  8
0
 10
170.9280782704747992
 20
123.2852435704947993
 30
0.0
 40
33.7017130882001794
 50
356.454816325069487
 51
357.5019437983696093
  0
ARC
  5
1B752
  8
0
 10
205.0737329629081955
 20
121.7973053604840032
 30
0.0
 40
0.4763486837289726
 50
107.2672443692554936
 51
177.7101512603800018
  0
ARC
  5
1B753
  8
0
 10
205.8079338090632859
 20
118.5540639469209054
 30
0.0
 40
3.8003642186483808
 50
98.4833041053315128
 51
103.3204835993234951
  0
ARC
  5
1B754
  8
0
 10
212.0190511690094866
 20
82.1948928669415864
 30
0.0
 40
40.6854635304955181
 50
96.1315728647994803
 51
99.5809873744215537
  0
ARC
  5
1B755
  8
0
 10
207.677976683519006
 20
122.5992276759301944
 30
0.0
 40
0.048596966260121
 50
51.2216379093361525
 51
95.4559922000006793
  0
ARC
  5
1B756
  8
0
 10
207.6783856564476878
 20
122.600610736498794
 30
0.0
 40
0.0472657937339419
 50
359.2218746868252879
 51
50.5580638545156802
  0
LINE
  5
1B757
  8
0
 10
207.7256470914101101
 20
122.5999688466370969
 30
0.0
 11
207.7256472243973064
 21
122.2813862872614976
 31
0.0
  0
ARC
  5
1B758
  8
0
 10
212.7386475094841103
 20
74.2935297039053353
 30
0.0
 40
48.248984977314322
 50
95.1815874176775196
 51
95.9637119657665068
  0
ARC
  5
1B759
  8
0
 10
212.0660265755788032
 20
81.7107971796332606
 30
0.0
 40
40.8012822625693801
 50
93.3520016148251557
 51
95.1815874176775196
  0
ARC
  5
1B75A
  8
0
 10
212.0472319452746888
 20
82.0316871697268084
 30
0.0
 40
40.4798423399236569
 50
90.0400263917397723
 51
93.3520016053688551
  0
LINE
  5
1B75B
  8
0
 10
209.7197417249782916
 20
122.4445616670947032
 30
0.0
 11
209.7197416363100047
 21
122.8102443826288948
 31
0.0
  0
ARC
  5
1B75C
  8
0
 10
209.6803716425552864
 20
122.8102443730826963
 30
0.0
 40
0.0393699937546836
 50
0.0000138926889037
 51
90.000261149466624
  0
LINE
  5
1B75D
  8
0
 10
209.6803714631101059
 20
122.8496143668370024
 30
0.0
 11
208.3811588647216979
 21
122.8496084451325032
 31
0.0
  0
ARC
  5
1B75E
  8
0
 10
208.3811590441677026
 20
122.8102382813763001
 30
0.0
 40
0.0393701637566121
 50
90.0002611494633555
 51
179.9959339113520969
  0
LINE
  5
1B75F
  8
0
 10
208.3417888805103075
 20
122.8102410753442939
 30
0.0
 11
208.3417891780102025
 21
122.3417577857044023
 31
0.0
  0
LINE
  5
1B760
  8
0
 10
207.7722022214101116
 20
122.3261143487195994
 30
0.0
 11
207.7735844938100911
 21
122.4943564484870961
 31
0.0
  0
ARC
  5
1B761
  8
0
 10
209.5141125107907953
 20
122.4800563188363043
 30
0.0
 40
1.7405867607226251
 50
176.5912098707597124
 51
179.5292700648602136
  0
ARC
  5
1B762
  8
0
 10
207.8492913307678975
 20
122.5792212370570979
 30
0.0
 40
0.072814821140176
 50
98.2055100576302493
 51
176.5912098707597124
  0
LINE
  5
1B763
  8
0
 10
207.8388988996078979
 20
122.651290617186703
 30
0.0
 11
208.1693113965783084
 21
122.6922907612824929
 31
0.0
  0
ARC
  5
1B764
  8
0
 10
208.178686687799086
 20
122.6142973883643066
 30
0.0
 40
0.0785548362905539
 50
44.5004112021308202
 51
96.8544228743163416
  0
ARC
  5
1B765
  8
0
 10
208.1661503117074972
 20
122.6019777490322014
 30
0.0
 40
0.0961313615097628
 50
8.9120801566071979
 51
44.5004112021308202
  0
ARC
  5
1B766
  8
0
 10
207.9603935912130908
 20
122.5500511035294977
 30
0.0
 40
0.3080614210862497
 50
359.2618238196914149
 51
12.5271471536705103
  0
ARC
  5
1B767
  8
0
 10
201.3691282273804006
 20
122.3369767669247068
 30
0.0
 40
6.9024692980625701
 50
0.4034022319169471
 51
1.7360013786692461
  0
ARC
  5
1B768
  8
0
 10
215.8286217525943016
 20
122.4387833641148973
 30
0.0
 40
7.5573826233415469
 50
180.4034022319169139
 51
180.6851157677307924
  0
ARC
  5
1B769
  8
0
 10
208.3153529005988105
 20
122.348938975094697
 30
0.0
 40
0.0435766066410478
 50
180.6851157677274955
 51
192.9908825112906925
  0
ARC
  5
1B76A
  8
0
 10
207.9310551520711101
 20
122.2602812595316948
 30
0.0
 40
0.3508152670737534
 50
12.3775600472287906
 51
12.9908825112923694
  0
LINE
  5
1B76B
  8
0
 10
208.3417887897101082
 20
122.549117764537101
 30
0.0
 11
208.3201354148100961
 21
122.5366152757371054
 31
0.0
  0
LINE
  5
1B76C
  8
0
 10
208.3201354148100961
 20
122.5366152757371054
 30
0.0
 11
208.3201354148100961
 21
122.3397709950857006
 31
0.0
  0
LINE
  5
1B76D
  8
0
 10
208.2728916002101016
 20
122.3391431278312069
 30
0.0
 11
208.2728913345102058
 21
122.5307098235370944
 31
0.0
  0
ARC
  5
1B76E
  8
0
 10
208.2807660230184013
 20
122.5307098344592021
 30
0.0
 40
0.0078746885083086
 50
90.0050328297175781
 51
180.0000794683454899
  0
LINE
  5
1B76F
  8
0
 10
208.2807653313101071
 20
122.5385845229371
 30
0.0
 11
208.3122613941883117
 21
122.5385872895338935
 31
0.0
  0
LINE
  5
1B770
  8
0
 10
208.3122613941883117
 20
122.5385872895338935
 30
0.0
 11
208.3122613941883117
 21
122.3390462200113973
 31
0.0
  0
LINE
  5
1B771
  8
0
 10
208.3122615266100865
 20
122.4834664882370987
 30
0.0
 11
208.3201354889316974
 21
122.4834664882370987
 31
0.0
  0
LINE
  5
1B772
  8
0
 10
207.7256471051196058
 20
122.5671265022059941
 30
0.0
 11
207.7308207539819023
 21
122.5668553730376971
 31
0.0
  0
ARC
  5
1B773
  8
0
 10
207.7295845348938883
 20
122.5432660133299976
 30
0.0
 40
0.0236217300181532
 50
359.9992699254740955
 51
87.0001135273449222
  0
LINE
  5
1B774
  8
0
 10
207.7532062649102045
 20
122.543265712337103
 30
0.0
 11
207.7532029645666114
 21
122.2842568710430982
 31
0.0
  0
LINE
  5
1B775
  8
0
 10
207.7532065800101009
 20
122.3260393906371064
 30
0.0
 11
207.7762953419286021
 21
122.3260394460415057
 31
0.0
  0
LINE
  5
1B776
  8
0
 10
207.7762953419286021
 20
122.3260394460415057
 30
0.0
 11
207.7824142663629061
 21
122.3140918801011026
 31
0.0
  0
LINE
  5
1B777
  8
0
 10
207.7824142663629061
 20
122.3140918801011026
 30
0.0
 11
207.7828549249875039
 21
122.2873279616025997
 31
0.0
  0
ARC
  5
1B778
  8
0
 10
205.1663213721832904
 20
131.7626240995055866
 30
0.0
 40
0.2047722760840748
 50
92.2010680530143958
 51
104.6413851338515002
  0
ARC
  5
1B779
  8
0
 10
205.1639408509047939
 20
131.7717360746630959
 30
0.0
 40
0.1953544752352782
 50
104.6413851338515002
 51
135.1138736699120955
  0
ARC
  5
1B77A
  8
0
 10
205.1662820410226118
 20
131.7694041721910025
 30
0.0
 40
0.1986588572208679
 50
135.1138736699120955
 51
161.8251205679555085
  0
ARC
  5
1B77B
  8
0
 10
205.1619282843203962
 20
131.7708334996760016
 30
0.0
 40
0.1940764807106577
 50
161.8251205679555085
 51
180.1294843775337995
  0
ARC
  5
1B77C
  8
0
 10
-199.0897079081046002
 20
130.8572520624946094
 30
0.0
 40
404.0585920266166227
 50
359.8503463751096092
 51
0.1294843775338776
  0
ARC
  5
1B77D
  8
0
 10
211.5562654375538045
 20
129.784663492550095
 30
0.0
 40
6.5887820928869241
 50
179.8503463751096092
 51
184.8346412440025972
  0
ARC
  5
1B77E
  8
0
 10
208.9587520272500001
 20
129.5649625764856125
 30
0.0
 40
3.981993952429808
 50
184.8346412440025972
 51
201.4622707112976912
  0
ARC
  5
1B77F
  8
0
 10
209.8485352652363929
 20
129.9147808528946086
 30
0.0
 40
4.9380729434715462
 50
201.4622707112976912
 51
229.1829042697480929
  0
ARC
  5
1B780
  8
0
 10
210.4427776834781127
 20
130.6028021820633001
 30
0.0
 40
5.8471919681480831
 50
229.1829042697480929
 51
245.4962514769622999
  0
ARC
  5
1B781
  8
0
 10
211.611524534807188
 20
133.1669385121033997
 30
0.0
 40
8.6651281493848771
 50
245.4962514769622999
 51
257.9018908026700956
  0
ARC
  5
1B782
  8
0
 10
211.8684673809626133
 20
134.3656628122110988
 30
0.0
 40
9.8910806663524173
 50
257.9018908026700956
 51
267.2673749635031868
  0
ARC
  5
1B783
  8
0
 10
212.2200149567092922
 20
141.7310779328871888
 30
0.0
 40
17.2648806092514917
 50
267.2673749545546116
 51
269.3327344744340053
  0
ARC
  5
1B784
  8
0
 10
206.0703723362155984
 20
131.7714898187030883
 30
0.0
 40
0.1958528030291554
 50
91.8063727725040764
 51
132.4294518149183943
  0
ARC
  5
1B785
  8
0
 10
206.0712132533375041
 20
131.7705698470886091
 30
0.0
 40
0.1970991935687842
 50
132.4294518149183943
 51
180.5449431776430913
  0
ARC
  5
1B786
  8
0
 10
-1604.3557840099260829
 20
114.550984059929803
 30
0.0
 40
1810.3117868808299136
 50
0.4802520698553731
 51
0.5449431776430825
  0
ARC
  5
1B787
  8
0
 10
209.4146743929611034
 20
129.7543275619264023
 30
0.0
 40
3.522388954618731
 50
180.480252069855311
 51
188.6207505902000037
  0
ARC
  5
1B788
  8
0
 10
209.5229310244247927
 20
129.7707399439601943
 30
0.0
 40
3.6318826281339951
 50
188.6207505902000037
 51
215.7675879123843004
  0
ARC
  5
1B789
  8
0
 10
210.2408657297771128
 20
130.2879136460346103
 30
0.0
 40
4.5166983599487134
 50
215.7675879123843004
 51
238.9683998786649113
  0
ARC
  5
1B78A
  8
0
 10
211.5388004335657968
 20
132.2083666665238013
 30
0.0
 40
6.8324936391068061
 50
237.9439036842304063
 51
253.6665109292428895
  0
ARC
  5
1B78B
  8
0
 10
211.9496130048540863
 20
133.4879855526733934
 30
0.0
 40
8.1760725823982501
 50
253.4256655120142057
 51
262.9936148434829875
  0
ARC
  5
1B78C
  8
0
 10
212.0159842474085963
 20
133.9579723721213895
 30
0.0
 40
8.6506499884673254
 50
262.9370078840040037
 51
269.0545709367938798
  0
ARC
  5
1B78D
  8
0
 10
212.0189046552590071
 20
134.0449598026899878
 30
0.0
 40
8.7376738900868833
 50
269.0448352161051275
 51
270.0003172775375901
  0
ARC
  5
1B78E
  8
0
 10
212.0189530351102007
 20
128.0302374207371088
 30
0.0
 40
0.9803149606000047
 50
89.9999996874804253
 51
141.9789329260696888
  0
ARC
  5
1B78F
  8
0
 10
212.0189530351100871
 20
128.0302374207371088
 30
0.0
 40
0.9803149605999815
 50
141.978932926070712
 51
197.7450570106794032
  0
ARC
  5
1B790
  8
0
 10
212.0189530351102007
 20
128.0302374207371088
 30
0.0
 40
0.9803149606000244
 50
197.7450570106794032
 51
245.8557902308793928
  0
ARC
  5
1B791
  8
0
 10
212.0189530351100871
 20
128.0302374207369951
 30
0.0
 40
0.9803149605999195
 50
245.8557902308793928
 51
270.0000000000017053
  0
ARC
  5
1B792
  8
0
 10
212.0189530351100871
 20
128.0302374207371088
 30
0.0
 40
0.980314960600026
 50
270.0000000000017053
 51
350.4478851799888162
  0
ARC
  5
1B793
  8
0
 10
212.0189530351102007
 20
128.0302374207371088
 30
0.0
 40
0.9803149605999285
 50
350.4478851799888162
 51
31.3054434701501307
  0
ARC
  5
1B794
  8
0
 10
212.0189530351100871
 20
128.0302374207371088
 30
0.0
 40
0.9803149606000769
 50
31.3054434701501307
 51
81.6913523317575994
  0
ARC
  5
1B795
  8
0
 10
212.0189530351102007
 20
128.0302374207381888
 30
0.0
 40
0.9803149605988608
 50
81.6913523317575994
 51
89.9999996874885682
  0
ARC
  5
1B796
  8
0
 10
211.6761538914433061
 20
128.6185046953754068
 30
0.0
 40
0.0216326735413402
 50
207.7689401477859974
 51
233.9931052404845957
  0
ARC
  5
1B797
  8
0
 10
211.6624785283563881
 20
128.6113039658077923
 30
0.0
 40
0.0061773811835575
 50
145.8127150819184124
 51
207.7689401477400963
  0
ARC
  5
1B798
  8
0
 10
211.6778789267210925
 20
128.5987766028291901
 30
0.0
 40
0.0260120113838249
 50
117.9233301906583051
 51
142.0451596017749125
  0
ARC
  5
1B799
  8
0
 10
212.0189530220823997
 20
128.0302375169484037
 30
0.0
 40
0.6889762817887189
 50
89.9999989166059748
 51
120.845500713328903
  0
ARC
  5
1B79A
  8
0
 10
212.0189530351102007
 20
128.0302374207371088
 30
0.0
 40
0.6889763779999952
 50
359.9993457995993822
 51
90.0
  0
ARC
  5
1B79B
  8
0
 10
212.0189530351100871
 20
128.0302374207371088
 30
0.0
 40
0.6889763780000248
 50
304.7465078796932971
 51
359.9993457995993822
  0
ARC
  5
1B79C
  8
0
 10
212.0189530351102007
 20
128.0302374207371088
 30
0.0
 40
0.6889763780000067
 50
270.0000004446711159
 51
304.7465078796910802
  0
ARC
  5
1B79D
  8
0
 10
212.0189530351102007
 20
128.030237420737194
 30
0.0
 40
0.688976378000057
 50
242.6285646232005888
 51
270.0000004446694106
  0
ARC
  5
1B79E
  8
0
 10
212.0189530351105986
 20
128.0302374207379899
 30
0.0
 40
0.6889763780009722
 50
239.1531942636040924
 51
242.6285646231984003
  0
ARC
  5
1B79F
  8
0
 10
211.6817074720582923
 20
127.467226217571195
 30
0.0
 40
0.032698498082029
 50
225.1424354230823042
 51
240.6575170948285063
  0
ARC
  5
1B7A0
  8
0
 10
211.6629743427841959
 20
127.4491144316260005
 30
0.0
 40
0.0066654726072023
 50
150.1147845587263134
 51
229.4799653648090896
  0
ARC
  5
1B7A1
  8
0
 10
211.8457495519980114
 20
127.2566914733836967
 30
0.0
 40
0.2717876047881289
 50
122.450460926701993
 51
133.9281871658913872
  0
ARC
  5
1B7A2
  8
0
 10
211.3102222876024996
 20
128.0302837993392018
 30
0.0
 40
0.6693741518544902
 50
305.6037969038089273
 51
333.0912125320605242
  0
ARC
  5
1B7A3
  8
0
 10
211.3102916178100941
 20
128.0302374207371088
 30
0.0
 40
0.6692913386000026
 50
333.0920669059245256
 51
21.5949737377500206
  0
ARC
  5
1B7A4
  8
0
 10
211.3085523659840987
 20
128.0292257861144094
 30
0.0
 40
0.671280902502511
 50
21.6206229127599698
 51
55.8767140830124731
  0
ARC
  5
1B7A5
  8
0
 10
211.8729242200894021
 20
128.8610399622629075
 30
0.0
 40
0.3339211094572305
 50
231.1445928924215991
 51
235.777546071539291
  0
ARC
  5
1B7A6
  8
0
 10
211.3104488536336021
 20
128.0302040223342885
 30
0.0
 40
0.6573737395617018
 50
299.5329904245335797
 51
60.4673776275793884
  0
ARC
  5
1B7A7
  8
0
 10
211.9769386719214026
 20
128.0302060989650954
 30
0.0
 40
0.6666470539625353
 50
120.9108404402059023
 51
239.0896472620939051
  0
ARC
  5
1B7A8
  8
0
 10
212.0189530351102007
 20
128.0302374207371088
 30
0.0
 40
0.822834645700008
 50
49.7207415953160279
 51
89.9999996276676768
  0
ARC
  5
1B7A9
  8
0
 10
212.0189530351102007
 20
128.0302374207371088
 30
0.0
 40
0.8228346457000032
 50
353.3789049692950925
 51
49.7207415953160279
  0
ARC
  5
1B7AA
  8
0
 10
212.0189530351102007
 20
128.0302374207371088
 30
0.0
 40
0.8228346457000052
 50
320.3973467628204048
 51
353.3789049692950925
  0
ARC
  5
1B7AB
  8
0
 10
212.0189530351102007
 20
128.0302374207371088
 30
0.0
 40
0.8228346456999931
 50
279.5301461014926758
 51
320.3973467628204048
  0
ARC
  5
1B7AC
  8
0
 10
212.0189530351102007
 20
128.0302374207371088
 30
0.0
 40
0.8228346457000151
 50
238.5855438932042034
 51
279.5301461014943243
  0
ARC
  5
1B7AD
  8
0
 10
212.0189530351100871
 20
128.0302374207371088
 30
0.0
 40
0.8228346456999812
 50
186.9710523603312993
 51
238.5855438932042034
  0
ARC
  5
1B7AE
  8
0
 10
212.0189530351102007
 20
128.0302374207371088
 30
0.0
 40
0.8228346457000276
 50
146.8075809105503993
 51
186.9710523603312993
  0
ARC
  5
1B7AF
  8
0
 10
212.0189530351102007
 20
128.0302374207371088
 30
0.0
 40
0.8228346456999927
 50
104.4692372421194051
 51
146.8075809105503993
  0
ARC
  5
1B7B0
  8
0
 10
212.0189530351100018
 20
128.0302374207377056
 30
0.0
 40
0.8228346456993733
 50
89.999999627661154
 51
104.4692372421241942
  0
LINE
  5
1B7B1
  8
0
 10
206.218661375510095
 20
131.9672452947370971
 30
0.0
 11
206.3338926392652013
 21
131.6653642800376929
 31
0.0
  0
ARC
  5
1B7B2
  8
0
 10
123.3458637875628057
 20
129.7792450612280959
 30
0.0
 40
83.0094595717773984
 50
359.9935254132769273
 51
1.3019717553237089
  0
ARC
  5
1B7B3
  8
0
 10
209.5399955904410945
 20
129.7695048781197045
 30
0.0
 40
3.1846727814351139
 50
179.9935254132768989
 51
198.0073780274942976
  0
ARC
  5
1B7B4
  8
0
 10
209.5308763819859905
 20
129.7665405693628884
 30
0.0
 40
3.1750838769485039
 50
198.0073780274942976
 51
223.5957825649267079
  0
ARC
  5
1B7B5
  8
0
 10
210.9493874734154133
 20
131.1171713379877986
 30
0.0
 40
5.1337510742192407
 50
223.5957825649267079
 51
247.7165339987263053
  0
ARC
  5
1B7B6
  8
0
 10
212.0791324936405999
 20
133.8740401113589087
 30
0.0
 40
8.1131216863304747
 50
247.7165339987263053
 51
261.1674888680225877
  0
ARC
  5
1B7B7
  8
0
 10
212.0160749979008017
 20
133.9379355684122004
 30
0.0
 40
8.1668956217923085
 50
261.6734660217309738
 51
270.0201912333386076
  0
ARC
  5
1B7B8
  8
0
 10
212.0213737493986912
 20
83.0884190575441863
 30
0.0
 40
39.2664394806067492
 50
90.0035321869685987
 51
90.9849247937917056
  0
ARC
  5
1B7B9
  8
0
 10
212.0259261973598086
 20
82.8236169434334499
 30
0.0
 40
39.5312807244113102
 50
90.9849247986972927
 51
93.4522752031454047
  0
ARC
  5
1B7BA
  8
0
 10
212.0689741975591005
 20
82.1100344425826449
 30
0.0
 40
40.2461605155941484
 50
93.4522752031454047
 51
97.7198123539480008
  0
ARC
  5
1B7BB
  8
0
 10
212.4432957958723023
 20
79.3486838504065588
 30
0.0
 40
43.0327666506399567
 50
97.7198123539480008
 51
99.6589629448452428
  0
ARC
  5
1B7BC
  8
0
 10
204.9790390071065076
 20
126.8277806379574031
 30
0.0
 40
5.0622546483368112
 50
266.8070634170479138
 51
272.7635724732700737
  0
ARC
  5
1B7BD
  8
0
 10
242.7200345284676928
 20
209.8246941267516945
 30
0.0
 40
95.9102614500529143
 50
246.5793563499836978
 51
246.6439971363695065
  0
ARC
  5
1B7BE
  8
0
 10
218.908647733275501
 20
131.7702144477169099
 30
0.0
 40
0.1970421919951176
 50
62.0780498229156166
 51
89.3851603465939064
  0
ARC
  5
1B7BF
  8
0
 10
218.9089267066796083
 20
131.7705906985744093
 30
0.0
 40
0.1965791200496159
 50
23.9248120852421984
 51
62.098542879049738
  0
ARC
  5
1B7C0
  8
0
 10
218.9082733451481033
 20
131.7703008300300098
 30
0.0
 40
0.197293896283076
 50
0.027318999479319
 51
23.9248120852407098
  0
LINE
  5
1B7C1
  8
0
 10
219.1055672190043992
 20
131.7703949010364965
 30
0.0
 11
219.1055672190043992
 21
122.2521864009930965
 31
0.0
  0
ARC
  5
1B7C2
  8
0
 10
212.0216494374899128
 20
111.1117203196431973
 30
0.0
 40
6.3185533295006229
 50
269.9755494388516013
 51
274.627148233992898
  0
ARC
  5
1B7C3
  8
0
 10
211.992651276665697
 20
111.470009818123998
 30
0.0
 40
6.6780143956159916
 50
274.6271482325308284
 51
284.7541681369510798
  0
ARC
  5
1B7C4
  8
0
 10
212.0589222668907894
 20
111.2183693182791018
 30
0.0
 40
6.4177937482653391
 50
284.7541681369510798
 51
297.61582565786739
  0
ARC
  5
1B7C5
  8
0
 10
211.9651831578277097
 20
111.397555133383193
 30
0.0
 40
6.6200178242367302
 50
297.61582565786739
 51
309.2505399280553888
  0
ARC
  5
1B7C6
  8
0
 10
212.0799793368585995
 20
111.2570543301799972
 30
0.0
 40
6.4385828815689656
 50
309.2505399280553888
 51
322.6131555763662959
  0
ARC
  5
1B7C7
  8
0
 10
210.6358323107423018
 20
112.3606627787629009
 30
0.0
 40
8.2561395494129641
 50
322.6131555763662959
 51
339.0027308698356023
  0
ARC
  5
1B7C8
  8
0
 10
208.9239479732839015
 20
113.0176999939322968
 30
0.0
 40
10.0897823409492702
 50
339.0027308698356023
 51
345.5937694225465862
  0
ARC
  5
1B7C9
  8
0
 10
202.2343162623589876
 20
114.9425338502174014
 30
0.0
 40
17.0491281368595082
 50
344.9217586254454204
 51
357.8434861749514084
  0
ARC
  5
1B7CA
  8
0
 10
-32.6602628902100776
 20
125.1013451894580015
 30
0.0
 40
252.1630329981178988
 50
357.5452215783112138
 51
359.1138018734141042
  0
ARC
  5
1B7CB
  8
0
 10
253.1098278104456938
 20
123.2852435704950977
 30
0.0
 40
33.7017130882061835
 50
182.4980562016303054
 51
183.5451836749303993
  0
ARC
  5
1B7CC
  8
0
 10
218.9641731180064141
 20
121.7973053604840032
 30
0.0
 40
0.4763486837289726
 50
2.2898487396199991
 51
72.7327556307444496
  0
ARC
  5
1B7CD
  8
0
 10
218.2299722718512953
 20
118.5540639469209054
 30
0.0
 40
3.8003642186483808
 50
76.679516400676448
 51
81.516695894668473
  0
ARC
  5
1B7CE
  8
0
 10
212.0188549119050094
 20
82.1948928669415864
 30
0.0
 40
40.6854635304955181
 50
80.4190126255784463
 51
83.8684271352005339
  0
ARC
  5
1B7CF
  8
0
 10
216.35992939739549
 20
122.5992276759301944
 30
0.0
 40
0.048596966260121
 50
84.5440077999993207
 51
128.7783620906639044
  0
ARC
  5
1B7D0
  8
0
 10
216.3595204244668082
 20
122.600610736498794
 30
0.0
 40
0.0472657937339419
 50
129.4419361454843056
 51
180.7781253131747121
  0
LINE
  5
1B7D1
  8
0
 10
216.3122589895043859
 20
122.5999688466370969
 30
0.0
 11
216.3122588565171895
 21
122.2813862872614976
 31
0.0
  0
ARC
  5
1B7D2
  8
0
 10
211.2992585714304141
 20
74.2935297039053353
 30
0.0
 40
48.248984977314322
 50
84.036288034233479
 51
84.8184125823224946
  0
ARC
  5
1B7D3
  8
0
 10
211.9718795053358065
 20
81.7107971796332606
 30
0.0
 40
40.8012822625693801
 50
84.8184125823224946
 51
86.6479983851748443
  0
ARC
  5
1B7D4
  8
0
 10
211.9906741356400062
 20
82.0316871697320948
 30
0.0
 40
40.4798423399183704
 50
86.6479983946311592
 51
89.9599736082602135
  0
LINE
  5
1B7D5
  8
0
 10
214.3181643559362044
 20
122.4445616670947032
 30
0.0
 11
214.3181644446044913
 21
122.8102443826288948
 31
0.0
  0
ARC
  5
1B7D6
  8
0
 10
214.3575344383592096
 20
122.8102443730826963
 30
0.0
 40
0.0393699937546836
 50
89.999738850533376
 51
179.9999861073110878
  0
LINE
  5
1B7D7
  8
0
 10
214.3575346178043901
 20
122.8496143668370024
 30
0.0
 11
215.6567472161927981
 21
122.8496084451325032
 31
0.0
  0
ARC
  5
1B7D8
  8
0
 10
215.6567470367467934
 20
122.8102382813763001
 30
0.0
 40
0.0393701637566121
 50
0.0040660886479107
 51
89.9997388505366303
  0
LINE
  5
1B7D9
  8
0
 10
215.6961172004043021
 20
122.8102410753442939
 30
0.0
 11
215.6961169029044072
 21
122.3417577857044023
 31
0.0
  0
LINE
  5
1B7DA
  8
0
 10
216.2657038595044128
 20
122.3261143487195994
 30
0.0
 11
216.2643215871044049
 21
122.4943564484870961
 31
0.0
  0
ARC
  5
1B7DB
  8
0
 10
214.523793570123587
 20
122.4800563188363043
 30
0.0
 40
1.7405867607226251
 50
0.4707299351397821
 51
3.4087901292403089
  0
ARC
  5
1B7DC
  8
0
 10
216.1886147501465985
 20
122.5792212370570979
 30
0.0
 40
0.072814821140176
 50
3.4087901292403089
 51
81.7944899423697649
  0
LINE
  5
1B7DD
  8
0
 10
216.1990071813065981
 20
122.651290617186703
 30
0.0
 11
215.8685946843363013
 21
122.6922907612824929
 31
0.0
  0
ARC
  5
1B7DE
  8
0
 10
215.85921939311541
 20
122.6142973883643066
 30
0.0
 40
0.0785548362905539
 50
83.1455771256836442
 51
135.499588797869194
  0
ARC
  5
1B7DF
  8
0
 10
215.8717557692069988
 20
122.6019777490322014
 30
0.0
 40
0.0961313615097628
 50
135.499588797869194
 51
171.0879198433927968
  0
ARC
  5
1B7E0
  8
0
 10
216.0775124897014052
 20
122.5500511035294977
 30
0.0
 40
0.3080614210862497
 50
167.4728528463294879
 51
180.7381761803086135
  0
ARC
  5
1B7E1
  8
0
 10
222.668777853534209
 20
122.3369767669247068
 30
0.0
 40
6.9024692980625701
 50
178.2639986213306997
 51
179.5965977680830008
  0
ARC
  5
1B7E2
  8
0
 10
208.2092843283203081
 20
122.4387833641148973
 30
0.0
 40
7.5573826233415469
 50
359.3148842322692076
 51
359.5965977680830861
  0
ARC
  5
1B7E3
  8
0
 10
215.7225531803157992
 20
122.348938975094697
 30
0.0
 40
0.0435766066410478
 50
347.0091174887091938
 51
359.3148842322723908
  0
ARC
  5
1B7E4
  8
0
 10
216.1068509288433859
 20
122.2602812595316948
 30
0.0
 40
0.3508152670737534
 50
167.0091174887076022
 51
167.6224399527712023
  0
LINE
  5
1B7E5
  8
0
 10
215.6961172912043878
 20
122.549117764537101
 30
0.0
 11
215.7177706661043999
 21
122.5366152757371054
 31
0.0
  0
LINE
  5
1B7E6
  8
0
 10
215.7177706661043999
 20
122.5366152757371054
 30
0.0
 11
215.7177706661043999
 21
122.3397709950857006
 31
0.0
  0
LINE
  5
1B7E7
  8
0
 10
215.7650144807043944
 20
122.3391431278312069
 30
0.0
 11
215.7650147464044039
 21
122.5307098235370944
 31
0.0
  0
ARC
  5
1B7E8
  8
0
 10
215.7571400578960947
 20
122.5307098344592021
 30
0.0
 40
0.0078746885083086
 50
359.9999205316544817
 51
89.9949671702824361
  0
LINE
  5
1B7E9
  8
0
 10
215.7571407496043889
 20
122.5385845229371
 30
0.0
 11
215.725644686726298
 21
122.5385872895338935
 31
0.0
  0
LINE
  5
1B7EA
  8
0
 10
215.725644686726298
 20
122.5385872895338935
 30
0.0
 11
215.725644686726298
 21
122.3390462200113973
 31
0.0
  0
LINE
  5
1B7EB
  8
0
 10
215.7256445543044094
 20
122.4834664882370987
 30
0.0
 11
215.7177705919827986
 21
122.4834664882370987
 31
0.0
  0
LINE
  5
1B7EC
  8
0
 10
216.3122589757948901
 20
122.5671265022059941
 30
0.0
 11
216.3070853269325937
 21
122.5668553730376971
 31
0.0
  0
ARC
  5
1B7ED
  8
0
 10
216.3083215460206077
 20
122.5432660133299976
 30
0.0
 40
0.0236217300181532
 50
92.9998864726550636
 51
180.0007300745259045
  0
LINE
  5
1B7EE
  8
0
 10
216.2846998160044052
 20
122.543265712337103
 30
0.0
 11
216.284703116347913
 21
122.2842568710430982
 31
0.0
  0
LINE
  5
1B7EF
  8
0
 10
216.2846995009043951
 20
122.3260393906371064
 30
0.0
 11
216.2616107389860076
 21
122.3260394460415057
 31
0.0
  0
LINE
  5
1B7F0
  8
0
 10
216.2616107389860076
 20
122.3260394460415057
 30
0.0
 11
216.2554918145517036
 21
122.3140918801011026
 31
0.0
  0
LINE
  5
1B7F1
  8
0
 10
216.2554918145517036
 20
122.3140918801011026
 30
0.0
 11
216.2550511559271058
 21
122.2873279616025997
 31
0.0
  0
ARC
  5
1B7F2
  8
0
 10
218.8715847087312056
 20
131.7626240995055866
 30
0.0
 40
0.2047722760840748
 50
75.358614866148514
 51
87.79893194698559
  0
ARC
  5
1B7F3
  8
0
 10
218.8739652300097021
 20
131.7717360746630959
 30
0.0
 40
0.1953544752352782
 50
44.886126330087869
 51
75.358614866148514
  0
ARC
  5
1B7F4
  8
0
 10
218.8716240398919126
 20
131.7694041721910025
 30
0.0
 40
0.1986588572208679
 50
18.1748794320445306
 51
44.886126330087869
  0
ARC
  5
1B7F5
  8
0
 10
218.8759777965940998
 20
131.7708334996760016
 30
0.0
 40
0.1940764807106577
 50
359.8705156224660868
 51
18.1748794320445306
  0
ARC
  5
1B7F6
  8
0
 10
623.1276139890190962
 20
130.8572520624946094
 30
0.0
 40
404.0585920266166227
 50
179.8705156224660868
 51
180.1496536248903055
  0
ARC
  5
1B7F7
  8
0
 10
212.4816406433606915
 20
129.784663492550095
 30
0.0
 40
6.5887820928869241
 50
355.1653587559973744
 51
0.14965362489035
  0
ARC
  5
1B7F8
  8
0
 10
215.0791540536646096
 20
129.5649625764856125
 30
0.0
 40
3.981993952429808
 50
338.5377292887022804
 51
355.1653587559973744
  0
ARC
  5
1B7F9
  8
0
 10
214.1893708156781031
 20
129.9147808528946086
 30
0.0
 40
4.9380729434715462
 50
310.8170957302518218
 51
338.5377292887022804
  0
ARC
  5
1B7FA
  8
0
 10
213.5951283974364117
 20
130.6028021820633001
 30
0.0
 40
5.8471919681480831
 50
294.5037485230377001
 51
310.8170957302518218
  0
ARC
  5
1B7FB
  8
0
 10
212.4263815461073932
 20
133.1669385121033997
 30
0.0
 40
8.6651281493848771
 50
282.0981091973299044
 51
294.5037485230377001
  0
ARC
  5
1B7FC
  8
0
 10
212.1694386999519111
 20
134.3656628122110988
 30
0.0
 40
9.8910806663524173
 50
272.7326250364968132
 51
282.0981091973299044
  0
ARC
  5
1B7FD
  8
0
 10
211.8178911242056017
 20
141.7310779328720116
 30
0.0
 40
17.2648806092362399
 50
270.6672655255659947
 51
272.7326250454470937
  0
ARC
  5
1B7FE
  8
0
 10
217.9675337446988976
 20
131.7714898187030883
 30
0.0
 40
0.1958528030291554
 50
47.5705481850815772
 51
88.1936272274959236
  0
ARC
  5
1B7FF
  8
0
 10
217.9666928275771056
 20
131.7705698470886091
 30
0.0
 40
0.1970991935687842
 50
359.4550568223568803
 51
47.5705481850815772
  0
ARC
  5
1B800
  8
0
 10
2028.3936900908408916
 20
114.550984059929803
 30
0.0
 40
1810.3117868808299136
 50
179.4550568223569087
 51
179.5197479301446037
  0
ARC
  5
1B801
  8
0
 10
214.6232316879533926
 20
129.7543275619264023
 30
0.0
 40
3.522388954618731
 50
351.3792494098000248
 51
359.5197479301447174
  0
ARC
  5
1B802
  8
0
 10
214.5149750564897886
 20
129.7707399439601943
 30
0.0
 40
3.6318826281339951
 50
324.2324120876156144
 51
351.3792494098000248
  0
ARC
  5
1B803
  8
0
 10
213.7970403511374116
 20
130.2879136460346103
 30
0.0
 40
4.5166983599487134
 50
301.0316001213352024
 51
324.2324120876156144
  0
ARC
  5
1B804
  8
0
 10
212.4991056473486992
 20
132.2083666665238013
 30
0.0
 40
6.8324936391068061
 50
286.3334890707570253
 51
302.0560963157695937
  0
ARC
  5
1B805
  8
0
 10
212.0882930760604097
 20
133.4879855526733934
 30
0.0
 40
8.1760725823982501
 50
277.0063851565168989
 51
286.5743344879858228
  0
ARC
  5
1B806
  8
0
 10
212.0219218335058997
 20
133.9579723721213895
 30
0.0
 40
8.6506499884673254
 50
270.9454290632061202
 51
277.0629921159959963
  0
ARC
  5
1B807
  8
0
 10
212.0190014256554889
 20
134.0449598026899878
 30
0.0
 40
8.7376738900868833
 50
269.9996827224622962
 51
270.9551647838948725
  0
LINE
  5
1B808
  8
0
 10
217.819244705404401
 20
131.9672452947370971
 30
0.0
 11
217.7040134416492947
 21
131.6653642800378066
 31
0.0
  0
ARC
  5
1B809
  8
0
 10
300.6920422933516761
 20
129.7792450612280959
 30
0.0
 40
83.0094595717773984
 50
178.6980282446762942
 51
180.0064745867231011
  0
ARC
  5
1B80A
  8
0
 10
214.4979104904734015
 20
129.7695048781197045
 30
0.0
 40
3.1846727814351139
 50
341.992621972505674
 51
0.0064745867231205
  0
ARC
  5
1B80B
  8
0
 10
214.5070296989285055
 20
129.7665405693628884
 30
0.0
 40
3.1750838769485039
 50
316.4042174350734058
 51
341.992621972505674
  0
ARC
  5
1B80C
  8
0
 10
213.0885186074991111
 20
131.1171713379877986
 30
0.0
 40
5.1337510742192407
 50
292.2834660012737231
 51
316.4042174350734058
  0
ARC
  5
1B80D
  8
0
 10
211.9587735872740097
 20
133.8740401113589087
 30
0.0
 40
8.1131216863304747
 50
278.8325111319774123
 51
292.2834660012737231
  0
ARC
  5
1B80E
  8
0
 10
212.0218310830136943
 20
133.9379355684120014
 30
0.0
 40
8.1668956217921664
 50
269.9798087666613924
 51
278.3265339782690262
  0
ARC
  5
1B80F
  8
0
 10
212.0165323315158901
 20
83.0884190576025077
 30
0.0
 40
39.2664394805484207
 50
89.0150752062066744
 51
89.9964678130313871
  0
ARC
  5
1B810
  8
0
 10
212.0119798835546874
 20
82.8236169434334499
 30
0.0
 40
39.5312807244113102
 50
86.5477247968545953
 51
89.0150752013027073
  0
ARC
  5
1B811
  8
0
 10
211.9689318833553955
 20
82.1100344425826449
 30
0.0
 40
40.2461605155941484
 50
82.2801876460519992
 51
86.5477247968545953
  0
ARC
  5
1B812
  8
0
 10
211.5946102850423074
 20
79.3486838504065588
 30
0.0
 40
43.0327666506399567
 50
80.341037055154743
 51
82.2801876460519992
  0
ARC
  5
1B813
  8
0
 10
219.0588670738081021
 20
126.8277806379574031
 30
0.0
 40
5.0622546483368112
 50
267.2364275267299263
 51
273.1929365829520862
  0
ARC
  5
1B814
  8
0
 10
181.3178715524468032
 20
209.8246941267516945
 30
0.0
 40
95.9102614500529143
 50
293.3560028636305219
 51
293.4206436500161885
  0
ENDSEC
  0
EOF
