  0
SECTION
  2
HEADER
  9
$ACADVER
  1
AC1009
  9
$INSBASE
 10
4042.0374547361489022
 20
212.1219976751170009
 30
0.0
  9
$EXTMIN
 10
4025.0041419129188398
 20
204.1792459457311963
 30
-0.0000000000000058
  9
$EXTMAX
 10
4058.7974798437280697
 20
214.7611829322781887
 30
0.0000000000000104
  9
$LIMMIN
 10
0.0
 20
0.0
  9
$LIMMAX
 10
11.6929133858000007
 20
8.2677165353999982
  9
$ORTHOMODE
 70
     0
  9
$REGENMODE
 70
     1
  9
$FILLMODE
 70
     1
  9
$QTEXTMODE
 70
     0
  9
$MIRRTEXT
 70
     0
  9
$DRAGMODE
 70
     2
  9
$LTSCALE
 40
0.6431102362
  9
$OSMODE
 70
  4095
  9
$ATTMODE
 70
     1
  9
$TEXTSIZE
 40
0.2
  9
$TRACEWID
 40
0.05
  9
$TEXTSTYLE
  7
STANDARD
  9
$CLAYER
  8
0
  9
$CELTYPE
  6
BYLAYER
  9
$CECOLOR
 62
   256
  9
$DIMSCALE
 40
1.0
  9
$DIMASZ
 40
0.1875
  9
$DIMEXO
 40
0.0625
  9
$DIMDLI
 40
0.4443307087
  9
$DIMRND
 40
0.0
  9
$DIMDLE
 40
0.0
  9
$DIMEXE
 40
0.125
  9
$DIMTP
 40
0.01
  9
$DIMTM
 40
0.01
  9
$DIMTXT
 40
2.0
  9
$DIMCEN
 40
0.1052362205
  9
$DIMTSZ
 40
0.0
  9
$DIMTOL
 70
     1
  9
$DIMLIM
 70
     0
  9
$DIMTIH
 70
     1
  9
$DIMTOH
 70
     1
  9
$DIMSE1
 70
     0
  9
$DIMSE2
 70
     0
  9
$DIMTAD
 70
     0
  9
$DIMZIN
 70
     0
  9
$DIMBLK
  1

  9
$DIMASO
 70
     1
  9
$DIMSHO
 70
     1
  9
$DIMPOST
  1
\X
  9
$DIMAPOST
  1

  9
$DIMALT
 70
     1
  9
$DIMALTD
 70
     2
  9
$DIMALTF
 40
25.3999999999999986
  9
$DIMLFAC
 40
1.0
  9
$DIMTOFL
 70
     0
  9
$DIMTVP
 40
0.0
  9
$DIMTIX
 70
     0
  9
$DIMSOXD
 70
     0
  9
$DIMSAH
 70
     0
  9
$DIMBLK1
  1

  9
$DIMBLK2
  1

  9
$DIMSTYLE
  2
STANDARD
  9
$DIMCLRD
 70
     0
  9
$DIMCLRE
 70
     0
  9
$DIMCLRT
 70
     0
  9
$DIMTFAC
 40
1.0
  9
$DIMGAP
 40
0.09
  9
$LUNITS
 70
     2
  9
$LUPREC
 70
     4
  9
$SKETCHINC
 40
0.1
  9
$FILLETRAD
 40
0.0
  9
$AUNITS
 70
     0
  9
$AUPREC
 70
     0
  9
$MENU
  1
.
  9
$ELEVATION
 40
0.0
  9
$PELEVATION
 40
0.0
  9
$THICKNESS
 40
0.0
  9
$LIMCHECK
 70
     0
  9
$BLIPMODE
 70
     0
  9
$CHAMFERA
 40
0.0
  9
$CHAMFERB
 40
0.0
  9
$SKPOLY
 70
     0
  9
$TDCREATE
 40
2458060.468368056230247
  9
$TDUPDATE
 40
2459165.5430208342149854
  9
$TDINDWG
 40
0.4437107639
  9
$TDUSRTIMER
 40
0.4437107639
  9
$USRTIMER
 70
     1
  9
$ANGBASE
 50
0.0
  9
$ANGDIR
 70
     0
  9
$PDMODE
 70
     0
  9
$PDSIZE
 40
0.3125
  9
$PLINEWID
 40
0.0
  9
$COORDS
 70
     1
  9
$SPLFRAME
 70
     0
  9
$SPLINETYPE
 70
     6
  9
$SPLINESEGS
 70
     8
  9
$ATTDIA
 70
     1
  9
$ATTREQ
 70
     1
  9
$HANDLING
 70
     1
  9
$HANDSEED
  5
18B3E
  9
$SURFTAB1
 70
     6
  9
$SURFTAB2
 70
     6
  9
$SURFTYPE
 70
     6
  9
$SURFU
 70
     6
  9
$SURFV
 70
     6
  9
$UCSNAME
  2

  9
$UCSORG
 10
0.0
 20
0.0
 30
0.0
  9
$UCSXDIR
 10
1.0
 20
0.0
 30
0.0
  9
$UCSYDIR
 10
0.0
 20
1.0
 30
0.0
  9
$PUCSNAME
  2

  9
$PUCSORG
 10
0.0
 20
0.0
 30
0.0
  9
$PUCSXDIR
 10
1.0
 20
0.0
 30
0.0
  9
$PUCSYDIR
 10
0.0
 20
1.0
 30
0.0
  9
$USERI1
 70
     0
  9
$USERI2
 70
     0
  9
$USERI3
 70
     0
  9
$USERI4
 70
     0
  9
$USERI5
 70
     0
  9
$USERR1
 40
0.0
  9
$USERR2
 40
0.0
  9
$USERR3
 40
0.0
  9
$USERR4
 40
0.0
  9
$USERR5
 40
0.0
  9
$WORLDVIEW
 70
     1
  9
$SHADEDGE
 70
     3
  9
$SHADEDIF
 70
    70
  9
$TILEMODE
 70
     1
  9
$MAXACTVP
 70
    64
  9
$PLIMCHECK
 70
     0
  9
$PEXTMIN
 10
1.0000000000000000E+20
 20
1.0000000000000000E+20
 30
1.0000000000000000E+20
  9
$PEXTMAX
 10
-1.0000000000000000E+20
 20
-1.0000000000000000E+20
 30
-1.0000000000000000E+20
  9
$PLIMMIN
 10
0.0
 20
0.0
  9
$PLIMMAX
 10
12.0
 20
9.0
  9
$UNITMODE
 70
     0
  9
$VISRETAIN
 70
     1
  9
$PLINEGEN
 70
     0
  9
$PSLTSCALE
 70
     1
  0
ENDSEC
  0
SECTION
  2
TABLES
  0
TABLE
  2
VPORT
 70
     1
  0
VPORT
  2
*ACTIVE
 70
     0
 10
0.0
 20
0.0
 11
1.0
 21
1.0
 12
130.5354536940618004
 22
76.8906088538305994
 13
0.0
 23
0.0
 14
1.0
 24
1.0
 15
0.0
 25
0.0
 16
0.0
 26
0.0
 36
60.4960186965801583
 17
3911.3653564453120453
 27
132.5796051025390057
 37
0.0
 40
23.8674352788962096
 41
1.8614190687361409
 42
50.0
 43
0.0
 44
0.0
 50
0.0
 51
0.0
 71
     0
 72
   100
 73
     1
 74
     1
 75
     0
 76
     0
 77
     0
 78
     0
  0
ENDTAB
  0
TABLE
  2
LTYPE
 70
     2
  0
LTYPE
  2
CONTINUOUS
 70
     0
  3
Solid line
 72
    65
 73
     0
 40
0.0
  0
LTYPE
  2
PHANTOM2
 70
     0
  3
___ _ _ ___ _ _ ___ _ _ ___ _ _
 72
    65
 73
     6
 40
1.25
 49
0.625
 49
-0.125
 49
0.125
 49
-0.125
 49
0.125
 49
-0.125
  0
ENDTAB
  0
TABLE
  2
LAYER
 70
     2
  0
LAYER
  2
0
 70
     0
 62
   255
  6
CONTINUOUS
  0
LAYER
  2
DEFPOINTS
 70
     0
 62
     7
  6
CONTINUOUS
  0
ENDTAB
  0
TABLE
  2
STYLE
 70
     1
  0
STYLE
  2
STANDARD
 70
     0
 40
0.0
 41
0.8
 50
0.0
 71
     0
 42
0.2
  3
txt
  4

  0
ENDTAB
  0
TABLE
  2
VIEW
 70
     0
  0
ENDTAB
  0
TABLE
  2
UCS
 70
     0
  0
ENDTAB
  0
TABLE
  2
APPID
 70
    11
  0
APPID
  2
ACAD
 70
     0
  0
APPID
  2
ACAD_MLEADERVER
 70
     0
  0
APPID
  2
ACAD_EXEMPT_FROM_CAD_STANDARDS
 70
     0
  0
APPID
  2
ACAD_NAV_VCDISPLAY
 70
     0
  0
APPID
  2
ACAECLAYERSTANDARD
 70
     0
  0
APPID
  2
ACCMTRANSPARENCY
 70
     0
  0
APPID
  2
ACAD_DSTYLE_DIMJAG
 70
     0
  0
APPID
  2
ACAD_DSTYLE_DIMTALN
 70
     0
  0
APPID
  2
ACDBATTR
 70
     0
  0
APPID
  2
ACADANNOTATIVE
 70
     0
  0
APPID
  2
DCO15
 70
     0
  0
ENDTAB
  0
TABLE
  2
DIMSTYLE
 70
     1
  0
DIMSTYLE
  2
STANDARD
 70
     0
  3

  4

  5

  6

  7

 40
1.0
 41
0.1875
 42
0.0625
 43
0.38
 44
0.125
 45
0.0
 46
0.0
 47
0.01
 48
0.01
140
0.15625
141
0.09
142
0.0
143
25.3999999999999986
144
1.0
145
0.0
146
1.0
147
0.09
 71
     1
 72
     0
 73
     1
 74
     1
 75
     0
 76
     0
 77
     0
 78
     4
170
     0
171
     2
172
     0
173
     0
174
     0
175
     0
176
     0
177
     0
178
     0
  0
ENDTAB
  0
ENDSEC
  0
SECTION
  2
BLOCKS
  0
BLOCK
  8
0
  2
$MODEL_SPACE
 70
     0
 10
0.0
 20
0.0
 30
0.0
  3
$MODEL_SPACE
  1

  0
ENDBLK
  5
21
  8
0
  0
BLOCK
 67
     1
  8
0
  2
$PAPER_SPACE
 70
     0
 10
0.0
 20
0.0
 30
0.0
  3
$PAPER_SPACE
  1

  0
ENDBLK
  5
1D
 67
     1
  8
0
  0
ENDSEC
  0
SECTION
  2
ENTITIES
  0
LINE
  5
1887D
  8
0
 10
4026.2648741594989588
 20
212.0350156347170127
 30
0.0
 11
4026.2603156239988493
 21
212.1219976751170009
 31
0.0
  0
LINE
  5
1887E
  8
0
 10
4025.8169822951990682
 20
211.5314464940169898
 30
0.0
 11
4025.8169822951990682
 21
212.1219976751170009
 31
0.0
  0
LINE
  5
1887F
  8
0
 10
4025.8484783581989177
 20
211.5314464940169898
 30
0.0
 11
4025.8484783581989177
 21
212.1219976751170009
 31
0.0
  0
LINE
  5
18880
  8
0
 10
4026.6496738451987767
 20
211.8111579866169905
 30
0.0
 11
4026.9557056223989093
 21
205.9717238138169932
 31
0.0
  0
LINE
  5
18881
  8
0
 10
4025.3051712715991926
 20
212.1219976751170009
 30
0.0
 11
4025.4674279779987955
 21
212.2842543815170018
 31
0.0
  0
LINE
  5
18882
  8
0
 10
4029.0453287518989782
 20
211.7282968877169935
 30
0.0
 11
4029.0453287518989782
 21
212.1219976751170009
 31
0.0
  0
LINE
  5
18883
  8
0
 10
4030.6201319014990077
 20
211.7282968877169935
 30
0.0
 11
4030.6201319014990077
 21
212.1219976751170009
 31
0.0
  0
LINE
  5
18884
  8
0
 10
4033.3094678077000026
 20
204.2479300754170026
 30
0.0
 11
4033.2023429179989762
 21
204.399552996217011
 31
0.0
  0
LINE
  5
18885
  8
0
 10
4036.9193444998991254
 20
211.7282968877169935
 30
0.0
 11
4036.9193444998991254
 21
212.1219976751170009
 31
0.0
  0
LINE
  5
18886
  8
0
 10
4053.0878319048988487
 20
205.0109561290169893
 30
0.0
 11
4052.8445413502990959
 21
204.9759222892170101
 31
0.0
  0
LINE
  5
18887
  8
0
 10
4028.0766251073991953
 20
204.819045041316997
 30
0.0
 11
4033.1878515322991916
 21
204.4078055276170005
 31
0.0
  0
LINE
  5
18888
  8
0
 10
4033.3492822918001366
 20
204.223554554217003
 30
0.0
 11
4033.5925728463998894
 21
204.1885207144169954
 31
0.0
  0
LINE
  5
18889
  8
0
 10
4038.4941476494991548
 20
211.7282968877169935
 30
0.0
 11
4038.4941476494991548
 21
212.1219976751170009
 31
0.0
  0
LINE
  5
1888A
  8
0
 10
4037.7335011962991302
 20
204.223554554217003
 30
0.0
 11
4037.4902106416989227
 21
204.1885207144169954
 31
0.0
  0
LINE
  5
1888B
  8
0
 10
4041.8470058618781877
 20
204.8015517025125121
 30
0.0
 11
4037.8949572953988536
 21
204.4083257869170041
 31
0.0
  0
LINE
  5
1888C
  8
0
 10
4055.9916051003988287
 20
205.3381390751169988
 30
0.0
 11
4053.2492300124990834
 21
205.1944172868170142
 31
0.0
  0
LINE
  5
1888D
  8
0
 10
4037.4902106416989227
 20
204.1885207144169954
 30
0.0
 11
4033.5925728463998894
 21
204.1885207144169954
 31
0.0
  0
LINE
  5
1888E
  8
0
 10
4052.8445413502990959
 20
204.9759222892170101
 30
0.0
 11
4048.9469035550991975
 21
204.9759222892170101
 31
0.0
  0
LINE
  5
1888F
  8
0
 10
4045.7998442351990889
 20
205.3381388429170045
 30
0.0
 11
4048.5422141095991719
 21
205.1944173278170069
 31
0.0
  0
LINE
  5
18890
  8
0
 10
4048.7036130003989456
 20
205.0109561290169893
 30
0.0
 11
4048.9469035550991975
 21
204.9759222892170101
 31
0.0
  0
LINE
  5
18891
  8
0
 10
4037.7733156803988095
 20
204.2479300754170026
 30
0.0
 11
4037.8808316851350355
 21
204.4001056197793105
 31
0.0
  0
LINE
  5
18892
  8
0
 10
4042.9449473282488725
 20
205.952105108957511
 30
0.0
 11
4043.2520072806992175
 21
211.8111579866169905
 31
0.0
  0
LINE
  5
18893
  8
0
 10
4044.3662092782988111
 20
211.8111579866169905
 30
0.0
 11
4044.6443690974379024
 21
206.5035524562368039
 31
0.0
  0
LINE
  5
18894
  8
0
 10
4045.5807618227991043
 20
211.7282968877169935
 30
0.0
 11
4045.5807618227991043
 21
212.1219976751170009
 31
0.0
  0
LINE
  5
18895
  8
0
 10
4057.4251763318989106
 20
211.8140929443169966
 30
0.0
 11
4057.4255946622988631
 21
211.8141013959169925
 31
0.0
  0
LINE
  5
18896
  8
0
 10
4058.2579271770991909
 20
211.5314464940169898
 30
0.0
 11
4058.2264311140988866
 21
211.5314464940169898
 31
0.0
  0
LINE
  5
18897
  8
0
 10
4054.8327303266992203
 20
211.5314464940169898
 30
0.0
 11
4053.6516279644988572
 21
211.5314464940169898
 31
0.0
  0
LINE
  5
18898
  8
0
 10
4046.9587145786990732
 20
211.5314464940169898
 30
0.0
 11
4045.7776122164991648
 21
211.5314464940169898
 31
0.0
  0
LINE
  5
18899
  8
0
 10
4029.2421791455990387
 20
211.5314464940169898
 30
0.0
 11
4030.4232815077998566
 21
211.5314464940169898
 31
0.0
  0
LINE
  5
1889A
  8
0
 10
4037.1161948935991859
 20
211.5314464940169898
 30
0.0
 11
4038.2972972557990943
 21
211.5314464940169898
 31
0.0
  0
LINE
  5
1889B
  8
0
 10
4025.8484783581989177
 20
211.5314464940169898
 30
0.0
 11
4025.8169822951990682
 21
211.5314464940169898
 31
0.0
  0
LINE
  5
1889C
  8
0
 10
4054.379974421199222
 20
211.6889268090170049
 30
0.0
 11
4054.1043838699988555
 21
211.6889268090170049
 31
0.0
  0
LINE
  5
1889D
  8
0
 10
4046.5059586731999843
 20
211.6889268090170049
 30
0.0
 11
4046.2303681219991631
 21
211.6889268090170049
 31
0.0
  0
LINE
  5
1889E
  8
0
 10
4029.6949350510990371
 20
211.6889268090170049
 30
0.0
 11
4029.9705256022989488
 21
211.6889268090170049
 31
0.0
  0
LINE
  5
1889F
  8
0
 10
4037.5689507990991842
 20
211.6889268090170049
 30
0.0
 11
4037.8445413502990959
 21
211.6889268090170049
 31
0.0
  0
LINE
  5
188A0
  8
0
 10
4054.5560338512991621
 20
211.8857772027170085
 30
0.0
 11
4053.9283248714991714
 21
211.8857772027170085
 31
0.0
  0
LINE
  5
188A1
  8
0
 10
4053.4547775707987967
 20
211.8857772027170085
 30
0.0
 11
4047.1555649723991337
 21
211.8857772027170085
 31
0.0
  0
LINE
  5
188A2
  8
0
 10
4046.6820181032990149
 20
211.8857772027170085
 30
0.0
 11
4046.0543091233989799
 21
211.8857772027170085
 31
0.0
  0
LINE
  5
188A3
  8
0
 10
4045.5807618227991043
 20
211.8857772027170085
 30
0.0
 11
4038.4941476494991548
 21
211.8857772027170085
 31
0.0
  0
LINE
  5
188A4
  8
0
 10
4038.0206007804990804
 20
211.8857772027170085
 30
0.0
 11
4037.3928918005990454
 21
211.8857772027170085
 31
0.0
  0
LINE
  5
188A5
  8
0
 10
4036.9193444998991254
 20
211.8857772027170085
 30
0.0
 11
4030.6201319014990077
 21
211.8857772027170085
 31
0.0
  0
LINE
  5
188A6
  8
0
 10
4030.1465850323988889
 20
211.8857772027170085
 30
0.0
 11
4029.5188760525988982
 21
211.8857772027170085
 31
0.0
  0
LINE
  5
188A7
  8
0
 10
4029.0453287518989782
 20
211.8857772027170085
 30
0.0
 11
4026.4221386531989992
 21
211.8857772027170085
 31
0.0
  0
LINE
  5
188A8
  8
0
 10
4055.0295807203988261
 20
211.8857772027170085
 30
0.0
 11
4057.6527708190988051
 21
211.8857772027170085
 31
0.0
  0
LINE
  5
188A9
  8
0
 10
4037.8445413502990959
 20
212.0432575176170076
 30
0.0
 11
4037.5689507990991842
 21
212.0432575176170076
 31
0.0
  0
LINE
  5
188AA
  8
0
 10
4029.9705256022989488
 20
212.0432575176170076
 30
0.0
 11
4029.6949350510990371
 21
212.0432575176170076
 31
0.0
  0
LINE
  5
188AB
  8
0
 10
4046.2303681219991631
 20
212.0432575176170076
 30
0.0
 11
4046.5059586731999843
 21
212.0432575176170076
 31
0.0
  0
LINE
  5
188AC
  8
0
 10
4054.1043838699988555
 20
212.0432575176170076
 30
0.0
 11
4054.379974421199222
 21
212.0432575176170076
 31
0.0
  0
LINE
  5
188AD
  8
0
 10
4025.3051712715991926
 20
212.1219976751170009
 30
0.0
 11
4058.7697382006990665
 21
212.1219976751170009
 31
0.0
  0
LINE
  5
188AE
  8
0
 10
4048.5572632483899724
 20
205.186108059234499
 30
0.0
 11
4048.6637985162988116
 21
205.0353316502169889
 31
0.0
  0
LINE
  5
188AF
  8
0
 10
4058.5239649452992126
 20
212.3188480688170046
 30
0.0
 11
4025.5509445269990465
 21
212.3188480688170046
 31
0.0
  0
LINE
  5
188B0
  8
0
 10
4047.1555649723991337
 20
211.7282968877169935
 30
0.0
 11
4047.1555649723991337
 21
212.1219976751170009
 31
0.0
  0
LINE
  5
188B1
  8
0
 10
4053.4547775707987967
 20
211.7282968877169935
 30
0.0
 11
4053.4547775707987967
 21
212.1219976751170009
 31
0.0
  0
LINE
  5
188B2
  8
0
 10
4053.2341907502850518
 20
205.1860551119665104
 30
0.0
 11
4053.1276463889998922
 21
205.0353316502169889
 31
0.0
  0
LINE
  5
188B3
  8
0
 10
4055.0295807203988261
 20
211.7282968877169935
 30
0.0
 11
4055.0295807203988261
 21
212.1219976751170009
 31
0.0
  0
LINE
  5
188B4
  8
0
 10
4058.6074814942990088
 20
212.2842543815170018
 30
0.0
 11
4058.7697382006990665
 21
212.1219976751170009
 31
0.0
  0
LINE
  5
188B5
  8
0
 10
4057.814593848298955
 20
212.1219976751170009
 30
0.0
 11
4057.8100353127988456
 21
212.0350156347170127
 31
0.0
  0
LINE
  5
188B6
  8
0
 10
4057.1462140799990266
 20
206.4873647347170049
 30
0.0
 11
4057.4252356270990276
 21
211.8111579866169905
 31
0.0
  0
LINE
  5
188B7
  8
0
 10
4057.1458512506987972
 20
206.4812775390169861
 30
0.0
 11
4057.1462140799990266
 21
206.4873647347170049
 31
0.0
  0
LINE
  5
188B8
  8
0
 10
4057.1454088415989645
 20
206.4744630386169888
 30
0.0
 11
4057.1458512506987972
 21
206.4812775390169861
 31
0.0
  0
LINE
  5
188B9
  8
0
 10
4057.1448999125000228
 20
206.4672648232169934
 30
0.0
 11
4057.1454088415989645
 21
206.4744630386169888
 31
0.0
  0
LINE
  5
188BA
  8
0
 10
4057.1443108076991848
 20
206.4595983538170003
 30
0.0
 11
4057.1448999125000228
 21
206.4672648232169934
 31
0.0
  0
LINE
  5
188BB
  8
0
 10
4057.1438667089992123
 20
206.4541986732170074
 30
0.0
 11
4057.1443108076991848
 21
206.4595983538170003
 31
0.0
  0
LINE
  5
188BC
  8
0
 10
4057.1433792322991394
 20
206.4485830087170086
 30
0.0
 11
4057.1438667089992123
 21
206.4541986732170074
 31
0.0
  0
LINE
  5
188BD
  8
0
 10
4057.1426817241999743
 20
206.4410235362169885
 30
0.0
 11
4057.1433792322991394
 21
206.4485830087170086
 31
0.0
  0
LINE
  5
188BE
  8
0
 10
4058.2264311140988866
 20
212.1219976751170009
 30
0.0
 11
4058.2264311140988866
 21
211.5314464940169898
 31
0.0
  0
LINE
  5
188BF
  8
0
 10
4058.2579271770991909
 20
211.5314464940169898
 30
0.0
 11
4058.2579271770991909
 21
212.1219976751170009
 31
0.0
  0
ARC
  5
188C0
  8
0
 10
4028.1745219229128452
 20
206.0356015561910112
 30
0.0
 40
1.2204890578658889
 50
183.0001072023393078
 51
265.3992979809842154
  0
ARC
  5
188C1
  8
0
 10
4041.7261499734991048
 20
206.0160255251169872
 30
0.0
 40
1.2204723722999991
 50
275.6829629223897768
 51
356.9978456475997177
  0
ARC
  5
188C2
  8
0
 10
4037.1161948935991859
 20
211.7282968877169935
 30
0.0
 40
0.1968503937
 50
180.0000000043999933
 51
269.9999999994008135
  0
ARC
  5
188C3
  8
0
 10
4038.2972972557990943
 20
211.7282968877169935
 30
0.0
 40
0.1968503937
 50
270.0000000005991865
 51
0.0
  0
ARC
  5
188C4
  8
0
 10
4029.2421791455990387
 20
211.7282968877169935
 30
0.0
 40
0.1968503937
 50
180.0000000043999933
 51
269.9999999994008135
  0
ARC
  5
188C5
  8
0
 10
4030.4232815077998566
 20
211.7282968877169935
 30
0.0
 40
0.1968503937
 50
270.0000000005991865
 51
359.9999999955999215
  0
ARC
  5
188C6
  8
0
 10
4037.5689507990991842
 20
211.8660921633170062
 30
0.0
 40
0.1771653543
 50
90.0
 51
270.0
  0
ARC
  5
188C7
  8
0
 10
4037.8445413502990959
 20
211.8660921633170062
 30
0.0
 40
0.1771653543
 50
270.0
 51
90.0
  0
ARC
  5
188C8
  8
0
 10
4029.6949350510990371
 20
211.8660921633170062
 30
0.0
 40
0.1771653543
 50
90.0
 51
270.0
  0
ARC
  5
188C9
  8
0
 10
4029.9705256022989488
 20
211.8660921633170062
 30
0.0
 40
0.1771653543
 50
270.0
 51
90.0
  0
ARC
  5
188CA
  8
0
 10
4026.4221386531989992
 20
212.0432575176170076
 30
0.0
 40
0.157480315
 50
183.0000000096005977
 51
270.0000000008076881
  0
ARC
  5
188CB
  8
0
 10
4025.5509445269990465
 20
212.2007378326169942
 30
0.0
 40
0.1181102362
 50
89.9999999898124514
 51
135.0000000001969056
  0
ARC
  5
188CC
  8
0
 10
4026.5710415982989616
 20
211.8070370452169868
 30
0.0
 40
0.0787401575
 50
3.0000000010008221
 51
90.0
  0
ARC
  5
188CD
  8
0
 10
4037.7250840801989398
 20
204.2820067495169951
 30
0.0
 40
0.0590551181
 50
278.194263333502704
 51
324.7579634407927074
  0
ARC
  5
188CE
  8
0
 10
4033.3576994078998723
 20
204.2820067495169951
 30
0.0
 40
0.0590551181
 50
215.2420365592072926
 51
261.805736666497296
  0
ARC
  5
188CF
  8
0
 10
4037.8969209092338133
 20
204.3887046225790982
 30
0.0
 40
0.0197191751669126
 50
95.7149223727168135
 51
144.6782035538608113
  0
ARC
  5
188D0
  8
0
 10
4033.1860240565679305
 20
204.3877468432368119
 30
0.0
 40
0.0201417597695326
 50
35.8844862345483335
 51
84.7943555527079553
  0
ARC
  5
188D1
  8
0
 10
4046.9587145786990732
 20
211.7282968877169935
 30
0.0
 40
0.1968503937
 50
270.0000000005991865
 51
359.9999999955999215
  0
ARC
  5
188D2
  8
0
 10
4045.7776122164991648
 20
211.7282968877169935
 30
0.0
 40
0.1968503937
 50
179.9999999988991135
 51
269.9999999994008135
  0
ARC
  5
188D3
  8
0
 10
4046.5059586731999843
 20
211.8660921633170062
 30
0.0
 40
0.1771653543
 50
270.0
 51
90.0
  0
ARC
  5
188D4
  8
0
 10
4046.2303681219991631
 20
211.8660921633170062
 30
0.0
 40
0.1771653543
 50
90.0
 51
270.0
  0
ARC
  5
188D5
  8
0
 10
4044.2875770313999055
 20
211.8070370452169868
 30
0.0
 40
0.0787401575
 50
3.0000000020004181
 51
90.0
  0
ARC
  5
188D6
  8
0
 10
4043.3306395274989882
 20
211.8070370452169868
 30
0.0
 40
0.0787401575
 50
90.0
 51
176.9999999946006994
  0
ARC
  5
188D7
  8
0
 10
4048.7120301165991805
 20
205.0694083243170098
 30
0.0
 40
0.0590551181
 50
215.2420365592072926
 51
261.805736666497296
  0
ARC
  5
188D8
  8
0
 10
4048.5411463432251367
 20
205.1747008841747117
 30
0.0
 40
0.0197453355233372
 50
35.2899967930189575
 51
86.9001102343252825
  0
ARC
  5
188D9
  8
0
 10
4055.9277104101988698
 20
206.5569543453169956
 30
0.0
 40
1.2204878700999999
 50
273.0006700816073817
 51
354.549421416501275
  0
ARC
  5
188DA
  8
0
 10
4054.8327303266992203
 20
211.7282968877169935
 30
0.0
 40
0.1968503937
 50
270.0000000005991865
 51
359.9999999955999215
  0
ARC
  5
188DB
  8
0
 10
4053.6516279644988572
 20
211.7282968877169935
 30
0.0
 40
0.1968503937
 50
180.0000000043999933
 51
269.9999999994008135
  0
ARC
  5
188DC
  8
0
 10
4054.379974421199222
 20
211.8660921633170062
 30
0.0
 40
0.1771653543
 50
270.0
 51
90.0
  0
ARC
  5
188DD
  8
0
 10
4054.1043838699988555
 20
211.8660921633170062
 30
0.0
 40
0.1771653543
 50
90.0
 51
270.0
  0
ARC
  5
188DE
  8
0
 10
4057.6527708190988051
 20
212.0432575176170076
 30
0.0
 40
0.157480315
 50
269.9999999991923119
 51
356.9999999936010795
  0
ARC
  5
188DF
  8
0
 10
4058.5239649452992126
 20
212.2007378326169942
 30
0.0
 40
0.1181102362
 50
44.9999999998030873
 51
90.0000000101875344
  0
ARC
  5
188E0
  8
0
 10
4057.5038678739988427
 20
211.8070370452169868
 30
0.0
 40
0.0787401575
 50
90.0000000044033186
 51
176.9999999951014047
  0
ARC
  5
188E1
  8
0
 10
4053.0794147888000225
 20
205.0694083243170098
 30
0.0
 40
0.0590551181
 50
278.194263333502704
 51
324.7579634407927074
  0
ARC
  5
188E2
  8
0
 10
4053.2502577084987934
 20
205.1746817403169985
 30
0.0
 40
0.0196850382
 50
92.9832309423965455
 51
144.706339854302712
  0
ARC
  5
188E3
  8
0
 10
4045.8637567724122164
 20
206.5570238581190097
 30
0.0
 40
1.220559499859311
 50
182.5108702053159107
 51
266.9984305110556875
  0
LINE
  5
188E5
  8
0
 10
4056.6634389881987772
 20
212.3188480688170046
 30
0.0
 11
4056.6634389881987772
 21
212.3779031869169955
 31
0.0
  0
LINE
  5
188E6
  8
0
 10
4057.3209193030997994
 20
214.2519189349170006
 30
0.0
 11
4057.3209199386988075
 21
213.5825331692169868
 31
0.0
  0
LINE
  5
188E7
  8
0
 10
4056.8661705011991216
 20
214.5747778220170119
 30
0.0
 11
4056.8564743298989015
 21
213.0000716383169959
 31
0.0
  0
LINE
  5
188E8
  8
0
 10
4056.8594997533991773
 20
214.6260033958170084
 30
0.0
 11
4056.8602036600000247
 21
214.7066631134169938
 31
0.0
  0
LINE
  5
188E9
  8
0
 10
4056.8783494947988402
 20
214.6180606672170086
 30
0.0
 11
4056.8780399751990444
 21
214.5825932399170028
 31
0.0
  0
LINE
  5
188EA
  8
0
 10
4056.9709861612991517
 20
212.9802653916169959
 30
0.0
 11
4056.9673268764991008
 21
212.5609528947169906
 31
0.0
  0
LINE
  5
188EB
  8
0
 10
4056.6053677712989156
 20
212.4342708502169899
 30
0.0
 11
4056.6043838700988999
 21
212.3779031869169955
 31
0.0
  0
LINE
  5
188EC
  8
0
 10
4057.8913248859989835
 20
212.9802653916169959
 30
0.0
 11
4057.8949841706989901
 21
212.5609528947169906
 31
0.0
  0
LINE
  5
188ED
  8
0
 10
4057.9839615523987959
 20
214.6180606672170086
 30
0.0
 11
4057.9842710719990464
 21
214.5825932399170028
 31
0.0
  0
LINE
  5
188EE
  8
0
 10
4058.002811293898958
 20
214.6260033958170084
 30
0.0
 11
4058.0021073871989756
 21
214.7066631134169938
 31
0.0
  0
LINE
  5
188EF
  8
0
 10
4057.9961405459989692
 20
214.5747778220170119
 30
0.0
 11
4058.0058367172991893
 21
213.0000716383169959
 31
0.0
  0
LINE
  5
188F0
  8
0
 10
4058.1988720590989033
 20
212.3188480688170046
 30
0.0
 11
4058.1988720590989033
 21
212.3779031869169955
 31
0.0
  0
LINE
  5
188F1
  8
0
 10
4057.5413916351180887
 20
213.5828099701517999
 30
0.0
 11
4057.5413917440992009
 21
214.2519189349170006
 31
0.0
  0
LINE
  5
188F2
  8
0
 10
4058.2569432758991752
 20
212.4342708502169899
 30
0.0
 11
4058.2579271771987806
 21
212.3779031869169955
 31
0.0
  0
LINE
  5
188F3
  8
0
 10
4057.9095735973987757
 20
212.5421103890170116
 30
0.0
 11
4058.2423560977990746
 21
212.4529415868169906
 31
0.0
  0
LINE
  5
188F4
  8
0
 10
4056.6043838700988999
 20
212.3779031869169955
 30
0.0
 11
4058.2579271771987806
 21
212.3779031869169955
 31
0.0
  0
LINE
  5
188F5
  8
0
 10
4056.6199549493990162
 20
212.4529415868169906
 30
0.0
 11
4058.2423560977990746
 21
212.4529415868169906
 31
0.0
  0
LINE
  5
188F6
  8
0
 10
4057.9095735973987757
 20
212.5421103890170116
 30
0.0
 11
4056.9527374497988603
 21
212.5421103890170116
 31
0.0
  0
LINE
  5
188F7
  8
0
 10
4057.9861496706989783
 20
212.9802653916169959
 30
0.0
 11
4056.8761613764991125
 21
212.9802653916169959
 31
0.0
  0
LINE
  5
188F8
  8
0
 10
4057.992347775998951
 20
214.7181916317169907
 30
0.0
 11
4057.8963418661987816
 21
214.7351200640169964
 31
0.0
  0
LINE
  5
188F9
  8
0
 10
4056.9527374497988603
 20
212.5421103890170116
 30
0.0
 11
4056.6199549493990162
 21
212.4529415868169906
 31
0.0
  0
LINE
  5
188FA
  8
0
 10
4057.992194682299214
 20
214.5786905885169915
 30
0.0
 11
4056.8701163649998307
 21
214.5786905885169915
 31
0.0
  0
LINE
  5
188FB
  8
0
 10
4056.8673734694998529
 20
214.6180606672170086
 30
0.0
 11
4057.9949323097989691
 21
214.6180606672170086
 31
0.0
  0
LINE
  5
188FC
  8
0
 10
4056.8699632711991399
 20
214.7181916317169907
 30
0.0
 11
4057.992347775998951
 21
214.7181916317169907
 31
0.0
  0
LINE
  5
188FD
  8
0
 10
4056.9911393369989128
 20
214.7379042411170076
 30
0.0
 11
4057.8711717095948188
 21
214.7379042411170076
 31
0.0
  0
LINE
  5
188FE
  8
0
 10
4056.8699632711991399
 20
214.7181916317169907
 30
0.0
 11
4056.9659691810988988
 21
214.7351200640169964
 31
0.0
  0
ARC
  5
188FF
  8
0
 10
4057.4311555235990454
 20
205.137239531017002
 30
0.0
 40
9.6107427975000004
 50
87.3758650109128183
 51
92.6241349855399392
  0
ARC
  5
18900
  8
0
 10
4056.9476425866992031
 20
212.5611246769169895
 30
0.0
 40
0.0196850394
 50
285.0000000001023182
 51
359.5000000000003979
  0
ARC
  5
18901
  8
0
 10
4057.9146684604988877
 20
212.5611246769169895
 30
0.0
 40
0.0196850394
 50
180.4999999999994884
 51
254.9999999998977103
  0
ARC
  5
18902
  8
0
 10
4056.6250498124991282
 20
212.4339272989170126
 30
0.0
 40
0.0196850394
 50
104.9999999999948983
 51
178.9999999998011901
  0
ARC
  5
18903
  8
0
 10
4058.2372612346989627
 20
212.4339272989170126
 30
0.0
 40
0.0196850394
 50
1.000000000198773
 51
75.0000000000051301
  0
ARC
  5
18904
  8
0
 10
4057.0001518931990176
 20
214.5412602701169931
 30
0.0
 40
0.1968503937
 50
92.6241349891131875
 51
99.9999999998992735
  0
ARC
  5
18905
  8
0
 10
4057.8621591539999827
 20
214.5412602701169931
 30
0.0
 40
0.1968503937
 50
80.0000000001007265
 51
87.3758650109128183
  0
ARC
  5
18906
  8
0
 10
4057.4312149503989531
 20
214.2519697675170107
 30
0.0
 40
0.1139523677
 50
90.2525228898102654
 51
180.0338350129993898
  0
ARC
  5
18907
  8
0
 10
4057.431096184899161
 20
214.2519699061170115
 30
0.0
 40
0.1139522406
 50
359.9821916135001061
 51
89.747739154592594
  0
ARC
  5
18908
  8
0
 10
4057.4311921407988848
 20
214.2518927577170018
 30
0.0
 40
0.1139359379
 50
179.9951153094002052
 51
194.5681288142106098
  0
ARC
  5
18909
  8
0
 10
4057.4311393363000207
 20
214.2518911493170037
 30
0.0
 40
0.1139155265
 50
345.4305671281637728
 51
0.0217969533004369
  0
ARC
  5
1890A
  8
0
 10
4057.4311554893988614
 20
214.2532220363169984
 30
0.0
 40
0.1126922126
 50
89.7750880123899719
 51
90.2251099180883926
  0
ARC
  5
1890B
  8
0
 10
4057.4311555235990454
 20
214.2519189349170006
 30
0.0
 40
0.1102362205
 50
0.0
 51
180.0
  0
ARC
  5
1890C
  8
0
 10
4056.8761589964437917
 20
212.9999504311169005
 30
0.0
 40
0.0196850396437907
 50
179.6472089770794867
 51
270.0069274506493002
  0
ARC
  5
1890D
  8
0
 10
4057.9861520508547983
 20
212.9999504311169005
 30
0.0
 40
0.0196850396438099
 50
269.9930722583935108
 51
0.3527910229156215
  0
ARC
  5
1890E
  8
0
 10
4057.99029681329921
 20
214.7065600441169977
 30
0.0
 40
0.0118110236
 50
0.4999999999996034
 51
80.0000000002061853
  0
ARC
  5
1890F
  8
0
 10
4056.8720142338988808
 20
214.7065600441169977
 30
0.0
 40
0.0118110236
 50
99.9999999997938147
 51
179.5000000000003979
  0
ARC
  5
18910
  8
0
 10
4057.9949375750138643
 20
214.6259346841304136
 30
0.0
 40
0.0078740186737794
 50
269.9616873337926108
 51
0.499990981206465
  0
ARC
  5
18911
  8
0
 10
4056.8673734692988546
 20
214.6259346829170056
 30
0.0
 40
0.0078740157
 50
179.5000000002999911
 51
270.0
  0
ARC
  5
18912
  8
0
 10
4056.8741031172999101
 20
214.5826275963169962
 30
0.0
 40
0.0039370079
 50
269.9840222346765017
 51
359.4999999994985842
  0
ARC
  5
18913
  8
0
 10
4057.9882079299991346
 20
214.5826275963169962
 30
0.0
 40
0.0039370079
 50
180.5000000004997105
 51
269.9840222346765017
  0
ARC
  5
18914
  8
0
 10
4057.9922035954909916
 20
214.5747535733538882
 30
0.0
 40
0.003937025252569
 50
0.3528954759013856
 51
90.1297143594312757
  0
ARC
  5
18915
  8
0
 10
4056.8701074518071437
 20
214.5747535733538882
 30
0.0
 40
0.0039370252525675
 50
89.8702856401518346
 51
179.6471045240986086
  0
ARC
  5
18916
  8
0
 10
4057.3809152398939659
 20
213.5818569542686021
 30
0.0
 40
0.0600038682169664
 50
146.0162371437789091
 51
179.1013448582797878
  0
ARC
  5
18917
  8
0
 10
4057.4075633244888195
 20
213.5637677338860954
 30
0.0
 40
0.0922115260161181
 50
121.076969587468497
 51
145.951398514880907
  0
ARC
  5
18918
  8
0
 10
4057.4300220532732055
 20
213.5251092785360072
 30
0.0
 40
0.1369163555127256
 50
89.5256680072013893
 51
120.7757757734351003
  0
ARC
  5
18919
  8
0
 10
4057.4316633586190619
 20
213.5203538177349003
 30
0.0
 40
0.1416680346988801
 50
68.0913262665692542
 51
90.2053876568053141
  0
ARC
  5
1891A
  8
0
 10
4057.4457986484148933
 20
213.5529151385015041
 30
0.0
 40
0.1061884077912374
 50
42.5631312902868402
 51
68.6119551954577958
  0
ARC
  5
1891B
  8
0
 10
4057.4734512710460876
 20
213.5784160401491931
 30
0.0
 40
0.068572531965719
 50
14.1287219456780804
 51
42.4980011680150298
  0
ARC
  5
1891C
  8
0
 10
4057.4869672514601007
 20
213.5827084491318999
 30
0.0
 40
0.0544244783446489
 50
0.1068770849059182
 51
13.2198424785797695
  0
ARC
  5
1891D
  8
0
 10
4057.3889774801468775
 20
213.5881335595651933
 30
0.0
 40
0.0682875780787031
 50
184.7042161209743085
 51
225.0641684362477122
  0
ARC
  5
1891E
  8
0
 10
4057.4197537986287898
 20
213.6344499329769064
 30
0.0
 40
0.123297798709317
 50
230.1487509127927922
 51
262.302767191601788
  0
ARC
  5
1891F
  8
0
 10
4057.432220796763886
 20
213.6747636858775934
 30
0.0
 40
0.1650647143655644
 50
259.887857054935921
 51
282.9568424615861773
  0
ARC
  5
18920
  8
0
 10
4057.4408761281761144
 20
213.6370345770318977
 30
0.0
 40
0.1263555471199907
 50
282.9679744750316104
 51
309.716799983408805
  0
ARC
  5
18921
  8
0
 10
4057.4752381197640716
 20
213.5872194332264087
 30
0.0
 40
0.0663003088847359
 50
314.3884768042186124
 51
356.1865902205411771
  0
ARC
  5
18922
  8
0
 10
4057.404562426801931
 20
213.5728261155676933
 30
0.0
 40
0.0533021594397731
 50
126.8453776530575965
 51
162.2865414304868921
  0
ARC
  5
18923
  8
0
 10
4057.4256296037287939
 20
213.5458126359197877
 30
0.0
 40
0.0875554598183359
 50
103.4903457472802017
 51
127.2774857916257929
  0
ARC
  5
18924
  8
0
 10
4057.4311015048729132
 20
213.5267929593377971
 30
0.0
 40
0.10733050288941
 50
87.8541180817110359
 51
103.9622467038207958
  0
ARC
  5
18925
  8
0
 10
4057.4318712193557985
 20
213.5317922295049868
 30
0.0
 40
0.1023075727456009
 50
65.9433979486952495
 51
88.1800500496179041
  0
ARC
  5
18926
  8
0
 10
4057.4447947641779137
 20
213.5594143835608065
 30
0.0
 40
0.0718184896745648
 50
39.9102614409835468
 51
66.3751492379349912
  0
ARC
  5
18927
  8
0
 10
4057.4672406225308805
 20
213.5780137781543999
 30
0.0
 40
0.042668469478158
 50
1.4561878834214581
 51
40.0906027246029311
  0
ARC
  5
18928
  8
0
 10
4057.4717225315621363
 20
213.5795280367113094
 30
0.0
 40
0.0381752018179006
 50
322.2002460981454988
 51
359.3546982179769884
  0
ARC
  5
18929
  8
0
 10
4057.453834972146069
 20
213.5939956049186037
 30
0.0
 40
0.0611782115820999
 50
296.5165259462373228
 51
321.7616521917000796
  0
ARC
  5
1892A
  8
0
 10
4057.4351194251407833
 20
213.6308149468437989
 30
0.0
 40
0.1024804972402381
 50
276.9240311810954722
 51
296.6890408497163776
  0
ARC
  5
1892B
  8
0
 10
4057.4312194521321544
 20
213.6527138355504007
 30
0.0
 40
0.1246959104970565
 50
257.5514944316906281
 51
277.4899172834714136
  0
ARC
  5
1892C
  8
0
 10
4057.421197018141811
 20
213.6140832872789019
 30
0.0
 40
0.0848256617359954
 50
232.2438790310642958
 51
258.5373851706326036
  0
ARC
  5
1892D
  8
0
 10
4057.3984656746652036
 20
213.5840616471494116
 30
0.0
 40
0.0471731710846285
 50
202.6425129896960016
 51
231.7454642778095888
  0
ARC
  5
1892E
  8
0
 10
4057.3886672719982016
 20
213.5791639262286026
 30
0.0
 40
0.0362521747606831
 50
164.1852424809632112
 51
201.4601729522323126
  0
ATTDEF
  5
1892F
  8
DEFPOINTS
 10
4042.0379060059690346
 20
212.1206313059697948
 30
0.0
 40
0.001
  1
K-98738T-2FD
  3

  2
MODELNUMBER
 70
     0
1001
ACDBATTR
1070
     0
1070
     1
  0
ATTDEF
  5
18930
  8
DEFPOINTS
 10
4042.0377801963118145
 20
212.1189644655906079
 30
0.0
 40
0.001
  1
ELATE
  3

  2
TRADENAME
 70
     0
1001
ACDBATTR
1070
     0
1070
     1
  0
ATTDEF
  5
18931
  8
DEFPOINTS
 10
4042.0379060059690346
 20
212.1172979726364076
 30
0.0
 40
0.001
  1
KITCHEN SINK
  3

  2
PRODUCT
 70
     0
1001
ACDBATTR
1070
     0
1070
     1
  0
ENDSEC
  0
EOF
