  0
SECTION
  2
HEADER
  9
$ACADVER
  1
AC1009
  9
$INSBASE
 10
4278.5230279498218806
 20
218.0894307071382059
 30
0.0
  9
$EXTMIN
 10
4277.5892057453829693
 20
213.5130289446954066
 30
0.0
  9
$EXTMAX
 10
4279.4568501542617014
 20
219.0547289446944035
 30
0.0
  9
$LIMMIN
 10
0.0
 20
0.0
  9
$LIMMAX
 10
11.6929133858000007
 20
8.2677165353999982
  9
$ORTHOMODE
 70
     1
  9
$REGENMODE
 70
     1
  9
$FILLMODE
 70
     1
  9
$QTEXTMODE
 70
     0
  9
$MIRRTEXT
 70
     0
  9
$DRAGMODE
 70
     2
  9
$LTSCALE
 40
0.6431102362
  9
$OSMODE
 70
  3839
  9
$ATTMODE
 70
     1
  9
$TEXTSIZE
 40
0.2
  9
$TRACEWID
 40
0.05
  9
$TEXTSTYLE
  7
STANDARD
  9
$CLAYER
  8
0
  9
$CELTYPE
  6
BYLAYER
  9
$CECOLOR
 62
   256
  9
$DIMSCALE
 40
1.0
  9
$DIMASZ
 40
0.1875
  9
$DIMEXO
 40
0.0625
  9
$DIMDLI
 40
0.4443307087
  9
$DIMRND
 40
0.0
  9
$DIMDLE
 40
0.0
  9
$DIMEXE
 40
0.125
  9
$DIMTP
 40
0.01
  9
$DIMTM
 40
0.01
  9
$DIMTXT
 40
2.0
  9
$DIMCEN
 40
0.1052362205
  9
$DIMTSZ
 40
0.0
  9
$DIMTOL
 70
     1
  9
$DIMLIM
 70
     0
  9
$DIMTIH
 70
     1
  9
$DIMTOH
 70
     1
  9
$DIMSE1
 70
     0
  9
$DIMSE2
 70
     0
  9
$DIMTAD
 70
     0
  9
$DIMZIN
 70
     0
  9
$DIMBLK
  1

  9
$DIMASO
 70
     1
  9
$DIMSHO
 70
     1
  9
$DIMPOST
  1
\X
  9
$DIMAPOST
  1

  9
$DIMALT
 70
     1
  9
$DIMALTD
 70
     2
  9
$DIMALTF
 40
25.3999999999999986
  9
$DIMLFAC
 40
1.0
  9
$DIMTOFL
 70
     0
  9
$DIMTVP
 40
0.0
  9
$DIMTIX
 70
     0
  9
$DIMSOXD
 70
     0
  9
$DIMSAH
 70
     0
  9
$DIMBLK1
  1

  9
$DIMBLK2
  1

  9
$DIMSTYLE
  2
STANDARD
  9
$DIMCLRD
 70
     0
  9
$DIMCLRE
 70
     0
  9
$DIMCLRT
 70
     0
  9
$DIMTFAC
 40
1.0
  9
$DIMGAP
 40
0.09
  9
$LUNITS
 70
     2
  9
$LUPREC
 70
     4
  9
$SKETCHINC
 40
0.1
  9
$FILLETRAD
 40
0.0
  9
$AUNITS
 70
     0
  9
$AUPREC
 70
     0
  9
$MENU
  1
.
  9
$ELEVATION
 40
0.0
  9
$PELEVATION
 40
0.0
  9
$THICKNESS
 40
0.0
  9
$LIMCHECK
 70
     0
  9
$BLIPMODE
 70
     0
  9
$CHAMFERA
 40
0.0
  9
$CHAMFERB
 40
0.0
  9
$SKPOLY
 70
     0
  9
$TDCREATE
 40
2458060.468368056230247
  9
$TDUPDATE
 40
2459029.6179629629477859
  9
$TDINDWG
 40
0.5656552083
  9
$TDUSRTIMER
 40
0.5656552083
  9
$USRTIMER
 70
     1
  9
$ANGBASE
 50
0.0
  9
$ANGDIR
 70
     0
  9
$PDMODE
 70
     0
  9
$PDSIZE
 40
0.3125
  9
$PLINEWID
 40
0.0
  9
$COORDS
 70
     1
  9
$SPLFRAME
 70
     0
  9
$SPLINETYPE
 70
     6
  9
$SPLINESEGS
 70
     8
  9
$ATTDIA
 70
     1
  9
$ATTREQ
 70
     1
  9
$HANDLING
 70
     1
  9
$HANDSEED
  5
959E
  9
$SURFTAB1
 70
     6
  9
$SURFTAB2
 70
     6
  9
$SURFTYPE
 70
     6
  9
$SURFU
 70
     6
  9
$SURFV
 70
     6
  9
$UCSNAME
  2

  9
$UCSORG
 10
0.0
 20
0.0
 30
0.0
  9
$UCSXDIR
 10
1.0
 20
0.0
 30
0.0
  9
$UCSYDIR
 10
0.0
 20
1.0
 30
0.0
  9
$PUCSNAME
  2

  9
$PUCSORG
 10
0.0
 20
0.0
 30
0.0
  9
$PUCSXDIR
 10
1.0
 20
0.0
 30
0.0
  9
$PUCSYDIR
 10
0.0
 20
1.0
 30
0.0
  9
$USERI1
 70
     0
  9
$USERI2
 70
     0
  9
$USERI3
 70
     0
  9
$USERI4
 70
     0
  9
$USERI5
 70
     0
  9
$USERR1
 40
0.0
  9
$USERR2
 40
0.0
  9
$USERR3
 40
0.0
  9
$USERR4
 40
0.0
  9
$USERR5
 40
0.0
  9
$WORLDVIEW
 70
     1
  9
$SHADEDGE
 70
     3
  9
$SHADEDIF
 70
    70
  9
$TILEMODE
 70
     1
  9
$MAXACTVP
 70
    64
  9
$PLIMCHECK
 70
     0
  9
$PEXTMIN
 10
1.0000000000000000E+20
 20
1.0000000000000000E+20
 30
1.0000000000000000E+20
  9
$PEXTMAX
 10
-1.0000000000000000E+20
 20
-1.0000000000000000E+20
 30
-1.0000000000000000E+20
  9
$PLIMMIN
 10
0.0
 20
0.0
  9
$PLIMMAX
 10
12.0
 20
9.0
  9
$UNITMODE
 70
     0
  9
$VISRETAIN
 70
     1
  9
$PLINEGEN
 70
     0
  9
$PSLTSCALE
 70
     1
  0
ENDSEC
  0
SECTION
  2
TABLES
  0
TABLE
  2
VPORT
 70
     1
  0
VPORT
  2
*ACTIVE
 70
     0
 10
0.0
 20
0.0
 11
1.0
 21
1.0
 12
0.0
 22
0.0
 13
0.0
 23
0.0
 14
1.0
 24
1.0
 15
0.0
 25
0.0
 16
0.0
 26
0.0
 36
24.2780994532408307
 17
4278.523193359375
 27
216.2838821411133097
 37
0.0
 40
5.847963481317171
 41
3.314341846758349
 42
50.0
 43
0.0
 44
0.0
 50
0.0
 51
0.0
 71
     0
 72
   100
 73
     1
 74
     1
 75
     0
 76
     0
 77
     0
 78
     0
  0
ENDTAB
  0
TABLE
  2
LTYPE
 70
     3
  0
LTYPE
  2
CONTINUOUS
 70
     0
  3
Solid line
 72
    65
 73
     0
 40
0.0
  0
LTYPE
  2
PHANTOM2
 70
     0
  3
___ _ _ ___ _ _ ___ _ _ ___ _ _
 72
    65
 73
     6
 40
1.25
 49
0.625
 49
-0.125
 49
0.125
 49
-0.125
 49
0.125
 49
-0.125
  0
ENDTAB
  0
TABLE
  2
LAYER
 70
     2
  0
LAYER
  2
0
 70
     0
 62
   255
  6
CONTINUOUS
  0
LAYER
  2
DEFPOINTS
 70
     0
 62
     7
  6
CONTINUOUS
  0
ENDTAB
  0
TABLE
  2
STYLE
 70
     1
  0
STYLE
  2
STANDARD
 70
     0
 40
0.0
 41
0.8
 50
0.0
 71
     0
 42
0.2
  3
txt
  4

  0
ENDTAB
  0
TABLE
  2
VIEW
 70
     0
  0
ENDTAB
  0
TABLE
  2
UCS
 70
     0
  0
ENDTAB
  0
TABLE
  2
APPID
 70
    11
  0
APPID
  2
ACAD
 70
     0
  0
APPID
  2
ACAD_MLEADERVER
 70
     0
  0
APPID
  2
ACAD_EXEMPT_FROM_CAD_STANDARDS
 70
     0
  0
APPID
  2
ACAD_NAV_VCDISPLAY
 70
     0
  0
APPID
  2
ACAECLAYERSTANDARD
 70
     0
  0
APPID
  2
ACCMTRANSPARENCY
 70
     0
  0
APPID
  2
ACAD_DSTYLE_DIMJAG
 70
     0
  0
APPID
  2
ACAD_DSTYLE_DIMTALN
 70
     0
  0
APPID
  2
ACDBATTR
 70
     0
  0
APPID
  2
ACAD_PSEXT
 70
     0
  0
APPID
  2
ACADANNOTATIVE
 70
     0
  0
ENDTAB
  0
TABLE
  2
DIMSTYLE
 70
     4
  0
DIMSTYLE
  2
STANDARD
 70
     0
  3

  4

  5

  6

  7

 40
1.0
 41
0.1875
 42
0.0625
 43
0.38
 44
0.125
 45
0.0
 46
0.0
 47
0.01
 48
0.01
140
0.15625
141
0.09
142
0.0
143
25.3999999999999986
144
1.0
145
0.0
146
1.0
147
0.09
 71
     1
 72
     0
 73
     1
 74
     1
 75
     0
 76
     0
 77
     0
 78
     4
170
     0
171
     2
172
     0
173
     0
174
     0
175
     0
176
     0
177
     0
178
     0
  0
DIMSTYLE
  2
ANNOTATIVE
 70
     0
  3

  4

  5

  6

  7

 40
0.0
 41
2.5
 42
0.625
 43
3.75
 44
1.25
 45
0.0
 46
0.0
 47
0.0
 48
0.0
140
2.5
141
2.5
142
0.0
143
0.03937007874016
144
1.0
145
0.0
146
1.0
147
0.625
 71
     0
 72
     0
 73
     0
 74
     0
 75
     0
 76
     0
 77
     1
 78
     8
170
     0
171
     3
172
     1
173
     0
174
     0
175
     0
176
     0
177
     0
178
     0
  0
DIMSTYLE
  2
ISO-25
 70
     0
  3

  4

  5

  6

  7

 40
1.0
 41
2.5
 42
0.625
 43
3.75
 44
1.25
 45
0.0
 46
0.0
 47
0.0
 48
0.0
140
2.5
141
2.5
142
0.0
143
0.03937007874016
144
1.0
145
0.0
146
1.0
147
0.625
 71
     0
 72
     0
 73
     0
 74
     0
 75
     0
 76
     0
 77
     1
 78
     8
170
     0
171
     3
172
     1
173
     0
174
     0
175
     0
176
     0
177
     0
178
     0
  0
ENDTAB
  0
ENDSEC
  0
SECTION
  2
BLOCKS
  0
BLOCK
  8
0
  2
$MODEL_SPACE
 70
     0
 10
0.0
 20
0.0
 30
0.0
  3
$MODEL_SPACE
  1

  0
ENDBLK
  5
21
  8
0
  0
BLOCK
 67
     1
  8
0
  2
$PAPER_SPACE
 70
     0
 10
0.0
 20
0.0
 30
0.0
  3
$PAPER_SPACE
  1

  0
ENDBLK
  5
1D
 67
     1
  8
0
  0
BLOCK
  8
0
  2
_FILLED
 70
     0
 10
0.0
 20
0.0
 30
0.0
  3
_FILLED
  1

  0
SOLID
  5
6F59
  8
0
  6
BYBLOCK
 62
     0
 10
0.0
 20
0.0
 30
0.0
 11
-1.0
 21
0.1666666667
 31
0.0
 12
-1.0
 22
-0.1666666667
 32
0.0
 13
-1.0
 23
-0.1666666667
 33
0.0
  0
ENDBLK
  5
6F5A
  8
0
  6
BYBLOCK
 62
     0
  0
BLOCK
  8
0
  2
98827_4PLN
 70
     2
 10
0.0
 20
0.0
 30
0.0
  3
98827_4PLN
  1

  0
ARC
  5
93D3
  8
0
 10
0.0000004072400088
 20
0.0000079228417391
 30
0.0
 40
0.9258920771582578
 50
9.3959233581535582
 51
170.6040766418466035
  0
ARC
  5
93D4
  8
0
 10
-0.000000014274633
 20
-3.6829163185910399
 30
0.0
 40
0.924988670187297
 50
205.5428707010950973
 51
334.4571288803314246
  0
ARC
  5
93D5
  8
0
 10
2.2186539150033431
 20
-3.545633784850156
 30
0.0
 40
3.1445074900893761
 50
179.728429599386601
 51
183.8966157899170071
  0
ARC
  5
93D6
  8
0
 10
-0.0382350732021237
 20
-3.7021331308331109
 30
0.0
 40
0.8822049796851299
 50
183.7168705737981043
 51
205.4875246061864971
  0
LINE
  5
93D7
  8
0
 10
-0.9258182534000027
 20
-3.5307295114703541
 30
0.0
 11
-0.9254007181000005
 21
-1.067993988070352
 31
0.0
  0
ARC
  5
93D8
  8
0
 10
-29.9392947553086692
 20
-0.998247170035455
 30
0.0
 40
29.0139778696579107
 50
359.8622663126487282
 51
1.3873639516753919
  0
ARC
  5
93D9
  8
0
 10
8.0628071946436393
 20
-0.4815276696439917
 30
0.0
 40
8.9985469410008108
 50
175.9681754461728929
 51
178.8171509085576929
  0
ARC
  5
93DA
  8
0
 10
-2.2186531005233259
 20
-3.545633784850156
 30
0.0
 40
3.1445074900893761
 50
356.1033842100828224
 51
0.2715704006134158
  0
ARC
  5
93DB
  8
0
 10
0.0382568580704188
 20
-3.702136512097471
 30
0.0
 40
0.8821838342144994
 50
334.5120633962554848
 51
356.2832602777431248
  0
LINE
  5
93DC
  8
0
 10
0.9258190678800133
 20
-3.5307295114703541
 30
0.0
 11
0.9254015325800111
 21
-1.067993988070352
 31
0.0
  0
ARC
  5
93DD
  8
0
 10
29.9438932161371305
 20
-0.9982667123227138
 30
0.0
 40
29.0185754557603488
 50
178.6128173030188862
 51
180.137673279922808
  0
ARC
  5
93DE
  8
0
 10
-8.0614912966189785
 20
-0.4814513905484752
 30
0.0
 40
8.9972297488793593
 50
1.1825364240120859
 51
4.0319288256317947
  0
ARC
  5
93DF
  8
0
 10
0.0000208578256959
 20
0.0008224405106674
 30
0.0
 40
0.8081022727260783
 50
10.7096443350810997
 51
169.2894628919239892
  0
ARC
  5
93E0
  8
0
 10
0.503197200792684
 20
-0.0761472734130315
 30
0.0
 40
1.3169386656966371
 50
170.0676136309070046
 51
179.9578886457622957
  0
ARC
  5
93E1
  8
0
 10
-66.6374759113135582
 20
-2.492742944946154
 30
0.0
 40
65.8681157848494223
 50
0.1432188425634248
 51
2.1034047754091669
  0
ARC
  5
93E2
  8
0
 10
0.1242413522808832
 20
-2.3878158801964799
 30
0.0
 40
0.8958000980172268
 50
176.1774874574778096
 51
203.8876338117709963
  0
ARC
  5
93E3
  8
0
 10
-0.507542755507032
 20
-0.076338519525919
 30
0.0
 40
1.321293465478433
 50
0.0502656457772896
 51
9.9071942640179671
  0
ARC
  5
93E4
  8
0
 10
66.6374850036135626
 20
-2.492742944946154
 30
0.0
 40
65.8681157848494223
 50
177.8965952245908113
 51
179.8567811574365862
  0
ARC
  5
93E5
  8
0
 10
-0.1242238063897929
 20
-2.387816338769873
 30
0.0
 40
0.8957916938042206
 50
336.1121750371419239
 51
3.822577854425854
  0
ARC
  5
93E6
  8
0
 10
0.0000042743250077
 20
-2.414074166868982
 30
0.0
 40
0.7720199609432618
 50
205.8398807979282026
 51
334.1601366924764989
  0
ATTDEF
  5
93E7
  8
DEFPOINTS
 10
-0.0027578205565604
 20
0.0008083648306325
 30
0.0
 40
0.001
  1
METAL
  3

  2
MATERIAL
 70
     0
1001
ACDBATTR
1070
     0
1070
     1
  0
ATTDEF
  5
93E8
  8
DEFPOINTS
 10
-0.0027578205565604
 20
0.0024750314972977
 30
0.0
 40
0.001
  1
BATHROOM SINK FAUCET
  3

  2
PRODUCT
 70
     0
1001
ACDBATTR
1070
     0
1070
     1
  0
ATTDEF
  5
93E9
  8
DEFPOINTS
 10
-0.0027578205565604
 20
0.0041416981639628
 30
0.0
 40
0.001
  1
KUMIN
  3

  2
TRADENAME
 70
     0
1001
ACDBATTR
1070
     0
1070
     1
  0
ATTDEF
  5
93EA
  8
DEFPOINTS
 10
-0.0027578205565604
 20
0.005808364830628
 30
0.0
 40
0.001
  1
K-98827-4
  3

  2
MODELNUMBER
 70
     0
1001
ACDBATTR
1070
     0
1070
     1
  0
ENDBLK
  5
93EB
  8
0
  0
BLOCK
  8
0
  2
A$CFD18FD9D
 70
     0
 10
0.0
 20
0.0
 30
0.0
  3
A$CFD18FD9D
  1

  0
INSERT
  5
93F3
  8
0
 66
     1
  2
98827_4PLN
 10
23.7190839818606811
 20
117.0407866481732952
 30
0.0
 41
25.3999999999999986
 42
25.3999999999999986
 43
25.3999999999999986
  0
ATTRIB
  5
93F4
  8
DEFPOINTS
 10
23.6490353397240405
 20
117.0613191148713952
 30
0.0
 40
0.0254
  1
METAL
  2
MATERIAL
 70
     0
1001
ACDBATTR
1070
     0
1070
     1
  0
ATTRIB
  5
93F5
  8
DEFPOINTS
 10
23.6490353397240405
 20
117.1036524482046985
 30
0.0
 40
0.0254
  1
BATHROOM SINK FAUCET
  2
PRODUCT
 70
     0
1001
ACDBATTR
1070
     0
1070
     1
  0
ATTRIB
  5
93F6
  8
DEFPOINTS
 10
23.6490353397240405
 20
117.1459857815380019
 30
0.0
 40
0.0254
  1
KUMIN
  2
TRADENAME
 70
     0
1001
ACDBATTR
1070
     0
1070
     1
  0
ATTRIB
  5
93F7
  8
DEFPOINTS
 10
23.6490353397240405
 20
117.1883191148713053
 30
0.0
 40
0.0254
  1
K-98827-4
  2
MODELNUMBER
 70
     0
1001
ACDBATTR
1070
     0
1070
     1
  0
SEQEND
  5
93F8
  8
0
  0
ENDBLK
  5
93FB
  8
0
  0
ENDSEC
  0
SECTION
  2
ENTITIES
  0
ATTDEF
  5
3930
  8
DEFPOINTS
 10
4278.5243404514803842
 20
218.0944995466608134
 30
0.0
 40
0.001
  1
K-98827T-4ND
  3

  2
MODELNUMBER
 70
     0
1001
ACDBATTR
1070
     0
1070
     1
  0
ATTDEF
  5
3931
  8
DEFPOINTS
 10
4278.5243404514803842
 20
218.0928328799940914
 30
0.0
 40
0.001
  1
KUMIN
  3

  2
TRADENAME
 70
     0
1001
ACDBATTR
1070
     0
1070
     1
  0
ATTDEF
  5
3932
  8
DEFPOINTS
 10
4278.5243404514803842
 20
218.0911662133273978
 30
0.0
 40
0.001
  1
BATHROOM SINK FAUCET
  3

  2
PRODUCT
 70
     0
1001
ACDBATTR
1070
     0
1070
     1
  0
ARC
  5
9417
  8
0
 10
4278.5230279498218806
 20
218.1285886292816087
 30
0.0
 40
0.9261403154127629
 50
9.4089799609244178
 51
170.5910200390756017
  0
ARC
  5
9418
  8
0
 10
4278.5230279498191521
 20
214.4325088656667049
 30
0.0
 40
0.9194799209713286
 50
204.7835562721514009
 51
335.2164438737988235
  0
ARC
  5
9419
  8
0
 10
4280.7414710285229376
 20
214.5831956620122014
 30
0.0
 40
3.1445074900893761
 50
179.7284295993868
 51
183.8966157899155007
  0
ARC
  5
941A
  8
0
 10
4278.4845820403188554
 20
214.4266963160291937
 30
0.0
 40
0.8822049796851299
 50
183.7168705737998948
 51
205.4875246061791927
  0
LINE
  5
941B
  8
0
 10
4277.5969988601209479
 20
214.598099935392014
 30
0.0
 11
4277.5974163954206233
 21
217.0608354587920132
 31
0.0
  0
ARC
  5
941C
  8
0
 10
4247.3425062054311638
 20
217.1253071973505087
 30
0.0
 40
30.2549788829769817
 50
359.87790567207918
 51
1.340438970847452
  0
ARC
  5
941D
  8
0
 10
4286.2575227482102491
 20
217.6663324970205053
 30
0.0
 40
8.6699202850954844
 50
175.9411769198214017
 51
178.8981010587584137
  0
ARC
  5
941E
  8
0
 10
4278.5230279498218806
 20
218.0894307071382059
 30
0.0
 40
0.8167189751227591
 50
13.4816439812260196
 51
166.5183560187739999
  0
ARC
  5
941F
  8
0
 10
4279.0260143143141249
 20
218.0526821734493126
 30
0.0
 40
1.3169386656966371
 50
170.0676136309097899
 51
179.9578886457618978
  0
ARC
  5
9420
  8
0
 10
4211.8853412022072007
 20
215.6360865019161963
 30
0.0
 40
65.8681157848494223
 50
0.1432188425636894
 51
2.1034047754080429
  0
ARC
  5
9421
  8
0
 10
4278.6470584658018197
 20
215.7410135666657993
 30
0.0
 40
0.8958000980172268
 50
176.1774874574759053
 51
203.8876338117638909
  0
ARC
  5
9422
  8
0
 10
4278.5230279498218806
 20
215.7150875657644917
 30
0.0
 40
0.772350727532379
 50
205.855387458445108
 51
334.1446125415549204
  0
ARC
  5
9423
  8
0
 10
4276.3045848711199142
 20
214.5831956620122014
 30
0.0
 40
3.1445074900893761
 50
356.1033842100845277
 51
0.2715704006132122
  0
ARC
  5
9424
  8
0
 10
4278.5614738593249058
 20
214.4266963160291937
 30
0.0
 40
0.8822049796851299
 50
334.5124753938208073
 51
356.2831294262001052
  0
LINE
  5
9425
  8
0
 10
4279.4490570395228133
 20
214.598099935392014
 30
0.0
 11
4279.4486395042240474
 21
217.0608354587920132
 31
0.0
  0
ARC
  5
9426
  8
0
 10
4309.7035496942125974
 20
217.1253071973505087
 30
0.0
 40
30.2549788829769817
 50
178.6595610291525134
 51
180.1220943279190863
  0
ARC
  5
9427
  8
0
 10
4270.7885331514353311
 20
217.6663324970205053
 30
0.0
 40
8.6699202850954844
 50
1.10189894124161
 51
4.0588230801786001
  0
ARC
  5
9428
  8
0
 10
4278.0200415853305458
 20
218.0526821734493126
 30
0.0
 40
1.3169386656966371
 50
0.0421113542380774
 51
9.9323863690902137
  0
ARC
  5
9429
  8
0
 10
4345.1607146974383795
 20
215.6360865019161963
 30
0.0
 40
65.8681157848494223
 50
177.8965952245918913
 51
179.856781157436302
  0
ARC
  5
942A
  8
0
 10
4278.398997433842851
 20
215.7410135666657993
 30
0.0
 40
0.8958000980172268
 50
336.1123661882360807
 51
3.8225125425240392
  0
ENDSEC
  0
EOF
