  0
SECTION
  2
HEADER
  9
$ACADVER
  1
AC1009
  9
$INSBASE
 10
53.2397800572530784
 20
-28.3956461126743385
 30
0.0
  9
$EXTMIN
 10
45.9871716684968419
 20
-28.3972327565291813
 30
-0.0000000349181948
  9
$EXTMAX
 10
60.4922877202917775
 20
-24.2405515731987684
 30
0.0000000814935746
  9
$LIMMIN
 10
0.0
 20
0.0
  9
$LIMMAX
 10
11.6929133858000007
 20
8.2677165353999982
  9
$ORTHOMODE
 70
     0
  9
$REGENMODE
 70
     1
  9
$FILLMODE
 70
     1
  9
$QTEXTMODE
 70
     0
  9
$MIRRTEXT
 70
     0
  9
$DRAGMODE
 70
     2
  9
$LTSCALE
 40
0.6431102362
  9
$OSMODE
 70
  4095
  9
$ATTMODE
 70
     1
  9
$TEXTSIZE
 40
0.2
  9
$TRACEWID
 40
0.05
  9
$TEXTSTYLE
  7
STANDARD
  9
$CLAYER
  8
0
  9
$CELTYPE
  6
BYLAYER
  9
$CECOLOR
 62
   256
  9
$DIMSCALE
 40
1.0
  9
$DIMASZ
 40
0.1875
  9
$DIMEXO
 40
0.0625
  9
$DIMDLI
 40
0.4443307087
  9
$DIMRND
 40
0.0
  9
$DIMDLE
 40
0.0
  9
$DIMEXE
 40
0.125
  9
$DIMTP
 40
0.01
  9
$DIMTM
 40
0.01
  9
$DIMTXT
 40
1.0
  9
$DIMCEN
 40
0.1052362205
  9
$DIMTSZ
 40
0.0
  9
$DIMTOL
 70
     1
  9
$DIMLIM
 70
     0
  9
$DIMTIH
 70
     1
  9
$DIMTOH
 70
     1
  9
$DIMSE1
 70
     0
  9
$DIMSE2
 70
     0
  9
$DIMTAD
 70
     0
  9
$DIMZIN
 70
     0
  9
$DIMBLK
  1

  9
$DIMASO
 70
     1
  9
$DIMSHO
 70
     1
  9
$DIMPOST
  1
\X
  9
$DIMAPOST
  1

  9
$DIMALT
 70
     1
  9
$DIMALTD
 70
     2
  9
$DIMALTF
 40
25.3999999999999986
  9
$DIMLFAC
 40
1.0
  9
$DIMTOFL
 70
     0
  9
$DIMTVP
 40
0.0
  9
$DIMTIX
 70
     0
  9
$DIMSOXD
 70
     0
  9
$DIMSAH
 70
     0
  9
$DIMBLK1
  1

  9
$DIMBLK2
  1

  9
$DIMSTYLE
  2
STANDARD
  9
$DIMCLRD
 70
     0
  9
$DIMCLRE
 70
     0
  9
$DIMCLRT
 70
     0
  9
$DIMTFAC
 40
1.0
  9
$DIMGAP
 40
0.09
  9
$LUNITS
 70
     2
  9
$LUPREC
 70
     4
  9
$SKETCHINC
 40
0.1
  9
$FILLETRAD
 40
0.0
  9
$AUNITS
 70
     0
  9
$AUPREC
 70
     0
  9
$MENU
  1
.
  9
$ELEVATION
 40
0.0
  9
$PELEVATION
 40
0.0
  9
$THICKNESS
 40
0.0
  9
$LIMCHECK
 70
     0
  9
$BLIPMODE
 70
     0
  9
$CHAMFERA
 40
0.0
  9
$CHAMFERB
 40
0.0
  9
$SKPOLY
 70
     0
  9
$TDCREATE
 40
2458172.4620254631154239
  9
$TDUPDATE
 40
2459070.7694328702054918
  9
$TDINDWG
 40
0.1115568634
  9
$TDUSRTIMER
 40
0.1115568634
  9
$USRTIMER
 70
     1
  9
$ANGBASE
 50
0.0
  9
$ANGDIR
 70
     0
  9
$PDMODE
 70
     0
  9
$PDSIZE
 40
0.3125
  9
$PLINEWID
 40
0.0
  9
$COORDS
 70
     1
  9
$SPLFRAME
 70
     0
  9
$SPLINETYPE
 70
     6
  9
$SPLINESEGS
 70
     8
  9
$ATTDIA
 70
     1
  9
$ATTREQ
 70
     1
  9
$HANDLING
 70
     1
  9
$HANDSEED
  5
11C8E
  9
$SURFTAB1
 70
     6
  9
$SURFTAB2
 70
     6
  9
$SURFTYPE
 70
     6
  9
$SURFU
 70
     6
  9
$SURFV
 70
     6
  9
$UCSNAME
  2

  9
$UCSORG
 10
0.0
 20
0.0
 30
0.0
  9
$UCSXDIR
 10
1.0
 20
0.0
 30
0.0
  9
$UCSYDIR
 10
0.0
 20
1.0
 30
0.0
  9
$PUCSNAME
  2

  9
$PUCSORG
 10
0.0
 20
0.0
 30
0.0
  9
$PUCSXDIR
 10
1.0
 20
0.0
 30
0.0
  9
$PUCSYDIR
 10
0.0
 20
1.0
 30
0.0
  9
$USERI1
 70
     0
  9
$USERI2
 70
     0
  9
$USERI3
 70
     0
  9
$USERI4
 70
     0
  9
$USERI5
 70
     0
  9
$USERR1
 40
0.0
  9
$USERR2
 40
0.0
  9
$USERR3
 40
0.0
  9
$USERR4
 40
0.0
  9
$USERR5
 40
0.0
  9
$WORLDVIEW
 70
     1
  9
$SHADEDGE
 70
     3
  9
$SHADEDIF
 70
    70
  9
$TILEMODE
 70
     1
  9
$MAXACTVP
 70
    64
  9
$PLIMCHECK
 70
     0
  9
$PEXTMIN
 10
1.0000000000000000E+20
 20
1.0000000000000000E+20
 30
1.0000000000000000E+20
  9
$PEXTMAX
 10
-1.0000000000000000E+20
 20
-1.0000000000000000E+20
 30
-1.0000000000000000E+20
  9
$PLIMMIN
 10
0.0
 20
0.0
  9
$PLIMMAX
 10
12.0
 20
9.0
  9
$UNITMODE
 70
     0
  9
$VISRETAIN
 70
     1
  9
$PLINEGEN
 70
     0
  9
$PSLTSCALE
 70
     1
  0
ENDSEC
  0
SECTION
  2
TABLES
  0
TABLE
  2
VPORT
 70
     1
  0
VPORT
  2
*ACTIVE
 70
     0
 10
0.0
 20
0.0
 11
1.0
 21
1.0
 12
-71.3714289056783286
 22
-31.6311663352418009
 13
0.0
 23
0.0
 14
1.0
 24
1.0
 15
0.0
 25
0.0
 16
0.0
 26
0.0
 36
30.6214257250603907
 17
124.6111586000725993
 27
5.3122741703778242
 37
0.0
 40
5.4937058085925514
 41
2.6486111111111108
 42
50.0
 43
0.0
 44
0.0
 50
0.0
 51
0.0
 71
     0
 72
   100
 73
     1
 74
     1
 75
     0
 76
     0
 77
     0
 78
     1
  0
ENDTAB
  0
TABLE
  2
LTYPE
 70
     2
  0
LTYPE
  2
CONTINUOUS
 70
     0
  3
Solid line
 72
    65
 73
     0
 40
0.0
  0
LTYPE
  2
PHANTOM2
 70
     0
  3
___ _ _ ___ _ _ ___ _ _ ___ _ _
 72
    65
 73
     6
 40
1.25
 49
0.625
 49
-0.125
 49
0.125
 49
-0.125
 49
0.125
 49
-0.125
  0
ENDTAB
  0
TABLE
  2
LAYER
 70
     2
  0
LAYER
  2
0
 70
     0
 62
   255
  6
CONTINUOUS
  0
LAYER
  2
DEFPOINTS
 70
     0
 62
     7
  6
CONTINUOUS
  0
ENDTAB
  0
TABLE
  2
STYLE
 70
     1
  0
STYLE
  2
STANDARD
 70
     0
 40
0.0
 41
0.8
 50
0.0
 71
     0
 42
0.2
  3
txt
  4

  0
ENDTAB
  0
TABLE
  2
VIEW
 70
     0
  0
ENDTAB
  0
TABLE
  2
UCS
 70
     0
  0
ENDTAB
  0
TABLE
  2
APPID
 70
     9
  0
APPID
  2
ACAD
 70
     0
  0
APPID
  2
ACAD_MLEADERVER
 70
     0
  0
APPID
  2
ACAD_EXEMPT_FROM_CAD_STANDARDS
 70
     0
  0
APPID
  2
ACAD_DSTYLE_DIMJAG
 70
     0
  0
APPID
  2
ACAD_DSTYLE_DIMTALN
 70
     0
  0
APPID
  2
ACAD_NAV_VCDISPLAY
 70
     0
  0
APPID
  2
ACAECLAYERSTANDARD
 70
     0
  0
APPID
  2
ACCMTRANSPARENCY
 70
     0
  0
APPID
  2
ACDBATTR
 70
     0
  0
ENDTAB
  0
TABLE
  2
DIMSTYLE
 70
     1
  0
DIMSTYLE
  2
STANDARD
 70
     0
  3

  4

  5

  6

  7

 40
1.0
 41
0.1875
 42
0.0625
 43
0.38
 44
0.125
 45
0.0
 46
0.0
 47
0.01
 48
0.01
140
0.15625
141
0.09
142
0.0
143
25.3999999999999986
144
1.0
145
0.0
146
1.0
147
0.09
 71
     1
 72
     0
 73
     1
 74
     1
 75
     0
 76
     0
 77
     0
 78
     4
170
     0
171
     2
172
     0
173
     0
174
     0
175
     0
176
     0
177
     0
178
     0
  0
ENDTAB
  0
ENDSEC
  0
SECTION
  2
BLOCKS
  0
BLOCK
  8
0
  2
$MODEL_SPACE
 70
     0
 10
0.0
 20
0.0
 30
0.0
  3
$MODEL_SPACE
  1

  0
ENDBLK
  5
21
  8
0
  0
BLOCK
 67
     1
  8
0
  2
$PAPER_SPACE
 70
     0
 10
0.0
 20
0.0
 30
0.0
  3
$PAPER_SPACE
  1

  0
ENDBLK
  5
1D
 67
     1
  8
0
  0
BLOCK
  8
0
  2
_FILLED
 70
     0
 10
0.0
 20
0.0
 30
0.0
  3
_FILLED
  1

  0
SOLID
  5
B3EB
  8
0
  6
BYBLOCK
 62
     0
 10
0.0
 20
0.0
 30
0.0
 11
-1.0
 21
0.1666666667
 31
0.0
 12
-1.0
 22
-0.1666666667
 32
0.0
 13
-1.0
 23
-0.1666666667
 33
0.0
  0
ENDBLK
  5
B3EC
  8
0
  6
BYBLOCK
 62
     0
  0
ENDSEC
  0
SECTION
  2
ENTITIES
  0
ATTDEF
  5
10B73
  8
DEFPOINTS
 10
53.2400985838303029
 20
-28.3916618454396712
 30
0.0
 40
0.001
  1
K-98867T-4
  3

  2
MODELNUMBER
 70
     0
1001
ACDBATTR
1070
     0
1070
     1
  0
ATTDEF
  5
10B74
  8
DEFPOINTS
 10
53.2400985838303029
 20
-28.3933285121063399
 30
0.0
 40
0.001
  1
ALEO
  3

  2
TRADENAME
 70
     0
1001
ACDBATTR
1070
     0
1070
     1
  0
ATTDEF
  5
10B75
  8
DEFPOINTS
 10
53.2400985838303029
 20
-28.3949951787730015
 30
0.0
 40
0.001
  1
BATHROOM SINK FAUCET
  3

  2
PRODUCT
 70
     0
1001
ACDBATTR
1070
     0
1070
     1
  0
LINE
  5
11449
  8
0
 10
52.2469104475544128
 20
-28.3956461126741608
 30
0.0
 11
54.232649666951751
 21
-28.395646112674509
 31
0.0
  0
LINE
  5
1144A
  8
0
 10
56.9602469076530866
 20
-28.395646112674509
 30
0.0
 11
58.9681209234530783
 21
-28.395646112674509
 31
0.0
  0
LINE
  5
1144B
  8
0
 10
58.9681209234530783
 20
-28.0019453252745087
 30
0.0
 11
56.9602469076530866
 21
-28.0019453252745087
 31
0.0
  0
LINE
  5
1144C
  8
0
 10
58.9681209234530783
 20
-28.395646112674509
 30
0.0
 11
58.9681209234530783
 21
-28.0019453252745087
 31
0.0
  0
LINE
  5
1144D
  8
0
 10
56.9602469076530866
 20
-28.395646112674509
 30
0.0
 11
56.9602469076530866
 21
-28.0019453252745087
 31
0.0
  0
LINE
  5
1144E
  8
0
 10
57.2752075375504717
 20
-28.0019453252745087
 30
0.0
 11
57.2752075375504717
 21
-26.6043075299745091
 31
0.0
  0
LINE
  5
1144F
  8
0
 10
57.2752075375504717
 20
-26.5688744590745216
 30
0.0
 11
57.2752075375504717
 21
-25.23845847664521
 31
0.0
  0
ARC
  5
11450
  8
0
 10
57.2948926193234485
 20
-25.2384584769347313
 30
0.0
 40
0.0196850817729775
 50
90.2945585117478373
 51
179.9999991573162106
  0
ARC
  5
11451
  8
0
 10
4839.4283528359528646
 20
-930192.0224299686960876
 30
0.0
 40
930179.0964247698429972
 50
90.2943684399197082
 51
90.2945640019149636
  0
ARC
  5
11452
  8
0
 10
60.4696612141540299
 20
-25.2221262173559992
 30
0.0
 40
0.0196651953035639
 50
349.7800791426112141
 51
359.9928908110014163
  0
ARC
  5
11453
  8
0
 10
60.4696574390368369
 20
-25.2221256524813704
 30
0.0
 40
0.0196689704989077
 50
359.9912466937627187
 51
90.0582556628204145
  0
ARC
  5
11454
  8
0
 10
60.213435728265317
 20
-25.1790456545120804
 30
0.0
 40
0.2794858523332843
 50
333.0618368879182185
 51
350.4082765006780278
  0
ARC
  5
11455
  8
0
 10
60.2650156146452929
 20
-25.1971268427273287
 30
0.0
 40
0.2254278406323066
 50
298.8049737528679088
 51
331.2193704317858192
  0
ARC
  5
11456
  8
0
 10
60.1090717036502227
 20
-24.8545712378908306
 30
0.0
 40
0.6014068794297983
 50
276.1566551248844803
 51
296.0978046693430201
  0
ARC
  5
11457
  8
0
 10
59.7558729007343814
 20
-20.8050510492777505
 30
0.0
 40
4.6661912804915611
 50
271.1664175152747021
 51
275.1357543185737882
  0
ARC
  5
11458
  8
0
 10
61.0637290805815383
 20
-68.402590024570344
 30
0.0
 40
42.9494433957522403
 50
91.6182171907740752
 51
92.2553280030393381
  0
ARC
  5
11459
  8
0
 10
59.361839430396877
 20
-26.5954632168088985
 30
0.0
 40
1.109108973189725
 50
89.3949767783051215
 51
109.029626905009394
  0
ARC
  5
1145A
  8
0
 10
59.1296512099945915
 20
-25.9077441608652883
 30
0.0
 40
0.3832963586318566
 50
109.7376607333707028
 51
143.7676379876386079
  0
ARC
  5
1145B
  8
0
 10
59.4026479703490224
 20
-26.1347640865542914
 30
0.0
 40
0.7380064505552242
 50
142.0778443671354978
 51
174.3276424678138881
  0
ARC
  5
1145C
  8
0
 10
60.5387038122273324
 20
-26.3009353722810992
 30
0.0
 40
1.885670714683658
 50
172.714900022829994
 51
180.7040492148537965
  0
ARC
  5
1145D
  8
0
 10
547.3347003849937664
 20
-26.4464901632085407
 30
0.0
 40
488.6815402512277728
 50
179.9856509748628923
 51
180.014349025136994
  0
LINE
  5
1145E
  8
0
 10
58.6531754585889615
 20
-26.5688744590745216
 30
0.0
 11
57.2752075375504717
 21
-26.5688744590745216
 31
0.0
  0
LINE
  5
1145F
  8
0
 10
57.2752075375504717
 20
-26.6043075299745091
 30
0.0
 11
58.6531602935530927
 21
-26.6043075299745091
 31
0.0
  0
LINE
  5
11460
  8
0
 10
58.6531602935530927
 20
-26.6043075299745091
 30
0.0
 11
58.6531602935530927
 21
-28.0019453252745087
 31
0.0
  0
LINE
  5
11461
  8
0
 10
57.3834752541530833
 20
-26.6043075299745091
 30
0.0
 11
57.3834752541530833
 21
-26.5688744590745216
 31
0.0
  0
LINE
  5
11462
  8
0
 10
58.5448925769530888
 20
-26.5688744590745216
 30
0.0
 11
58.5448925769530888
 21
-26.6043075299745091
 31
0.0
  0
LINE
  5
11463
  8
0
 10
54.232649666951751
 20
-28.0019453252745087
 30
0.0
 11
54.2327725050503631
 21
-24.2735993032991608
 31
0.0
  0
ARC
  5
11464
  8
0
 10
54.2011194928150104
 20
-24.2737558163114286
 30
0.0
 40
0.0316533991820561
 50
0.2833044999573057
 51
89.7158622342073357
  0
LINE
  5
11465
  8
0
 10
54.2012746789530908
 20
-24.2421028055745111
 30
0.0
 11
52.2782724663141565
 21
-24.2421028064550903
 31
0.0
  0
ARC
  5
11466
  8
0
 10
52.2782724663285521
 20
-24.2735344188849282
 30
0.0
 40
0.0314316124298477
 50
90.0000000262362647
 51
180.1192291472648037
  0
ARC
  5
11467
  8
0
 10
-749.2429482220145474
 20
-26.152718632069071
 30
0.0
 40
801.4919919684340357
 50
359.867805318145372
 51
0.1343315672477747
  0
ARC
  5
11468
  8
0
 10
58.8671121487653721
 20
-25.20212211352775
 30
0.0
 40
6.6194031038593524
 50
175.0825261059098921
 51
179.2617738301422037
  0
ARC
  5
11469
  8
0
 10
52.9281453864106624
 20
-24.6911484490524202
 30
0.0
 40
0.6584954305145299
 50
163.7819935831840041
 51
175.0825261059098921
  0
ARC
  5
1146A
  8
0
 10
52.3522759151578612
 20
-24.5201625214032006
 30
0.0
 40
0.0578837377240333
 50
119.274639193219798
 51
167.09531892373559
  0
ARC
  5
1146B
  8
0
 10
52.3404234558066079
 20
-24.5093257083034004
 30
0.0
 40
0.0429319407035314
 50
92.2414177879008577
 51
112.5334270098472018
  0
ARC
  5
1146C
  8
0
 10
52.4344286276267368
 20
-72.0937980539756325
 30
0.0
 40
47.6274675549806403
 50
89.9665879908433368
 51
90.1151080970722518
  0
LINE
  5
1146D
  8
0
 10
52.4622025632530793
 20
-24.4663385971745093
 30
0.0
 11
54.1125987909530792
 21
-24.4663303685745213
 31
0.0
  0
ARC
  5
1146E
  8
0
 10
54.1245462956578223
 20
-25.08322661750206
 30
0.0
 40
0.6170155623581652
 50
88.4934147503726649
 51
91.1093127924954587
  0
ARC
  5
1146F
  8
0
 10
54.1397118714203103
 20
-24.5066092556456994
 30
0.0
 40
0.0401988005677269
 50
65.4788468250835791
 51
88.4934147503730628
  0
ARC
  5
11470
  8
0
 10
54.1402792669352593
 20
-24.5053654369393392
 30
0.0
 40
0.0388316785378169
 50
30.3523301629093893
 51
65.4788468250822149
  0
ARC
  5
11471
  8
0
 10
54.0543375970371969
 20
-24.55569104668729
 30
0.0
 40
0.1384240357815832
 50
11.5939096877570993
 51
30.3523301629090092
  0
ARC
  5
11472
  8
0
 10
52.5525385948407902
 20
-24.8637997512483011
 30
0.0
 40
1.671503034667287
 50
8.831802091650589
 51
11.5939096877570993
  0
ARC
  5
11473
  8
0
 10
46.4881771935188794
 20
-25.2765312476561199
 30
0.0
 40
7.745025116816536
 50
0.608788460088615
 51
4.957978873754354
  0
ARC
  5
11474
  8
0
 10
53.239270193858637
 20
-25.9057875782033484
 30
0.0
 40
0.9617105694291453
 50
89.9696238942081976
 51
92.1462900020122362
  0
ARC
  5
11475
  8
0
 10
53.2342628814538301
 20
-25.8517361750042802
 30
0.0
 40
0.9075144472437681
 50
91.9581783431937367
 51
95.5549351569533059
  0
ARC
  5
11476
  8
0
 10
53.2141814125743906
 20
-25.6910914263936085
 30
0.0
 40
0.7456934223594988
 50
95.2140339675792546
 51
102.1723343287423944
  0
ARC
  5
11477
  8
0
 10
53.1518140727968387
 20
-25.4054311104314117
 30
0.0
 40
0.4533056360671263
 50
102.0796986774159052
 51
109.6833064590713036
  0
ARC
  5
11478
  8
0
 10
53.0713575890436289
 20
-25.1851645878687584
 30
0.0
 40
0.2188157360114574
 50
109.2735337279303991
 51
122.3812121732916012
  0
ARC
  5
11479
  8
0
 10
52.9925209036068807
 20
-25.0636252575538592
 30
0.0
 40
0.073969314695926
 50
121.2289444051971969
 51
149.6471440764813963
  0
ARC
  5
1147A
  8
0
 10
52.9562775536263999
 20
-25.0413430385714584
 30
0.0
 40
0.0314473785149762
 50
151.3114786943797014
 51
196.149267036082108
  0
ARC
  5
1147B
  8
0
 10
52.975003586346908
 20
-25.0333783604844697
 30
0.0
 40
0.0517074825056866
 50
198.8561079781943022
 51
231.6239687944056129
  0
ARC
  5
1147C
  8
0
 10
53.0706957918744777
 20
-24.9060193527472187
 30
0.0
 40
0.2109974616367204
 50
232.7234739666270968
 51
254.3388601336986028
  0
ARC
  5
1147D
  8
0
 10
53.1802512678324319
 20
-24.5699133320438712
 30
0.0
 40
0.5643927500662295
 50
252.8405670354285917
 51
261.0949247921842016
  0
ARC
  5
1147E
  8
0
 10
53.2327285584527701
 20
-24.2482574211164312
 30
0.0
 40
0.8902972129565309
 50
260.9627971781811766
 51
267.8430333538742047
  0
ARC
  5
1147F
  8
0
 10
53.2396658640556169
 20
-24.1280458718922617
 30
0.0
 40
1.0106875580584671
 50
267.7065265028525118
 51
270.0064736012877233
  0
LINE
  5
11480
  8
0
 10
53.2020930973530781
 20
-24.9526233322745092
 30
0.0
 11
53.221778136733171
 21
-24.9536149102832105
 31
0.0
  0
LINE
  5
11481
  8
0
 10
53.221778136733171
 20
-24.9536149102832105
 30
0.0
 11
53.2316206564272605
 21
-24.9670328118256002
 31
0.0
  0
LINE
  5
11482
  8
0
 10
53.2316206564272605
 20
-24.9670328118256002
 30
0.0
 11
53.2217781367530876
 21
-24.9793616697037315
 31
0.0
  0
LINE
  5
11483
  8
0
 10
53.2217781367530876
 20
-24.9793616697037315
 30
0.0
 11
53.2020930973530781
 21
-24.97839939997451
 31
0.0
  0
LINE
  5
11484
  8
0
 10
53.2020930973530781
 20
-24.97839939997451
 30
0.0
 11
53.192250577753093
 21
-24.9650796208745192
 31
0.0
  0
LINE
  5
11485
  8
0
 10
53.192250577753093
 20
-24.9650796208745192
 30
0.0
 11
53.2020930973530781
 21
-24.9526233322745092
 31
0.0
  0
LINE
  5
11486
  8
0
 10
53.2020930973530781
 20
-24.9526233322745092
 30
0.0
 11
53.2020930973530781
 21
-24.97839939997451
 31
0.0
  0
LINE
  5
11487
  8
0
 10
53.2217781367530876
 20
-24.9793616697037315
 30
0.0
 11
53.221778136733171
 21
-24.9536149102832105
 31
0.0
  0
LINE
  5
11488
  8
0
 10
53.1742542477530833
 20
-24.9713133064797397
 30
0.0
 11
53.1939392871530785
 21
-24.973255425704469
 31
0.0
  0
LINE
  5
11489
  8
0
 10
53.1939392871530785
 20
-24.973255425704469
 30
0.0
 11
53.2037818067946517
 21
-24.9861507352920817
 31
0.0
  0
LINE
  5
1148A
  8
0
 10
53.2037818067946517
 20
-24.9861507352920817
 30
0.0
 11
53.1939392871530785
 21
-24.99704951630601
 31
0.0
  0
LINE
  5
1148B
  8
0
 10
53.1939392871530785
 20
-24.99704951630601
 30
0.0
 11
53.1742542477204623
 21
-24.9951566518977906
 31
0.0
  0
LINE
  5
1148C
  8
0
 10
53.1742542477204623
 20
-24.9951566518977906
 30
0.0
 11
53.1644117280507515
 21
-24.9823166806185206
 31
0.0
  0
LINE
  5
1148D
  8
0
 10
53.1644117280507515
 20
-24.9823166806185206
 30
0.0
 11
53.1742542477530833
 21
-24.9713133064797397
 31
0.0
  0
LINE
  5
1148E
  8
0
 10
53.1742542477530833
 20
-24.9713133064797397
 30
0.0
 11
53.1742542477204623
 21
-24.9951566518977906
 31
0.0
  0
LINE
  5
1148F
  8
0
 10
53.1939392871530785
 20
-24.99704951630601
 30
0.0
 11
53.1939392871530785
 21
-24.973255425704469
 31
0.0
  0
LINE
  5
11490
  8
0
 10
53.1563140535783276
 20
-24.94757554094139
 30
0.0
 11
53.1661004374749524
 21
-24.9489803891378301
 31
0.0
  0
LINE
  5
11491
  8
0
 10
53.1661004374749524
 20
-24.9489803891378301
 30
0.0
 11
53.1759429571025635
 21
-24.9634558226600802
 31
0.0
  0
LINE
  5
11492
  8
0
 10
53.1759429571025635
 20
-24.9634558226600802
 30
0.0
 11
53.166100437453089
 21
-24.9748650938824603
 31
0.0
  0
LINE
  5
11493
  8
0
 10
53.166100437453089
 20
-24.9748650938824603
 30
0.0
 11
53.1464153980283811
 21
-24.9719472757866185
 31
0.0
  0
LINE
  5
11494
  8
0
 10
53.1464153980283811
 20
-24.9719472757866185
 30
0.0
 11
53.1365728784175317
 21
-24.9575313191938513
 31
0.0
  0
LINE
  5
11495
  8
0
 10
53.1365728784175317
 20
-24.9575313191938513
 30
0.0
 11
53.1464153980530796
 21
-24.9484835571745194
 31
0.0
  0
LINE
  5
11496
  8
0
 10
53.1464153980530796
 20
-24.9484835571745194
 30
0.0
 11
53.1464153980283811
 21
-24.9719472757866185
 31
0.0
  0
LINE
  5
11497
  8
0
 10
53.166100437453089
 20
-24.9748650938824603
 30
0.0
 11
53.1661004374749524
 21
-24.9489803891378301
 31
0.0
  0
LINE
  5
11498
  8
0
 10
53.1185765484530776
 20
-24.9619998506108587
 30
0.0
 11
53.1382615878530871
 21
-24.9659483717999997
 31
0.0
  0
LINE
  5
11499
  8
0
 10
53.1382615878530871
 20
-24.9659483717999997
 30
0.0
 11
53.1479824602042896
 21
-24.9797524595890899
 31
0.0
  0
LINE
  5
1149A
  8
0
 10
53.1479824602042896
 20
-24.9797524595890899
 30
0.0
 11
53.1381399405627235
 21
-24.9899080822007384
 31
0.0
  0
LINE
  5
1149B
  8
0
 10
53.1381399405627235
 20
-24.9899080822007384
 30
0.0
 11
53.1185765484257075
 21
-24.9860845079275009
 31
0.0
  0
LINE
  5
1149C
  8
0
 10
53.1185765484257075
 20
-24.9860845079275009
 30
0.0
 11
53.1087340287742009
 21
-24.9721282616947207
 31
0.0
  0
LINE
  5
1149D
  8
0
 10
53.1087340287742009
 20
-24.9721282616947207
 30
0.0
 11
53.1185765484530776
 21
-24.9619998506108587
 31
0.0
  0
LINE
  5
1149E
  8
0
 10
53.1185765484530776
 20
-24.9619998506108587
 30
0.0
 11
53.1185765484257075
 21
-24.9860845079275009
 31
0.0
  0
LINE
  5
1149F
  8
0
 10
53.1381399405627235
 20
-24.9899080822007384
 30
0.0
 11
53.1382615878530871
 21
-24.9659483717999997
 31
0.0
  0
LINE
  5
114A0
  8
0
 10
53.1464153980530796
 20
-24.9871009511498485
 30
0.0
 11
53.166100437558768
 21
-24.9899711211221813
 31
0.0
  0
LINE
  5
114A1
  8
0
 10
53.166100437558768
 20
-24.9899711211221813
 30
0.0
 11
53.175942957200327
 21
-25.0024046801473396
 31
0.0
  0
LINE
  5
114A2
  8
0
 10
53.175942957200327
 20
-25.0024046801473396
 30
0.0
 11
53.166100437558768
 21
-25.0119488367347387
 31
0.0
  0
LINE
  5
114A3
  8
0
 10
53.166100437558768
 20
-25.0119488367347387
 30
0.0
 11
53.1467679096631826
 21
-25.0091970947975391
 31
0.0
  0
LINE
  5
114A4
  8
0
 10
53.1467679096631826
 20
-25.0091970947975391
 30
0.0
 11
53.1365728784001377
 21
-24.9967274783740514
 31
0.0
  0
LINE
  5
114A5
  8
0
 10
53.1365728784001377
 20
-24.9967274783740514
 30
0.0
 11
53.1464153980530796
 21
-24.9871009511498485
 31
0.0
  0
LINE
  5
114A6
  8
0
 10
53.1464153980530796
 20
-24.9871009511498485
 30
0.0
 11
53.1467679096631826
 21
-25.0091970947975391
 31
0.0
  0
LINE
  5
114A7
  8
0
 10
53.166100437558768
 20
-25.0119488367347387
 30
0.0
 11
53.166100437558768
 21
-24.9899711211221813
 31
0.0
  0
LINE
  5
114A8
  8
0
 10
53.090737698753081
 20
-24.9751491787221696
 30
0.0
 11
53.1104227381530833
 21
-24.9800360164105797
 31
0.0
  0
LINE
  5
114A9
  8
0
 10
53.1104227381530833
 20
-24.9800360164105797
 30
0.0
 11
53.1202652578158379
 21
-24.9935653685918311
 31
0.0
  0
LINE
  5
114AA
  8
0
 10
53.1202652578158379
 20
-24.9935653685918311
 30
0.0
 11
53.1104227381530833
 21
-25.0022318526297305
 31
0.0
  0
LINE
  5
114AB
  8
0
 10
53.1104227381530833
 20
-25.0022318526297305
 30
0.0
 11
53.0907376987907611
 21
-24.9974553481989794
 31
0.0
  0
LINE
  5
114AC
  8
0
 10
53.0907376987907611
 20
-24.9974553481989794
 30
0.0
 11
53.0808951791463883
 21
-24.9839035946641204
 31
0.0
  0
LINE
  5
114AD
  8
0
 10
53.0808951791463883
 20
-24.9839035946641204
 30
0.0
 11
53.090737698753081
 21
-24.9751491787221696
 31
0.0
  0
LINE
  5
114AE
  8
0
 10
53.090737698753081
 20
-24.9751491787221696
 30
0.0
 11
53.0907376987907611
 21
-24.9974553481989794
 31
0.0
  0
LINE
  5
114AF
  8
0
 10
53.1104227381530833
 20
-25.0022318526297305
 30
0.0
 11
53.1104227381530833
 21
-24.9800360164105797
 31
0.0
  0
LINE
  5
114B0
  8
0
 10
53.1185765484765327
 20
-25.0001063399363908
 30
0.0
 11
53.1382615878530871
 21
-25.0038976453745185
 31
0.0
  0
LINE
  5
114B1
  8
0
 10
53.1382615878530871
 20
-25.0038976453745185
 30
0.0
 11
53.1481041075070522
 21
-25.015918320837411
 31
0.0
  0
LINE
  5
114B2
  8
0
 10
53.1481041075070522
 20
-25.015918320837411
 30
0.0
 11
53.1382615878442905
 21
-25.0245848048753103
 31
0.0
  0
LINE
  5
114B3
  8
0
 10
53.1382615878442905
 20
-25.0245848048753103
 30
0.0
 11
53.1185765484530776
 21
-25.0204363238715501
 31
0.0
  0
LINE
  5
114B4
  8
0
 10
53.1185765484530776
 20
-25.0204363238715501
 30
0.0
 11
53.1087340287733483
 21
-25.0084059848257709
 31
0.0
  0
LINE
  5
114B5
  8
0
 10
53.1087340287733483
 20
-25.0084059848257709
 30
0.0
 11
53.1185765484765327
 21
-25.0001063399363908
 31
0.0
  0
LINE
  5
114B6
  8
0
 10
53.1185765484765327
 20
-25.0001063399363908
 30
0.0
 11
53.1185765484530776
 21
-25.0204363238715501
 31
0.0
  0
LINE
  5
114B7
  8
0
 10
53.1382615878442905
 20
-25.0245848048753103
 30
0.0
 11
53.1382615878530871
 21
-25.0038976453745185
 31
0.0
  0
LINE
  5
114B8
  8
0
 10
53.0907376988199573
 20
-25.0103997748442914
 30
0.0
 11
53.1100237741222898
 21
-25.015030822928459
 31
0.0
  0
LINE
  5
114B9
  8
0
 10
53.1100237741222898
 20
-25.015030822928459
 30
0.0
 11
53.1202652578783372
 21
-25.0267672868444606
 31
0.0
  0
LINE
  5
114BA
  8
0
 10
53.1202652578783372
 20
-25.0267672868444606
 30
0.0
 11
53.1103893162413812
 21
-25.0337245774700499
 31
0.0
  0
LINE
  5
114BB
  8
0
 10
53.1103893162413812
 20
-25.0337245774700499
 30
0.0
 11
53.0907376987325321
 21
-25.0290839983278204
 31
0.0
  0
LINE
  5
114BC
  8
0
 10
53.0907376987325321
 20
-25.0290839983278204
 30
0.0
 11
53.0808951792088806
 21
-25.0171055129167499
 31
0.0
  0
LINE
  5
114BD
  8
0
 10
53.0808951792088806
 20
-25.0171055129167499
 30
0.0
 11
53.0907376988199573
 21
-25.0103997748442914
 31
0.0
  0
LINE
  5
114BE
  8
0
 10
53.0907376988199573
 20
-25.0103997748442914
 30
0.0
 11
53.0907376987325321
 21
-25.0290839983278204
 31
0.0
  0
LINE
  5
114BF
  8
0
 10
53.1103893162413812
 20
-25.0337245774700499
 30
0.0
 11
53.1100237741222898
 21
-25.015030822928459
 31
0.0
  0
LINE
  5
114C0
  8
0
 10
53.0628988491105176
 20
-25.0180076204573005
 30
0.0
 11
53.0820238221215135
 21
-25.0235255915092694
 31
0.0
  0
LINE
  5
114C1
  8
0
 10
53.0820238221215135
 20
-25.0235255915092694
 30
0.0
 11
53.092426408216383
 21
-25.0349852395728689
 31
0.0
  0
LINE
  5
114C2
  8
0
 10
53.092426408216383
 20
-25.0349852395728689
 30
0.0
 11
53.0825838885530885
 21
-25.0406843323745107
 31
0.0
  0
LINE
  5
114C3
  8
0
 10
53.0825838885530885
 20
-25.0406843323745107
 30
0.0
 11
53.0628988491848901
 21
-25.0350845463577087
 31
0.0
  0
LINE
  5
114C4
  8
0
 10
53.0628988491848901
 20
-25.0350845463577087
 30
0.0
 11
53.0530563294706994
 21
-25.0237163788452186
 31
0.0
  0
LINE
  5
114C5
  8
0
 10
53.0530563294706994
 20
-25.0237163788452186
 30
0.0
 11
53.0628988491105176
 21
-25.0180076204573005
 31
0.0
  0
LINE
  5
114C6
  8
0
 10
53.0628988491105176
 20
-25.0180076204573005
 30
0.0
 11
53.0628988491848901
 21
-25.0350845463577087
 31
0.0
  0
LINE
  5
114C7
  8
0
 10
53.0825838885530885
 20
-25.0406843323745107
 30
0.0
 11
53.0820238221215135
 21
-25.0235255915092694
 31
0.0
  0
LINE
  5
114C8
  8
0
 10
53.0628988491530791
 20
-24.9854972140930691
 30
0.0
 11
53.0824829464362367
 21
-24.9913078227948411
 31
0.0
  0
LINE
  5
114C9
  8
0
 10
53.0824829464362367
 20
-24.9913078227948411
 30
0.0
 11
53.0924264082022717
 21
-25.0044737170831084
 31
0.0
  0
LINE
  5
114CA
  8
0
 10
53.0924264082022717
 20
-25.0044737170831084
 30
0.0
 11
53.0825838884768331
 21
-25.0118303306491185
 31
0.0
  0
LINE
  5
114CB
  8
0
 10
53.0825838884768331
 20
-25.0118303306491185
 30
0.0
 11
53.0628988491530791
 21
-25.0061042751745184
 31
0.0
  0
LINE
  5
114CC
  8
0
 10
53.0628988491530791
 20
-25.0061042751745184
 30
0.0
 11
53.0530563294749413
 21
-24.9929101242252116
 31
0.0
  0
LINE
  5
114CD
  8
0
 10
53.0530563294749413
 20
-24.9929101242252116
 30
0.0
 11
53.0628988491530791
 21
-24.9854972140930691
 31
0.0
  0
LINE
  5
114CE
  8
0
 10
53.0628988491530791
 20
-24.9854972140930691
 30
0.0
 11
53.0628988491530791
 21
-25.0061042751745184
 31
0.0
  0
LINE
  5
114CF
  8
0
 10
53.0825838884768331
 20
-25.0118303306491185
 30
0.0
 11
53.0824829464362367
 21
-24.9913078227948411
 31
0.0
  0
LINE
  5
114D0
  8
0
 10
53.0350907981935009
 20
-24.9930842599216909
 30
0.0
 11
53.0547450388530777
 21
-24.9998919022658086
 31
0.0
  0
LINE
  5
114D1
  8
0
 10
53.0547450388530777
 20
-24.9998919022658086
 30
0.0
 11
53.0643127537030779
 21
-25.0123347781745196
 31
0.0
  0
LINE
  5
114D2
  8
0
 10
53.0643127537030779
 20
-25.0123347781745196
 30
0.0
 11
53.0547450389054518
 21
-25.0187406263271015
 31
0.0
  0
LINE
  5
114D3
  8
0
 10
53.0547450389054518
 20
-25.0187406263271015
 30
0.0
 11
53.0350599994530825
 21
-25.0120320234744291
 31
0.0
  0
LINE
  5
114D4
  8
0
 10
53.0350599994530825
 20
-25.0120320234744291
 30
0.0
 11
53.0252174797905269
 21
-24.9991544767092684
 31
0.0
  0
LINE
  5
114D5
  8
0
 10
53.0252174797905269
 20
-24.9991544767092684
 30
0.0
 11
53.0350907981935009
 21
-24.9930842599216909
 31
0.0
  0
LINE
  5
114D6
  8
0
 10
53.0350907981935009
 20
-24.9930842599216909
 30
0.0
 11
53.0350599994530825
 21
-25.0120320234744291
 31
0.0
  0
LINE
  5
114D7
  8
0
 10
53.0547450389054518
 20
-25.0187406263271015
 30
0.0
 11
53.0547450388530777
 21
-24.9998919022658086
 31
0.0
  0
LINE
  5
114D8
  8
0
 10
53.0072211498530805
 20
-24.9978594436745105
 30
0.0
 11
53.0269061892229132
 21
-25.0057034277732413
 31
0.0
  0
LINE
  5
114D9
  8
0
 10
53.0269061892229132
 20
-25.0057034277732413
 30
0.0
 11
53.0367487088583687
 21
-25.0181826340520495
 31
0.0
  0
LINE
  5
114DA
  8
0
 10
53.0367487088583687
 20
-25.0181826340520495
 30
0.0
 11
53.0269061891530882
 21
-25.0229362982756491
 31
0.0
  0
LINE
  5
114DB
  8
0
 10
53.0269061891530882
 20
-25.0229362982756491
 30
0.0
 11
53.0072211498216603
 21
-25.0151956445007606
 31
0.0
  0
LINE
  5
114DC
  8
0
 10
53.0072211498216603
 20
-25.0151956445007606
 30
0.0
 11
52.9973786302026184
 21
-25.0025976534431216
 31
0.0
  0
LINE
  5
114DD
  8
0
 10
52.9973786302026184
 20
-25.0025976534431216
 30
0.0
 11
53.0072211498530805
 21
-24.9978594436745105
 31
0.0
  0
LINE
  5
114DE
  8
0
 10
53.0072211498530805
 20
-24.9978594436745105
 30
0.0
 11
53.0072211498216603
 21
-25.0151956445007606
 31
0.0
  0
LINE
  5
114DF
  8
0
 10
53.0269061891530882
 20
-25.0229362982756491
 30
0.0
 11
53.0269061892229132
 21
-25.0057034277732413
 31
0.0
  0
LINE
  5
114E0
  8
0
 10
53.1185765485068799
 20
-25.0321997226331909
 30
0.0
 11
53.1382615878530871
 21
-25.0358864410745099
 31
0.0
  0
LINE
  5
114E1
  8
0
 10
53.1382615878530871
 20
-25.0358864410745099
 30
0.0
 11
53.1481041074740901
 21
-25.0461503098204794
 31
0.0
  0
LINE
  5
114E2
  8
0
 10
53.1481041074740901
 20
-25.0461503098204794
 30
0.0
 11
53.1382615878113427
 21
-25.0527492166554495
 31
0.0
  0
LINE
  5
114E3
  8
0
 10
53.1382615878113427
 20
-25.0527492166554495
 30
0.0
 11
53.1185765484530776
 21
-25.0491055083745096
 31
0.0
  0
LINE
  5
114E4
  8
0
 10
53.1185765484530776
 20
-25.0491055083745096
 30
0.0
 11
53.1087340287909697
 21
-25.0388201355551701
 31
0.0
  0
LINE
  5
114E5
  8
0
 10
53.1087340287909697
 20
-25.0388201355551701
 30
0.0
 11
53.1185765485068799
 21
-25.0321997226331909
 31
0.0
  0
LINE
  5
114E6
  8
0
 10
53.1185765485068799
 20
-25.0321997226331909
 30
0.0
 11
53.1185765484530776
 21
-25.0491055083745096
 31
0.0
  0
LINE
  5
114E7
  8
0
 10
53.1382615878113427
 20
-25.0527492166554495
 30
0.0
 11
53.1382615878530871
 21
-25.0358864410745099
 31
0.0
  0
LINE
  5
114E8
  8
0
 10
53.1464153981141791
 20
-25.021948050478759
 30
0.0
 11
53.1661004375429584
 21
-25.0250821193963802
 31
0.0
  0
LINE
  5
114E9
  8
0
 10
53.1661004375429584
 20
-25.0250821193963802
 30
0.0
 11
53.1759429571639615
 21
-25.035345988142339
 31
0.0
  0
LINE
  5
114EA
  8
0
 10
53.1759429571639615
 20
-25.035345988142339
 30
0.0
 11
53.166100437511858
 21
-25.0431940669998383
 31
0.0
  0
LINE
  5
114EB
  8
0
 10
53.166100437511858
 20
-25.0431940669998383
 30
0.0
 11
53.1464153980530796
 21
-25.0404587812745092
 31
0.0
  0
LINE
  5
114EC
  8
0
 10
53.1464153980530796
 20
-25.0404587812745092
 30
0.0
 11
53.1365728784230029
 21
-25.0298351964796204
 31
0.0
  0
LINE
  5
114ED
  8
0
 10
53.1365728784230029
 20
-25.0298351964796204
 30
0.0
 11
53.1464153981141791
 21
-25.021948050478759
 31
0.0
  0
LINE
  5
114EE
  8
0
 10
53.1464153981141791
 20
-25.021948050478759
 30
0.0
 11
53.1464153980530796
 21
-25.0404587812745092
 31
0.0
  0
LINE
  5
114EF
  8
0
 10
53.166100437511858
 20
-25.0431940669998383
 30
0.0
 11
53.1661004375429584
 21
-25.0250821193963802
 31
0.0
  0
LINE
  5
114F0
  8
0
 10
53.1742542478823168
 20
-25.0090526466071914
 30
0.0
 11
53.1939392871530785
 21
-25.0109197931217011
 31
0.0
  0
LINE
  5
114F1
  8
0
 10
53.1939392871530785
 20
-25.0109197931217011
 30
0.0
 11
53.2037818068529376
 21
-25.0219312378976717
 31
0.0
  0
LINE
  5
114F2
  8
0
 10
53.2037818068529376
 20
-25.0219312378976717
 30
0.0
 11
53.1939392871530785
 21
-25.0310542263132199
 31
0.0
  0
LINE
  5
114F3
  8
0
 10
53.1939392871530785
 20
-25.0310542263132199
 30
0.0
 11
53.1742542477530833
 21
-25.0292202905736687
 31
0.0
  0
LINE
  5
114F4
  8
0
 10
53.1742542477530833
 20
-25.0292202905736687
 30
0.0
 11
53.1644117280889219
 21
-25.0182305861452896
 31
0.0
  0
LINE
  5
114F5
  8
0
 10
53.1644117280889219
 20
-25.0182305861452896
 30
0.0
 11
53.1742542478823168
 21
-25.0090526466071914
 31
0.0
  0
LINE
  5
114F6
  8
0
 10
53.1742542478823168
 20
-25.0090526466071914
 30
0.0
 11
53.1742542477530833
 21
-25.0292202905736687
 31
0.0
  0
LINE
  5
114F7
  8
0
 10
53.1939392871530785
 20
-25.0310542263132199
 30
0.0
 11
53.1939392871530785
 21
-25.0109197931217011
 31
0.0
  0
LINE
  5
114F8
  8
0
 10
53.2020930974772526
 20
-24.9934484180953085
 30
0.0
 11
53.2217781367530876
 21
-24.9943952982591604
 31
0.0
  0
LINE
  5
114F9
  8
0
 10
53.2217781367530876
 20
-24.9943952982591604
 30
0.0
 11
53.2316206564494507
 21
-25.0058349783413902
 31
0.0
  0
LINE
  5
114FA
  8
0
 10
53.2316206564494507
 20
-25.0058349783413902
 30
0.0
 11
53.2217781367530876
 21
-25.0162784599670616
 31
0.0
  0
LINE
  5
114FB
  8
0
 10
53.2217781367530876
 20
-25.0162784599670616
 30
0.0
 11
53.2020930973530781
 21
-25.0153516862440384
 31
0.0
  0
LINE
  5
114FC
  8
0
 10
53.2020930973530781
 20
-25.0153516862440384
 30
0.0
 11
53.192250577744737
 21
-25.0039616458577996
 31
0.0
  0
LINE
  5
114FD
  8
0
 10
53.192250577744737
 20
-25.0039616458577996
 30
0.0
 11
53.2020930974772526
 21
-24.9934484180953085
 31
0.0
  0
LINE
  5
114FE
  8
0
 10
53.2020930974772526
 20
-24.9934484180953085
 30
0.0
 11
53.2020930973530781
 21
-25.0153516862440384
 31
0.0
  0
LINE
  5
114FF
  8
0
 10
53.2217781367530876
 20
-25.0162784599670616
 30
0.0
 11
53.2217781367530876
 21
-24.9943952982591604
 31
0.0
  0
LINE
  5
11500
  8
0
 10
53.2020930973530781
 20
-25.0280883579464195
 30
0.0
 11
53.2217603584076571
 21
-25.0290042099856187
 31
0.0
  0
LINE
  5
11501
  8
0
 10
53.2217603584076571
 20
-25.0290042099856187
 30
0.0
 11
53.2316206563964371
 21
-25.0386773907393803
 31
0.0
  0
LINE
  5
11502
  8
0
 10
53.2316206563964371
 20
-25.0386773907393803
 30
0.0
 11
53.2217781368715421
 21
-25.0474130253117302
 31
0.0
  0
LINE
  5
11503
  8
0
 10
53.2217781368715421
 20
-25.0474130253117302
 30
0.0
 11
53.2020930974209065
 21
-25.046509794777581
 31
0.0
  0
LINE
  5
11504
  8
0
 10
53.2020930974209065
 20
-25.046509794777581
 30
0.0
 11
53.1922505776914534
 21
-25.0368579140769612
 31
0.0
  0
LINE
  5
11505
  8
0
 10
53.1922505776914534
 20
-25.0368579140769612
 30
0.0
 11
53.2020930973530781
 21
-25.0280883579464195
 31
0.0
  0
LINE
  5
11506
  8
0
 10
53.2020930973530781
 20
-25.0280883579464195
 30
0.0
 11
53.2020930974209065
 21
-25.046509794777581
 31
0.0
  0
LINE
  5
11507
  8
0
 10
53.2217781368715421
 20
-25.0474130253117302
 30
0.0
 11
53.2217603584076571
 21
-25.0290042099856187
 31
0.0
  0
LINE
  5
11508
  8
0
 10
53.174254247805429
 20
-25.0409015400503208
 30
0.0
 11
53.1939392871580807
 21
-25.0427186561251496
 31
0.0
  0
LINE
  5
11509
  8
0
 10
53.1939392871580807
 20
-25.0427186561251496
 30
0.0
 11
53.203781806781457
 21
-25.0520209624415493
 31
0.0
  0
LINE
  5
1150A
  8
0
 10
53.203781806781457
 20
-25.0520209624415493
 30
0.0
 11
53.1938733056386965
 21
-25.0594982803031492
 31
0.0
  0
LINE
  5
1150B
  8
0
 10
53.1938733056386965
 20
-25.0594982803031492
 30
0.0
 11
53.1742542477530833
 21
-25.0577067264844011
 31
0.0
  0
LINE
  5
1150C
  8
0
 10
53.1742542477530833
 20
-25.0577067264844011
 30
0.0
 11
53.164411728122019
 21
-25.0484075016731289
 31
0.0
  0
LINE
  5
1150D
  8
0
 10
53.164411728122019
 20
-25.0484075016731289
 30
0.0
 11
53.174254247805429
 21
-25.0409015400503208
 31
0.0
  0
LINE
  5
1150E
  8
0
 10
53.174254247805429
 20
-25.0409015400503208
 30
0.0
 11
53.1742542477530833
 21
-25.0577067264844011
 31
0.0
  0
LINE
  5
1150F
  8
0
 10
53.1938733056386965
 20
-25.0594982803031492
 30
0.0
 11
53.1939392871580807
 21
-25.0427186561251496
 31
0.0
  0
LINE
  5
11510
  8
0
 10
53.1686794698530889
 20
-24.9465982413745202
 30
0.0
 11
53.1742542477519322
 21
-24.9549517570064694
 31
0.0
  0
LINE
  5
11511
  8
0
 10
53.1742542477519322
 20
-24.9549517570064694
 30
0.0
 11
53.1939392871576828
 21
-24.9569313921846287
 31
0.0
  0
LINE
  5
11512
  8
0
 10
53.1939392871576828
 20
-24.9569313921846287
 30
0.0
 11
53.2033848078271916
 21
-24.9447467578314495
 31
0.0
  0
LINE
  5
11513
  8
0
 10
53.1939365726492213
 20
-24.9451181403422915
 30
0.0
 11
53.1939392871104388
 21
-24.9569313921807314
 31
0.0
  0
LINE
  5
11514
  8
0
 10
53.1742542477587392
 20
-24.9549517570165094
 30
0.0
 11
53.1742542477587392
 21
-24.9462076064680183
 31
0.0
  0
LINE
  5
11515
  8
0
 10
53.0883609584776082
 20
-24.9560894580417489
 30
0.0
 11
53.090737698753081
 21
-24.9597911128351804
 31
0.0
  0
LINE
  5
11516
  8
0
 10
53.090737698753081
 20
-24.9597911128351804
 30
0.0
 11
53.1104227381530833
 21
-24.9647627105158385
 31
0.0
  0
LINE
  5
11517
  8
0
 10
53.1104227381530833
 20
-24.9647627105158385
 30
0.0
 11
53.1202652578691499
 21
-24.9542289570087199
 31
0.0
  0
LINE
  5
11518
  8
0
 10
53.1202652578691499
 20
-24.9542289570087199
 30
0.0
 11
53.1185416590061266
 21
-24.9515566282349113
 31
0.0
  0
LINE
  5
11519
  8
0
 10
53.1104227381530833
 20
-24.9647627105158492
 30
0.0
 11
53.1104227381530833
 21
-24.9526519788878893
 31
0.0
  0
LINE
  5
1151A
  8
0
 10
53.0907376987391828
 20
-24.9597911128760295
 30
0.0
 11
53.0907376987391828
 21
-24.9556865517396602
 31
0.0
  0
LINE
  5
1151B
  8
0
 10
53.0569498518530835
 20
-24.9621628177745194
 30
0.0
 11
53.0628988491562268
 21
-24.9712601219657984
 31
0.0
  0
LINE
  5
1151C
  8
0
 10
53.0628988491562268
 20
-24.9712601219657984
 30
0.0
 11
53.0825838885562291
 21
-24.977186291053421
 31
0.0
  0
LINE
  5
1151D
  8
0
 10
53.0825838885562291
 20
-24.977186291053421
 30
0.0
 11
53.0924264081660766
 21
-24.9680463041375198
 31
0.0
  0
LINE
  5
1151E
  8
0
 10
53.0924264081660766
 20
-24.9680463041375198
 30
0.0
 11
53.0848994677476682
 21
-24.9566904059068086
 31
0.0
  0
LINE
  5
1151F
  8
0
 10
53.082583888556222
 20
-24.977186291053421
 30
0.0
 11
53.082583888556222
 21
-24.9571017998848212
 31
0.0
  0
LINE
  5
11520
  8
0
 10
53.0628988491423286
 20
-24.971260122006651
 30
0.0
 11
53.0628988491423286
 21
-24.9609049665412996
 31
0.0
  0
LINE
  5
11521
  8
0
 10
53.0279140693775517
 20
-24.9693866300823011
 30
0.0
 11
53.0350599994669878
 21
-24.9799106795636803
 31
0.0
  0
LINE
  5
11522
  8
0
 10
53.0350599994669878
 20
-24.9799106795636803
 30
0.0
 11
53.0547450388259918
 21
-24.986817139172981
 31
0.0
  0
LINE
  5
11523
  8
0
 10
53.0547450388259918
 20
-24.986817139172981
 30
0.0
 11
53.0645875585649378
 21
-24.9790321496916192
 31
0.0
  0
LINE
  5
11524
  8
0
 10
53.0645875585649378
 20
-24.9790321496916192
 30
0.0
 11
53.0547450389354225
 21
-24.9642574764866687
 31
0.0
  0
LINE
  5
11525
  8
0
 10
53.0547450388259918
 20
-24.9868171391729916
 30
0.0
 11
53.0547450388259918
 21
-24.9642574764411798
 31
0.0
  0
LINE
  5
11526
  8
0
 10
53.0547450388259918
 20
-24.9626429593635102
 30
0.0
 11
53.0547450388259918
 21
-24.9626404123197787
 31
0.0
  0
LINE
  5
11527
  8
0
 10
53.0350599994530825
 20
-24.9799106796045294
 30
0.0
 11
53.0350599992170473
 21
-24.9674191402836207
 31
0.0
  0
LINE
  5
11528
  8
0
 10
53.0547450388259918
 20
-24.9642574763223983
 30
0.0
 11
53.0518799251289082
 21
-24.9632782343578583
 31
0.0
  0
LINE
  5
11529
  8
0
 10
53.0016865705745914
 20
-24.977707212610941
 30
0.0
 11
53.0072211498669787
 21
-24.9857436013336702
 31
0.0
  0
LINE
  5
1152A
  8
0
 10
53.0072211498669787
 20
-24.9857436013336702
 30
0.0
 11
53.0269061891476667
 21
-24.9936723435867094
 31
0.0
  0
LINE
  5
1152B
  8
0
 10
53.0269061891476667
 20
-24.9936723435867094
 30
0.0
 11
53.0367487088311407
 21
-24.9872267479997703
 31
0.0
  0
LINE
  5
1152C
  8
0
 10
53.0367487088311407
 20
-24.9872267479997703
 30
0.0
 11
53.0269061891394884
 21
-24.9728117866186601
 31
0.0
  0
LINE
  5
1152D
  8
0
 10
53.0269061891476596
 20
-24.9936723435867201
 30
0.0
 11
53.0269061890300506
 21
-24.9728117865731711
 31
0.0
  0
LINE
  5
1152E
  8
0
 10
53.0072211498530805
 20
-24.9857436013745193
 30
0.0
 11
53.0072211495806869
 21
-24.9758046607730684
 31
0.0
  0
LINE
  5
1152F
  8
0
 10
53.0269061890300506
 20
-24.972811786454379
 30
0.0
 11
53.0223463655772704
 21
-24.9710072247189316
 31
0.0
  0
LINE
  5
11530
  8
0
 10
52.9781098900700727
 20
-24.9872120860851901
 30
0.0
 11
52.9793823001686022
 21
-24.988711161150011
 31
0.0
  0
LINE
  5
11531
  8
0
 10
52.9793823001686022
 20
-24.988711161150011
 30
0.0
 11
52.9990673395530933
 21
-24.9977227763745091
 31
0.0
  0
LINE
  5
11532
  8
0
 10
52.9990673395530933
 20
-24.9977227763745091
 30
0.0
 11
53.0089098592342012
 21
-24.9926232605904417
 31
0.0
  0
LINE
  5
11533
  8
0
 10
53.0089098592342012
 20
-24.9926232605904417
 30
0.0
 11
52.9991312425280299
 21
-24.9786127029569016
 31
0.0
  0
LINE
  5
11534
  8
0
 10
52.9990673395530791
 20
-24.9977227763745091
 30
0.0
 11
52.9991312424185992
 21
-24.9786127029114091
 31
0.0
  0
LINE
  5
11535
  8
0
 10
52.9793823001546968
 20
-24.9887111611908495
 30
0.0
 11
52.9793823001122632
 21
-24.9866176852179613
 31
0.0
  0
LINE
  5
11536
  8
0
 10
52.9459556077174014
 20
-25.006152370595661
 30
0.0
 11
52.951543450553082
 21
-25.0128147226299795
 31
0.0
  0
LINE
  5
11537
  8
0
 10
52.951543450553082
 20
-25.0128147226299795
 30
0.0
 11
52.9712284899967898
 21
-25.0228517917334194
 31
0.0
  0
LINE
  5
11538
  8
0
 10
52.9712284899967898
 20
-25.0228517917334194
 30
0.0
 11
52.9810710095350501
 21
-25.0208203134340188
 31
0.0
  0
LINE
  5
11539
  8
0
 10
52.9810710095350501
 20
-25.0208203134340188
 30
0.0
 11
52.9712284899160366
 21
-25.0088617793939392
 31
0.0
  0
LINE
  5
1153A
  8
0
 10
52.9712284899160366
 20
-25.0088617793939392
 30
0.0
 11
52.9543515921004513
 21
-25.0002594148595385
 31
0.0
  0
LINE
  5
1153B
  8
0
 10
52.9514801083034072
 20
-25.0020857366145286
 30
0.0
 11
52.951543450553082
 21
-25.012814722774511
 31
0.0
  0
LINE
  5
1153C
  8
0
 10
52.9712284894678689
 20
-25.008861779165489
 30
0.0
 11
52.9712284894678689
 21
-25.0228517914758903
 31
0.0
  0
LINE
  5
1153D
  8
0
 10
53.0252174798464821
 20
-25.0273187854895589
 30
0.0
 11
53.0350599994444707
 21
-25.0229144055453006
 31
0.0
  0
LINE
  5
1153E
  8
0
 10
53.0350599994444707
 20
-25.0229144055453006
 30
0.0
 11
53.0547450388147013
 21
-25.0295691463450609
 31
0.0
  0
LINE
  5
1153F
  8
0
 10
53.0547450388147013
 20
-25.0295691463450609
 30
0.0
 11
53.0645875586004507
 21
-25.0405664542649191
 31
0.0
  0
LINE
  5
11540
  8
0
 10
53.0645875586004507
 20
-25.0405664542649191
 30
0.0
 11
53.0252174798465035
 21
-25.0273187854895589
 31
0.0
  0
LINE
  5
11541
  8
0
 10
53.0808951790782402
 20
-25.0451910175842798
 30
0.0
 11
53.0907376988252295
 21
-25.0398321097548191
 31
0.0
  0
LINE
  5
11542
  8
0
 10
53.0907376988252295
 20
-25.0398321097548191
 30
0.0
 11
53.11042273820091
 21
-25.0444448589439013
 31
0.0
  0
LINE
  5
11543
  8
0
 10
53.11042273820091
 20
-25.0444448589439013
 30
0.0
 11
53.1197806394530829
 21
-25.0544961178289114
 31
0.0
  0
LINE
  5
11544
  8
0
 10
53.1197806394530829
 20
-25.0544961178289114
 30
0.0
 11
53.0808951790782402
 21
-25.0451910175842798
 31
0.0
  0
LINE
  5
11545
  8
0
 10
53.1365728784530873
 20
-25.0573854770745186
 30
0.0
 11
53.1464369867034421
 21
-25.0511253046488314
 31
0.0
  0
LINE
  5
11546
  8
0
 10
53.1464369867034421
 20
-25.0511253046488314
 30
0.0
 11
53.1661004374459694
 21
-25.0538373548080706
 31
0.0
  0
LINE
  5
11547
  8
0
 10
53.1661004374459694
 20
-25.0538373548080706
 30
0.0
 11
53.1759429571294291
 21
-25.0627931285234098
 31
0.0
  0
LINE
  5
11548
  8
0
 10
53.1759429571294291
 20
-25.0627931285234098
 30
0.0
 11
53.1365728784530873
 21
-25.0573854770745115
 31
0.0
  0
LINE
  5
11549
  8
0
 10
53.1922505777530787
 20
-25.0642771124745209
 30
0.0
 11
53.2020930973533908
 21
-25.057129224508131
 31
0.0
  0
LINE
  5
1154A
  8
0
 10
53.2020930973533908
 20
-25.057129224508131
 30
0.0
 11
53.2217781368118565
 21
-25.0580260052743107
 31
0.0
  0
LINE
  5
1154B
  8
0
 10
53.2217781368118565
 20
-25.0580260052743107
 30
0.0
 11
53.2316206564986985
 21
-25.0660631628848698
 31
0.0
  0
LINE
  5
1154C
  8
0
 10
53.2316206564986985
 20
-25.0660631628848698
 30
0.0
 11
53.192250577753093
 21
-25.0642771124745209
 31
0.0
  0
LINE
  5
1154D
  8
0
 10
52.9695397804714005
 20
-25.0031517217447892
 30
0.0
 11
52.9793823001530768
 21
-24.9997920963745202
 31
0.0
  0
LINE
  5
1154E
  8
0
 10
52.9793823001530768
 20
-24.9997920963745202
 30
0.0
 11
52.9990673395525675
 21
-25.0087248173252092
 31
0.0
  0
LINE
  5
1154F
  8
0
 10
52.9990673395525675
 20
-25.0087248173252092
 30
0.0
 11
53.0089098592530874
 21
-25.0209277088745097
 31
0.0
  0
LINE
  5
11550
  8
0
 10
53.0089098592530874
 20
-25.0209277088745097
 30
0.0
 11
52.9959976859530784
 21
-25.0158567181745184
 31
0.0
  0
LINE
  5
11551
  8
0
 10
52.9959976859530784
 20
-25.0158567181745184
 30
0.0
 11
52.9910888609530772
 21
-25.0208653795745199
 31
0.0
  0
LINE
  5
11552
  8
0
 10
52.9910888609530772
 20
-25.0208653795745199
 30
0.0
 11
52.9793823001168818
 21
-25.0155049624470109
 31
0.0
  0
LINE
  5
11553
  8
0
 10
52.9793823001168818
 20
-25.0155049624470109
 30
0.0
 11
52.9695397804714077
 21
-25.0031517217447892
 31
0.0
  0
LINE
  5
11554
  8
0
 10
52.9793822987983276
 20
-24.9997920968369414
 30
0.0
 11
52.9793822987983276
 21
-25.0155049617478191
 31
0.0
  0
LINE
  5
11555
  8
0
 10
53.192250577753093
 20
-25.1158932041745118
 30
0.0
 11
53.1927351960961872
 21
-25.1157850459745084
 31
0.0
  0
ARC
  5
11556
  8
0
 10
53.2397752457530373
 20
-24.5028416359755887
 30
0.0
 40
0.6147457930989239
 50
265.61146498839679
 51
269.1947786681243997
  0
LINE
  5
11557
  8
0
 10
53.2311360381364906
 20
-25.1175267213848485
 30
0.0
 11
53.2316206564530887
 21
-25.1176792545745187
 31
0.0
  0
LINE
  5
11558
  8
0
 10
53.2316206564530887
 20
-25.1176792545745187
 30
0.0
 11
53.2217781368118565
 21
-25.1201781875743109
 31
0.0
  0
LINE
  5
11559
  8
0
 10
53.2217781368118565
 20
-25.1201781875743109
 30
0.0
 11
53.2020930973530781
 21
-25.1192814067745189
 31
0.0
  0
LINE
  5
1155A
  8
0
 10
53.2020930973530781
 20
-25.1192814067745189
 30
0.0
 11
53.1922505777005696
 21
-25.1158932042527603
 31
0.0
  0
LINE
  5
1155B
  8
0
 10
53.2020930973882287
 20
-25.1192814068730499
 30
0.0
 11
53.2020930973882287
 21
-25.11643143855337
 31
0.0
  0
LINE
  5
1155C
  8
0
 10
53.2217781367530876
 20
-25.1201781875716286
 30
0.0
 11
53.2217781367530876
 21
-25.1173239336868193
 31
0.0
  0
LINE
  5
1155D
  8
0
 10
53.1365728784375975
 20
-25.1090015687406201
 30
0.0
 11
53.1370574969274401
 21
-25.1089398956523304
 31
0.0
  0
ARC
  5
1155E
  8
0
 10
53.2417632253735675
 20
-24.4889125875751112
 30
0.0
 40
0.6288061325487529
 50
260.4147378281281817
 51
263.9471556447260809
  0
LINE
  5
1155F
  8
0
 10
53.1754583387530886
 20
-25.114213166774519
 30
0.0
 11
53.1759429571498998
 21
-25.114409220273231
 31
0.0
  0
LINE
  5
11560
  8
0
 10
53.1759429571498998
 20
-25.114409220273231
 30
0.0
 11
53.166100437453089
 21
-25.1159895372386401
 31
0.0
  0
LINE
  5
11561
  8
0
 10
53.166100437453089
 20
-25.1159895372386401
 30
0.0
 11
53.1464153980412135
 21
-25.1132741501517884
 31
0.0
  0
LINE
  5
11562
  8
0
 10
53.1464153980763427
 20
-25.1132741502503301
 30
0.0
 11
53.1365728783850884
 21
-25.1090015688188615
 31
0.0
  0
LINE
  5
11563
  8
0
 10
53.1464153980763427
 20
-25.1132741502503301
 30
0.0
 11
53.1464153980530796
 21
-25.1104510851745211
 31
0.0
  0
LINE
  5
11564
  8
0
 10
53.1661004373943129
 20
-25.1159895372359685
 30
0.0
 11
53.1661004373943129
 21
-25.1131352833511592
 31
0.0
  0
LINE
  5
11565
  8
0
 10
52.9417009308295476
 20
-25.0207775649978785
 30
0.0
 11
52.9515434505095968
 21
-25.0205944727675984
 31
0.0
  0
LINE
  5
11566
  8
0
 10
52.9515434505095968
 20
-25.0205944727675984
 30
0.0
 11
52.9712284898530896
 21
-25.0306092484124783
 31
0.0
  0
LINE
  5
11567
  8
0
 10
52.9712284898530896
 20
-25.0306092484124783
 30
0.0
 11
52.9810710095785424
 21
-25.0408101934208389
 31
0.0
  0
LINE
  5
11568
  8
0
 10
52.9810710095785424
 20
-25.0408101934208389
 30
0.0
 11
52.9712284898530896
 21
-25.0411453390745109
 31
0.0
  0
LINE
  5
11569
  8
0
 10
52.9712284898530896
 20
-25.0411453390745109
 30
0.0
 11
52.951543450553082
 21
-25.0311305634760188
 31
0.0
  0
LINE
  5
1156A
  8
0
 10
52.951543450553082
 20
-25.0311305634760188
 30
0.0
 11
52.9417009308295476
 21
-25.0207775649978785
 31
0.0
  0
LINE
  5
1156B
  8
0
 10
52.9515434505095968
 20
-25.0205944727675984
 30
0.0
 11
52.9515434505095968
 21
-25.0311305633676007
 31
0.0
  0
LINE
  5
1156C
  8
0
 10
52.9712284911636075
 20
-25.0306092471480106
 30
0.0
 11
52.9712284911636075
 21
-25.0411453396491801
 31
0.0
  0
ARC
  5
1156D
  8
0
 10
52.9664422676230515
 20
-24.9144677071075691
 30
0.0
 40
0.123126386987943
 50
258.4079146266830094
 51
263.0499352843482939
  0
LINE
  5
1156E
  8
0
 10
52.9515434504765707
 20
-25.0366893599369291
 30
0.0
 11
52.9712284898777526
 21
-25.0467264290384684
 31
0.0
  0
ARC
  5
1156F
  8
0
 10
53.1773369993526899
 20
-24.8181416108749815
 30
0.0
 40
0.3077852120993902
 50
227.9599069713607093
 51
230.3815606204153141
  0
LINE
  5
11570
  8
0
 10
52.9810710095181605
 20
-25.0552310413043813
 30
0.0
 11
52.9712284898637193
 21
-25.0538085978232594
 31
0.0
  0
LINE
  5
11571
  8
0
 10
52.9712284898637193
 20
-25.0538085978232594
 30
0.0
 11
52.9515434504893818
 21
-25.0437000999151813
 31
0.0
  0
LINE
  5
11572
  8
0
 10
52.9515434504893818
 20
-25.0437000999151813
 30
0.0
 11
52.9417009308575217
 21
-25.0350826872209709
 31
0.0
  0
LINE
  5
11573
  8
0
 10
52.9515434503667279
 20
-25.0366893598809206
 30
0.0
 11
52.9515434503667279
 21
-25.043700099885509
 31
0.0
  0
LINE
  5
11574
  8
0
 10
52.9712284898777526
 20
-25.0467264290384684
 30
0.0
 11
52.9712284898777526
 21
-25.053808597830141
 31
0.0
  0
LINE
  5
11575
  8
0
 10
53.2299319471040775
 20
-25.1194258942878683
 30
0.0
 11
53.2496169863948126
 21
-25.1194258943758193
 31
0.0
  0
LINE
  5
11576
  8
0
 10
53.2496169863948126
 20
-25.1194258943758193
 30
0.0
 11
53.2594595060024929
 21
-25.1215878295609691
 31
0.0
  0
LINE
  5
11577
  8
0
 10
53.2594595060024929
 20
-25.1215878295609691
 30
0.0
 11
53.2496169864530771
 21
-25.1237321634954398
 31
0.0
  0
LINE
  5
11578
  8
0
 10
53.2496169864530771
 20
-25.1237321634954398
 30
0.0
 11
53.2299319470683514
 21
-25.1237321634956885
 31
0.0
  0
LINE
  5
11579
  8
0
 10
53.2299319470683514
 20
-25.1237321634956885
 30
0.0
 11
53.22008942735701
 21
-25.1215878295666215
 31
0.0
  0
LINE
  5
1157A
  8
0
 10
53.22008942735701
 20
-25.1215878295666215
 30
0.0
 11
53.2299319471040775
 21
-25.1194258942878683
 31
0.0
  0
LINE
  5
1157B
  8
0
 10
53.2299319471040775
 20
-25.1194258942878683
 30
0.0
 11
53.2299319466679535
 21
-25.1237321634956885
 31
0.0
  0
LINE
  5
1157C
  8
0
 10
53.2496169809799795
 20
-25.1194258943758193
 30
0.0
 11
53.2496169809799795
 21
-25.1237321635843287
 31
0.0
  0
LINE
  5
1157D
  8
0
 10
53.2299319470262091
 20
-25.1254215098402014
 30
0.0
 11
53.249616986438177
 21
-25.1254215098408906
 31
0.0
  0
LINE
  5
1157E
  8
0
 10
53.249616986438177
 20
-25.1254215098408906
 30
0.0
 11
53.2594595061217078
 21
-25.1259266717840291
 31
0.0
  0
LINE
  5
1157F
  8
0
 10
53.2594595061217078
 20
-25.1259266717840291
 30
0.0
 11
53.2496169864530771
 21
-25.1263893208745195
 31
0.0
  0
LINE
  5
11580
  8
0
 10
53.2496169864530771
 20
-25.1263893208745195
 30
0.0
 11
53.2299319470530889
 21
-25.1263893208745195
 31
0.0
  0
LINE
  5
11581
  8
0
 10
53.2299319470530889
 20
-25.1263893208745195
 30
0.0
 11
53.2200894273258669
 21
-25.1259266718797605
 31
0.0
  0
LINE
  5
11582
  8
0
 10
53.2200894273258669
 20
-25.1259266718797605
 30
0.0
 11
53.2299319470260528
 21
-25.1254215098402014
 31
0.0
  0
LINE
  5
11583
  8
0
 10
53.2316206564245391
 20
-25.124704210252311
 30
0.0
 11
53.2217781368127802
 21
-25.1229037543534588
 31
0.0
  0
LINE
  5
11584
  8
0
 10
53.2217781368127802
 20
-25.1229037543534588
 30
0.0
 11
53.202093097441761
 21
-25.1220005236753217
 31
0.0
  0
LINE
  5
11585
  8
0
 10
53.202093097441761
 20
-25.1220005236753217
 30
0.0
 11
53.1922505779491033
 21
-25.1228847336513788
 31
0.0
  0
LINE
  5
11586
  8
0
 10
53.1922505779491033
 20
-25.1228847336513788
 30
0.0
 11
53.2020930973958173
 21
-25.1246512680223404
 31
0.0
  0
LINE
  5
11587
  8
0
 10
53.2020930973958173
 20
-25.1246512680223404
 30
0.0
 11
53.2217781367530876
 21
-25.1255676549091085
 31
0.0
  0
LINE
  5
11588
  8
0
 10
53.2217781367530876
 20
-25.1255676549091085
 30
0.0
 11
53.2316206564245391
 21
-25.124704210252311
 31
0.0
  0
LINE
  5
11589
  8
0
 10
53.2037818068548916
 20
-25.1208424180751386
 30
0.0
 11
53.1939392871530785
 21
-25.1177885979830506
 31
0.0
  0
LINE
  5
1158A
  8
0
 10
53.1939392871530785
 20
-25.1177885979830506
 30
0.0
 11
53.1742542477836224
 21
-25.1159920915143005
 31
0.0
  0
LINE
  5
1158B
  8
0
 10
53.1742542477836224
 20
-25.1159920915143005
 30
0.0
 11
53.1644117281845467
 21
-25.1172289572770495
 31
0.0
  0
LINE
  5
1158C
  8
0
 10
53.1644117281845467
 20
-25.1172289572770495
 30
0.0
 11
53.1742542477249671
 21
-25.1202590862569792
 31
0.0
  0
LINE
  5
1158D
  8
0
 10
53.1742542477249671
 20
-25.1202590862569792
 30
0.0
 11
53.1939392871387469
 21
-25.1220762024256707
 31
0.0
  0
LINE
  5
1158E
  8
0
 10
53.1939392871387469
 20
-25.1220762024256707
 30
0.0
 11
53.20378180686901
 21
-25.1208424180728898
 31
0.0
  0
LINE
  5
1158F
  8
0
 10
53.2037818067827502
 20
-25.1251634212597708
 30
0.0
 11
53.1939392870906929
 21
-25.124688067086371
 31
0.0
  0
LINE
  5
11590
  8
0
 10
53.1939392870906929
 20
-25.124688067086371
 30
0.0
 11
53.1742542477204907
 21
-25.1228209205890991
 31
0.0
  0
LINE
  5
11591
  8
0
 10
53.1742542477204907
 20
-25.1228209205890991
 30
0.0
 11
53.1644117280843602
 21
-25.12146276951216
 31
0.0
  0
LINE
  5
11592
  8
0
 10
53.1644117280843602
 20
-25.12146276951216
 30
0.0
 11
53.1742542477249884
 21
-25.1219163834061803
 31
0.0
  0
LINE
  5
11593
  8
0
 10
53.1742542477249884
 20
-25.1219163834061803
 30
0.0
 11
53.1939392871530785
 21
-25.1237503191132205
 31
0.0
  0
LINE
  5
11594
  8
0
 10
53.1939392871530785
 20
-25.1237503191132205
 30
0.0
 11
53.2037818068437787
 21
-25.1251634213143902
 31
0.0
  0
LINE
  5
11595
  8
0
 10
53.1759429571458071
 20
-25.1213728077181813
 30
0.0
 11
53.166100437453089
 21
-25.1186847958755095
 31
0.0
  0
LINE
  5
11596
  8
0
 10
53.166100437453089
 20
-25.1186847958755095
 30
0.0
 11
53.1464153980530796
 21
-25.1159495102745183
 31
0.0
  0
LINE
  5
11597
  8
0
 10
53.1464153980530796
 20
-25.1159495102745183
 30
0.0
 11
53.1365728785380824
 21
-25.1158620160451989
 31
0.0
  0
LINE
  5
11598
  8
0
 10
53.1365728785380824
 20
-25.1158620160451989
 30
0.0
 11
53.1464153980530796
 21
-25.1185109605456489
 31
0.0
  0
LINE
  5
11599
  8
0
 10
53.1464153980530796
 20
-25.1185109605456489
 30
0.0
 11
53.1661004374374997
 21
-25.121286861639561
 31
0.0
  0
LINE
  5
1159A
  8
0
 10
53.1661004374374997
 20
-25.121286861639561
 30
0.0
 11
53.1759429557486669
 21
-25.1213728073366198
 31
0.0
  0
LINE
  5
1159B
  8
0
 10
52.9695397805290966
 20
-25.0547678135117806
 30
0.0
 11
52.979382300217452
 21
-25.0565849635598497
 31
0.0
  0
LINE
  5
1159C
  8
0
 10
52.979382300217452
 20
-25.0565849635598497
 30
0.0
 11
52.9910888609530772
 21
-25.0619453806745192
 31
0.0
  0
LINE
  5
1159D
  8
0
 10
52.9910888609530772
 20
-25.0619453806745192
 30
0.0
 11
52.9959976859530784
 21
-25.0669540420745207
 31
0.0
  0
LINE
  5
1159E
  8
0
 10
52.9959976859530784
 20
-25.0669540420745207
 30
0.0
 11
52.9990673395530791
 21
-25.0682828801646203
 31
0.0
  0
LINE
  5
1159F
  8
0
 10
52.9990673395530791
 20
-25.0682828801646203
 30
0.0
 11
53.0089098592754127
 21
-25.0725438005435208
 31
0.0
  0
LINE
  5
115A0
  8
0
 10
53.0089098592754127
 20
-25.0725438005435208
 30
0.0
 11
52.9990673395530791
 21
-25.0708769996809799
 31
0.0
  0
LINE
  5
115A1
  8
0
 10
52.9990673395530791
 20
-25.0708769996809799
 30
0.0
 11
52.9793823001698172
 21
-25.06194427867743
 31
0.0
  0
LINE
  5
115A2
  8
0
 10
52.9793823001698172
 20
-25.06194427867743
 30
0.0
 11
52.9695397804896331
 21
-25.0547678135028598
 31
0.0
  0
LINE
  5
115A3
  8
0
 10
52.9695397804803321
 20
-25.0604645361911196
 30
0.0
 11
52.9793823001530768
 21
-25.0642018899901409
 31
0.0
  0
LINE
  5
115A4
  8
0
 10
52.9793823001530768
 20
-25.0642018899901409
 30
0.0
 11
52.9990673395530791
 21
-25.0732135053905303
 31
0.0
  0
LINE
  5
115A5
  8
0
 10
52.9990673395530791
 20
-25.0732135053905303
 30
0.0
 11
53.0089098592386421
 21
-25.0786500801184182
 31
0.0
  0
LINE
  5
115A6
  8
0
 10
53.0089098592386421
 20
-25.0786500801184182
 30
0.0
 11
52.9990673395146175
 21
-25.0750811697915807
 31
0.0
  0
LINE
  5
115A7
  8
0
 10
52.9990673395146175
 20
-25.0750811697915807
 30
0.0
 11
52.9793823002052378
 21
-25.0659074146149514
 31
0.0
  0
LINE
  5
115A8
  8
0
 10
52.9793823002052378
 20
-25.0659074146149514
 30
0.0
 11
52.9695397804803321
 21
-25.0604645361911196
 31
0.0
  0
LINE
  5
115A9
  8
0
 10
52.9973786302839684
 20
-25.0714191091591196
 30
0.0
 11
53.0072211498530805
 21
-25.0734810094614602
 31
0.0
  0
LINE
  5
115AA
  8
0
 10
53.0072211498530805
 20
-25.0734810094614602
 30
0.0
 11
53.0269061892298765
 21
-25.0812216632477316
 31
0.0
  0
LINE
  5
115AB
  8
0
 10
53.0269061892298765
 20
-25.0812216632477316
 30
0.0
 11
53.0367487088598821
 21
-25.0870040896742097
 31
0.0
  0
LINE
  5
115AC
  8
0
 10
53.0367487088598821
 20
-25.0870040896742097
 30
0.0
 11
53.0270749361807816
 21
-25.0851009438802599
 31
0.0
  0
LINE
  5
115AD
  8
0
 10
53.0270749361807816
 20
-25.0851009438802599
 30
0.0
 11
53.0072211498530805
 21
-25.0772169898378792
 31
0.0
  0
LINE
  5
115AE
  8
0
 10
53.0072211498530805
 20
-25.0772169898378792
 30
0.0
 11
52.9973786301304983
 21
-25.0714191091206793
 31
0.0
  0
LINE
  5
115AF
  8
0
 10
53.0252174797786111
 20
-25.078934877254099
 30
0.0
 11
53.0350599994530825
 21
-25.0823925769080098
 31
0.0
  0
LINE
  5
115B0
  8
0
 10
53.0350599994530825
 20
-25.0823925769080098
 30
0.0
 11
53.0547450388530777
 21
-25.0890088083745084
 31
0.0
  0
LINE
  5
115B1
  8
0
 10
53.0547450388530777
 20
-25.0890088083745084
 30
0.0
 11
53.0645875585618825
 21
-25.0921825460218102
 31
0.0
  0
LINE
  5
115B2
  8
0
 10
53.0645875585618825
 20
-25.0921825460218102
 30
0.0
 11
53.0547450388147013
 21
-25.0917213286450611
 31
0.0
  0
LINE
  5
115B3
  8
0
 10
53.0547450388147013
 20
-25.0917213286450611
 30
0.0
 11
53.0350599994718692
 21
-25.0850665878690293
 31
0.0
  0
LINE
  5
115B4
  8
0
 10
53.0350599994718692
 20
-25.0850665878690293
 30
0.0
 11
53.0252174798336
 21
-25.0789348772734186
 31
0.0
  0
LINE
  5
115B5
  8
0
 10
53.025217479938739
 20
-25.0851812961943388
 30
0.0
 11
53.0350599994530825
 21
-25.0875227524745092
 31
0.0
  0
LINE
  5
115B6
  8
0
 10
53.0350599994530825
 20
-25.0875227524745092
 30
0.0
 11
53.0547450389054518
 21
-25.0942313552271088
 31
0.0
  0
LINE
  5
115B7
  8
0
 10
53.0547450389054518
 20
-25.0942313552271088
 30
0.0
 11
53.0645875584375375
 21
-25.0987083555025912
 31
0.0
  0
LINE
  5
115B8
  8
0
 10
53.0645875584375375
 20
-25.0987083555025912
 30
0.0
 11
53.0547450388530777
 21
-25.096454812374521
 31
0.0
  0
LINE
  5
115B9
  8
0
 10
53.0547450388530777
 20
-25.096454812374521
 30
0.0
 11
53.0350599995302119
 21
-25.0896358878399788
 31
0.0
  0
LINE
  5
115BA
  8
0
 10
53.0350599995302119
 20
-25.0896358878399788
 30
0.0
 11
53.0252174798088021
 21
-25.0851812961309015
 31
0.0
  0
LINE
  5
115BB
  8
0
 10
53.0530563294973518
 20
-25.0925378344599288
 30
0.0
 11
53.0628988491787013
 21
-25.0933699112345714
 31
0.0
  0
LINE
  5
115BC
  8
0
 10
53.0628988491787013
 20
-25.0933699112345714
 30
0.0
 11
53.0825838884925716
 21
-25.0989696973120893
 31
0.0
  0
LINE
  5
115BD
  8
0
 10
53.0825838884925716
 20
-25.0989696973120893
 30
0.0
 11
53.0924264081979871
 21
-25.1038066951994914
 31
0.0
  0
LINE
  5
115BE
  8
0
 10
53.0924264081979871
 20
-25.1038066951994914
 30
0.0
 11
53.0825838885530885
 21
-25.1030344018002687
 31
0.0
  0
LINE
  5
115BF
  8
0
 10
53.0825838885530885
 20
-25.1030344018002687
 30
0.0
 11
53.0628988491530791
 21
-25.0973651666745212
 31
0.0
  0
LINE
  5
115C0
  8
0
 10
53.0628988491530791
 20
-25.0973651666745212
 30
0.0
 11
53.0530563294973589
 21
-25.0925378344599395
 31
0.0
  0
LINE
  5
115C1
  8
0
 10
53.0808951790917334
 20
-25.0968071092733993
 30
0.0
 11
53.090737698753081
 21
-25.0992178547745191
 31
0.0
  0
LINE
  5
115C2
  8
0
 10
53.090737698753081
 20
-25.0992178547745191
 30
0.0
 11
53.1104227381530833
 21
-25.10380976173942
 31
0.0
  0
LINE
  5
115C3
  8
0
 10
53.1104227381530833
 20
-25.10380976173942
 30
0.0
 11
53.1202652578888816
 21
-25.1059919748522518
 31
0.0
  0
LINE
  5
115C4
  8
0
 10
53.1202652578888816
 20
-25.1059919748522518
 30
0.0
 11
53.1104227382014074
 21
-25.1065970412813684
 31
0.0
  0
LINE
  5
115C5
  8
0
 10
53.1104227382014074
 20
-25.1065970412813684
 30
0.0
 11
53.090737698753081
 21
-25.1019842920967911
 31
0.0
  0
LINE
  5
115C6
  8
0
 10
53.090737698753081
 20
-25.1019842920967911
 30
0.0
 11
53.0808951791391621
 21
-25.0968071093006806
 31
0.0
  0
LINE
  5
115C7
  8
0
 10
53.0808951790587571
 20
-25.1034270915717883
 30
0.0
 11
53.0907376987855031
 21
-25.1045747272002586
 31
0.0
  0
LINE
  5
115C8
  8
0
 10
53.0907376987855031
 20
-25.1045747272002586
 30
0.0
 11
53.1104227381617022
 21
-25.1092226087023889
 31
0.0
  0
LINE
  5
115C9
  8
0
 10
53.1104227381617022
 20
-25.1092226087023889
 30
0.0
 11
53.120265257586432
 21
-25.1127941063363984
 31
0.0
  0
LINE
  5
115CA
  8
0
 10
53.120265257586432
 20
-25.1127941063363984
 30
0.0
 11
53.1104227381530833
 21
-25.1116823687745097
 31
0.0
  0
LINE
  5
115CB
  8
0
 10
53.1104227381530833
 20
-25.1116823687745097
 30
0.0
 11
53.0907376987476027
 21
-25.1069626849708207
 31
0.0
  0
LINE
  5
115CC
  8
0
 10
53.0907376987476027
 20
-25.1069626849708207
 30
0.0
 11
53.08089517905875
 21
-25.1034270915717883
 31
0.0
  0
LINE
  5
115CD
  8
0
 10
53.1087340287568495
 20
-25.1076415911846702
 30
0.0
 11
53.1185765484029417
 21
-25.1073908734271285
 31
0.0
  0
LINE
  5
115CE
  8
0
 10
53.1185765484029417
 20
-25.1073908734271285
 30
0.0
 11
53.1382615877789632
 21
-25.1110345815834783
 31
0.0
  0
LINE
  5
115CF
  8
0
 10
53.1382615877789632
 20
-25.1110345815834783
 30
0.0
 11
53.1481041074536193
 21
-25.1149717654766498
 31
0.0
  0
LINE
  5
115D0
  8
0
 10
53.1481041074536193
 20
-25.1149717654766498
 30
0.0
 11
53.1382615878530871
 21
-25.1152439874004614
 31
0.0
  0
LINE
  5
115D1
  8
0
 10
53.1382615878530871
 20
-25.1152439874004614
 30
0.0
 11
53.1185765484530776
 21
-25.1115572688256705
 31
0.0
  0
LINE
  5
115D2
  8
0
 10
53.1185765484530776
 20
-25.1115572688256705
 30
0.0
 11
53.1087340287132719
 21
-25.1076415911658692
 31
0.0
  0
LINE
  5
115D3
  8
0
 10
52.9695397804912886
 20
-25.0260118189784713
 30
0.0
 11
52.9793823001530768
 21
-25.0243428035745197
 31
0.0
  0
LINE
  5
115D4
  8
0
 10
52.9793823001530768
 20
-25.0243428035745197
 30
0.0
 11
52.9829776269553392
 21
-25.0260142518626907
 31
0.0
  0
LINE
  5
115D5
  8
0
 10
52.9829776269553392
 20
-25.0260142518626907
 30
0.0
 11
52.9834830425766512
 21
-25.0237591059637907
 31
0.0
  0
ARC
  5
115D6
  8
0
 10
53.2393080355356929
 20
-24.4661241112530092
 30
0.0
 40
0.6135170856207478
 50
245.3558658417344134
 51
270.0440816654460718
  0
LINE
  5
115D7
  8
0
 10
53.0749533179905271
 20
-25.0572169475902804
 30
0.0
 11
53.0556524409530823
 21
-25.0572169475902804
 31
0.0
  0
LINE
  5
115D8
  8
0
 10
53.0556524409530823
 20
-25.0572169475902804
 30
0.0
 11
53.0556524409530823
 21
-25.0515076068583191
 31
0.0
  0
LINE
  5
115D9
  8
0
 10
53.0628988491530791
 20
-25.0572212184745204
 30
0.0
 11
53.0628988491530791
 21
-25.0537319850161211
 31
0.0
  0
LINE
  5
115DA
  8
0
 10
53.0341525974530867
 20
-25.0572212184745204
 30
0.0
 11
53.0341525974530867
 21
-25.0443234372416512
 31
0.0
  0
LINE
  5
115DB
  8
0
 10
53.0341525974530867
 20
-25.0572212184745204
 30
0.0
 11
52.9999747415530891
 21
-25.0572212184745204
 31
0.0
  0
LINE
  5
115DC
  8
0
 10
52.9999747415530891
 20
-25.0572212184745204
 30
0.0
 11
52.9999747415530891
 21
-25.0457366320745187
 31
0.0
  0
LINE
  5
115DD
  8
0
 10
53.0113081771725092
 20
-25.0357221039183884
 30
0.0
 11
53.0072211498202108
 21
-25.0378896140543183
 31
0.0
  0
LINE
  5
115DE
  8
0
 10
53.0072211498202108
 20
-25.0378896140543183
 30
0.0
 11
52.9999747415530891
 21
-25.0457366320745187
 31
0.0
  0
LINE
  5
115DF
  8
0
 10
52.9999747415530891
 20
-25.0457366320745187
 30
0.0
 11
52.9834830424261511
 21
-25.0553907825621494
 31
0.0
  0
ARC
  5
115E0
  8
0
 10
53.2393074582687191
 20
-24.4977584397057591
 30
0.0
 40
0.6135144346636815
 50
245.3558115616258135
 51
270.0441357665832243
  0
LINE
  5
115E1
  8
0
 10
53.0072211498530805
 20
-25.0572212184745204
 30
0.0
 11
53.0071611238918123
 21
-25.0379214481471699
 31
0.0
  0
LINE
  5
115E2
  8
0
 10
53.0269061891530882
 20
-25.0572212184745204
 30
0.0
 11
53.0269061891530882
 21
-25.0417009262845411
 31
0.0
  0
LINE
  5
115E3
  8
0
 10
53.0081752688705521
 20
-25.034438160456709
 30
0.0
 11
52.9990673395164578
 21
-25.0442999560594188
 31
0.0
  0
LINE
  5
115E4
  8
0
 10
52.9990673395164578
 20
-25.0442999560594188
 30
0.0
 11
52.9829776268289692
 21
-25.053755706302411
 31
0.0
  0
LINE
  5
115E5
  8
0
 10
52.9829776268289692
 20
-25.053755706302411
 30
0.0
 11
52.9793823001317392
 21
-25.0520842580496996
 31
0.0
  0
LINE
  5
115E6
  8
0
 10
52.9793823001317392
 20
-25.0520842580496996
 30
0.0
 11
52.9695397805448991
 21
-25.0432171829286609
 31
0.0
  0
LINE
  5
115E7
  8
0
 10
52.9695397805448991
 20
-25.0432171829286609
 30
0.0
 11
52.9793823001530768
 21
-25.0432545186745195
 31
0.0
  0
LINE
  5
115E8
  8
0
 10
52.9793823001530768
 20
-25.0432545186745195
 30
0.0
 11
52.9814000490169974
 21
-25.0441929217284383
 31
0.0
  0
LINE
  5
115E9
  8
0
 10
52.9814000490169974
 20
-25.0441929217284383
 30
0.0
 11
52.9990673395552818
 21
-25.0337638654151711
 31
0.0
  0
LINE
  5
115EA
  8
0
 10
52.9990673395552818
 20
-25.0337638654151711
 30
0.0
 11
53.0062559273694873
 21
-25.0336537838057893
 31
0.0
  0
LINE
  5
115EB
  8
0
 10
52.9990673394837017
 20
-25.0337638654170718
 30
0.0
 11
52.999067339516408
 21
-25.0442999560594508
 31
0.0
  0
LINE
  5
115EC
  8
0
 10
52.983483047492193
 20
-25.055390779596511
 30
0.0
 11
52.9829776268289692
 21
-25.053755706302411
 31
0.0
  0
LINE
  5
115ED
  8
0
 10
52.9695397804191899
 20
-25.0260118189880387
 30
0.0
 11
52.9793823001530768
 21
-25.0365852454362816
 31
0.0
  0
LINE
  5
115EE
  8
0
 10
52.9793823001530768
 20
-25.0365852454362816
 30
0.0
 11
52.981400049101012
 21
-25.037523648419441
 31
0.0
  0
LINE
  5
115EF
  8
0
 10
52.981400049101012
 20
-25.037523648419441
 30
0.0
 11
52.9814000031749686
 21
-25.0441929004084898
 31
0.0
  0
LINE
  5
115F0
  8
0
 10
52.9814000490518211
 20
-25.0375236484192989
 30
0.0
 11
52.9955017747532082
 21
-25.029117647229981
 31
0.0
  0
LINE
  5
115F1
  8
0
 10
52.9793822978599067
 20
-25.0243428039633713
 30
0.0
 11
52.9793822978599067
 21
-25.0365852442633496
 31
0.0
  0
LINE
  5
115F2
  8
0
 10
53.2217781367530876
 20
-25.1255676549091085
 30
0.0
 11
53.2217781368127802
 21
-25.1229037543534588
 31
0.0
  0
LINE
  5
115F3
  8
0
 10
53.2020930973958173
 20
-25.1246512680223404
 30
0.0
 11
53.202093097441761
 21
-25.1220005236753217
 31
0.0
  0
LINE
  5
115F4
  8
0
 10
53.1939392871387469
 20
-25.1220762024256707
 30
0.0
 11
53.1939392871530785
 21
-25.1177885979830506
 31
0.0
  0
LINE
  5
115F5
  8
0
 10
53.1742542477836224
 20
-25.1159920915143005
 30
0.0
 11
53.1742542477249671
 21
-25.1202590862569792
 31
0.0
  0
LINE
  5
115F6
  8
0
 10
53.1661004374374997
 20
-25.121286861639561
 30
0.0
 11
53.166100437453089
 21
-25.1186847958755095
 31
0.0
  0
LINE
  5
115F7
  8
0
 10
53.1464153980530796
 20
-25.1185109605456489
 30
0.0
 11
53.1464381660454421
 21
-25.1159497126686198
 31
0.0
  0
LINE
  5
115F8
  8
0
 10
53.1939392871530785
 20
-25.1237503191132205
 30
0.0
 11
53.1939392871530785
 21
-25.1246880670893802
 31
0.0
  0
LINE
  5
115F9
  8
0
 10
53.1742542477249884
 20
-25.1219163834061803
 30
0.0
 11
53.1742542477249884
 21
-25.1228209205895183
 31
0.0
  0
LINE
  5
115FA
  8
0
 10
53.1382615878530871
 20
-25.1152439874004614
 30
0.0
 11
53.1382615877789632
 21
-25.1110345815834783
 31
0.0
  0
LINE
  5
115FB
  8
0
 10
53.1185765484530776
 20
-25.1115572688256705
 30
0.0
 11
53.1185765484029417
 21
-25.1073908734271285
 31
0.0
  0
LINE
  5
115FC
  8
0
 10
53.1104227381530833
 20
-25.1116823687745097
 30
0.0
 11
53.1104227381617022
 21
-25.1092226087023889
 31
0.0
  0
LINE
  5
115FD
  8
0
 10
53.1104227382014074
 20
-25.1065970412813684
 30
0.0
 11
53.1104227381530833
 21
-25.10380976173942
 31
0.0
  0
LINE
  5
115FE
  8
0
 10
53.0907376987476027
 20
-25.1069626849708207
 30
0.0
 11
53.0907376987855031
 21
-25.1045747272002586
 31
0.0
  0
LINE
  5
115FF
  8
0
 10
53.090737698753081
 20
-25.1019842920967911
 30
0.0
 11
53.090737698753081
 21
-25.0992178547745191
 31
0.0
  0
LINE
  5
11600
  8
0
 10
53.0825838885530885
 20
-25.1030344018002687
 30
0.0
 11
53.0825838884925716
 21
-25.0989696973120893
 31
0.0
  0
LINE
  5
11601
  8
0
 10
53.0628988491530791
 20
-25.0973651666745212
 30
0.0
 11
53.0628988491787013
 21
-25.0933699112345714
 31
0.0
  0
LINE
  5
11602
  8
0
 10
53.0547450388147013
 20
-25.0917213286450611
 30
0.0
 11
53.0547450388530777
 21
-25.0890088083745084
 31
0.0
  0
LINE
  5
11603
  8
0
 10
53.0547450388530777
 20
-25.096454812374521
 30
0.0
 11
53.0547450389054518
 21
-25.0942313552271088
 31
0.0
  0
LINE
  5
11604
  8
0
 10
53.0350599995302119
 20
-25.0896358878399788
 30
0.0
 11
53.0350599994530825
 21
-25.0875227524745092
 31
0.0
  0
LINE
  5
11605
  8
0
 10
53.0350599994718692
 20
-25.0850665878690293
 30
0.0
 11
53.0350599994530825
 21
-25.0823925769080098
 31
0.0
  0
LINE
  5
11606
  8
0
 10
53.0270749361807816
 20
-25.0851009438802599
 30
0.0
 11
53.0269061892298765
 21
-25.0812216632477316
 31
0.0
  0
LINE
  5
11607
  8
0
 10
53.0072211498530805
 20
-25.0772169898378792
 30
0.0
 11
53.0072211498530805
 21
-25.0734810094614602
 31
0.0
  0
LINE
  5
11608
  8
0
 10
52.9990673395146175
 20
-25.0750811697915807
 30
0.0
 11
52.9990673395530791
 21
-25.0732135053905303
 31
0.0
  0
LINE
  5
11609
  8
0
 10
52.9990673395530791
 20
-25.0708769996809799
 30
0.0
 11
52.9990673395530791
 21
-25.0682828801646203
 31
0.0
  0
LINE
  5
1160A
  8
0
 10
52.9793823001698172
 20
-25.06194427867743
 30
0.0
 11
52.979382300217452
 21
-25.0565849635598497
 31
0.0
  0
LINE
  5
1160B
  8
0
 10
52.9793823002052378
 20
-25.0659074146149514
 30
0.0
 11
52.9793823001530768
 21
-25.0642018899901409
 31
0.0
  0
ARC
  5
1160C
  8
0
 10
52.9749811918935265
 20
-25.002255438821031
 30
0.0
 40
0.0521383333407297
 50
207.3966659352076931
 51
228.7659985171297023
  0
ARC
  5
1160D
  8
0
 10
53.0332401387008403
 20
-24.9357864109955791
 30
0.0
 40
0.1405251906395216
 50
228.7659985171301003
 51
238.9581572925573028
  0
ARC
  5
1160E
  8
0
 10
53.050511043906333
 20
-24.9070902882529701
 30
0.0
 40
0.174017751411663
 50
238.9581572925573028
 51
245.8740292500789053
  0
ARC
  5
1160F
  8
0
 10
53.2308039963612671
 20
-24.5616189932821989
 30
0.0
 40
0.5633340792396647
 50
245.7093073219749044
 51
254.7451863610642988
  0
ARC
  5
11610
  8
0
 10
53.251964690947311
 20
-24.4840281523497083
 30
0.0
 40
0.6437586624961185
 50
254.7451863610642988
 51
259.8268327344143813
  0
ARC
  5
11611
  8
0
 10
53.2152876494811622
 20
-24.6884197478799408
 30
0.0
 40
0.4361023847338003
 50
259.8268327344143813
 51
263.7421888022033727
  0
ARC
  5
11612
  8
0
 10
53.2403454147067379
 20
-24.1180827356599501
 30
0.0
 40
1.02673384641969
 50
260.746444224189986
 51
269.9684508329390837
  0
ARC
  5
11613
  8
0
 10
53.1641794705832496
 20
-24.6065443513835902
 30
0.0
 40
0.5323917825893976
 50
247.6275341683646047
 51
260.3835762641847964
  0
ARC
  5
11614
  8
0
 10
53.013123988999709
 20
-24.9735328950111217
 30
0.0
 40
0.1355311651551584
 50
227.3954417534943104
 51
247.6275341683646047
  0
ARC
  5
11615
  8
0
 10
52.959538484981401
 20
-25.0317973889142706
 30
0.0
 40
0.0563721006667002
 50
200.5843907296882946
 51
227.3954417534943104
  0
ARC
  5
11616
  8
0
 10
52.9342585384535909
 20
-25.0412916368028995
 30
0.0
 40
0.0293680928267592
 50
156.589334291195712
 51
200.5843907296896873
  0
ARC
  5
11617
  8
0
 10
52.9651226999238389
 20
-25.0546545740010096
 30
0.0
 40
0.0630008826875942
 50
124.8283206800209939
 51
156.589334291195911
  0
ARC
  5
11618
  8
0
 10
53.0652383495954822
 20
-25.1985502927779486
 30
0.0
 40
0.2382981193786045
 50
106.6346561961017017
 51
124.8283206800209939
  0
ARC
  5
11619
  8
0
 10
53.2044601012894987
 20
-25.6645306988101005
 30
0.0
 40
0.7246317856517158
 50
97.5988448124959689
 51
106.6346561961017017
  0
ARC
  5
1161A
  8
0
 10
53.2277097818476008
 20
-25.8388057524651096
 30
0.0
 40
0.9004508459737079
 50
92.4176787802102666
 51
97.5988448124959689
  0
ARC
  5
1161B
  8
0
 10
53.2453594732328597
 20
-26.2568317411903216
 30
0.0
 40
1.31884926716538
 50
90.2423915676444182
 51
92.4176787802102666
  0
ARC
  5
1161C
  8
0
 10
53.2375478932635886
 20
-25.9586780246592888
 30
0.0
 40
1.0309618080276
 50
89.8759472225777785
 51
97.7829974459196052
  0
ARC
  5
1161D
  8
0
 10
53.1902769185179025
 20
-25.6128282401622407
 30
0.0
 40
0.6818964581429963
 50
97.7829974459191362
 51
106.6549040352655027
  0
ARC
  5
1161E
  8
0
 10
53.0728119431220478
 20
-25.2201745251302398
 30
0.0
 40
0.2720489738598971
 50
106.6549040352658011
 51
123.1937951281697963
  0
ARC
  5
1161F
  8
0
 10
52.9616306796307725
 20
-25.0502315808906708
 30
0.0
 40
0.0689680105759633
 50
123.1937951281693984
 51
144.9990966482052102
  0
ARC
  5
11620
  8
0
 10
52.9426311247192416
 20
-25.0369275028888794
 30
0.0
 40
0.0457735806775114
 50
144.9990966482052102
 51
175.8947759744615098
  0
ARC
  5
11621
  8
0
 10
52.9207112016388379
 20
-25.0353542544025807
 30
0.0
 40
0.0237972721010002
 50
175.8947759744613109
 51
203.7010329248240055
  0
ARC
  5
11622
  8
0
 10
52.9759392717205913
 20
-25.0111096390811305
 30
0.0
 40
0.0841126192113353
 50
203.7010329248238065
 51
213.4738700546629104
  0
ARC
  5
11623
  8
0
 10
52.9730329230733972
 20
-25.0053259866865893
 30
0.0
 40
0.0851213441609339
 50
217.8043046484272054
 51
231.1454438950437975
  0
ARC
  5
11624
  8
0
 10
52.9815705468532627
 20
-24.9923273339014607
 30
0.0
 40
0.100375095601688
 50
209.3643544684115909
 51
226.3692376351336861
  0
ARC
  5
11625
  8
0
 10
52.9501457855958719
 20
-25.0100085283089015
 30
0.0
 40
0.0643176379021016
 50
189.2891888377683074
 51
209.3643544684115909
  0
ARC
  5
11626
  8
0
 10
52.9810005050211714
 20
-25.0049618521597594
 30
0.0
 40
0.0955823568512388
 50
181.3263625730000115
 51
189.2891888377683074
  0
ARC
  5
11627
  8
0
 10
52.9178183532920912
 20
-25.0064247420097807
 30
0.0
 40
0.0323832718592053
 50
151.9244027055937067
 51
181.3263625730006083
  0
ARC
  5
11628
  8
0
 10
52.9540715081519124
 20
-25.0257622858445608
 30
0.0
 40
0.0734713703653698
 50
124.0345787656853958
 51
151.9244027055937067
  0
ARC
  5
11629
  8
0
 10
53.0562632253306603
 20
-25.1770706804813109
 30
0.0
 40
0.2560566308534296
 50
106.5927440529965935
 51
124.0345787656850973
  0
ARC
  5
1162A
  8
0
 10
53.2023825131875228
 20
-25.6674449046458903
 30
0.0
 40
0.7677379047034765
 50
96.653937016133753
 51
106.5927440529961956
  0
ARC
  5
1162B
  8
0
 10
53.2363227381400606
 20
-25.9583826487207716
 30
0.0
 40
1.0606486586836059
 50
91.1212632880518356
 51
96.653937016133753
  0
ARC
  5
1162C
  8
0
 10
53.2416094714109178
 20
-26.2121806626733509
 30
0.0
 40
1.314501729247965
 50
90.0797395254262341
 51
91.1933257440321086
  0
LINE
  5
1162D
  8
0
 10
52.8854437561530872
 20
-25.0071907233745208
 30
0.0
 11
52.8854437580530785
 21
-24.9515417770745209
 31
0.0
  0
ARC
  5
1162E
  8
0
 10
52.92067559604331
 20
-24.95154177827742
 30
0.0
 40
0.0352318379902226
 50
155.5795925211830877
 51
179.9999980437725924
  0
ARC
  5
1162F
  8
0
 10
52.9422921645418398
 20
-24.9613567737766395
 30
0.0
 40
0.0589723133498623
 50
129.3107775823951044
 51
155.5795925211824908
  0
ARC
  5
11630
  8
0
 10
53.0284190664479169
 20
-25.0665429109582405
 30
0.0
 40
0.1949207104979152
 50
107.6226642160710014
 51
129.3107775823951897
  0
ARC
  5
11631
  8
0
 10
53.2133442831184311
 20
-25.6487019660494617
 30
0.0
 40
0.8057451543320926
 50
97.7543114797322232
 51
107.6226642160710014
  0
ARC
  5
11632
  8
0
 10
53.2680361474648265
 20
-27.4023451357242216
 30
0.0
 40
2.5604533963810399
 50
90.6323050359902425
 51
91.8640050533248882
  0
ARC
  5
11633
  8
0
 10
53.2379029035947511
 20
-25.9456244010142711
 30
0.0
 40
1.128382975865327
 50
89.9046839291012958
 51
98.3213168716018231
  0
ARC
  5
11634
  8
0
 10
53.1739906791074972
 20
-25.5086601985221613
 30
0.0
 40
0.6867694721106609
 50
98.3213168716018231
 51
107.998257696712102
  0
ARC
  5
11635
  8
0
 10
53.0443055885094665
 20
-25.1094892285509417
 30
0.0
 40
0.2670604228977804
 50
107.998257696712102
 51
124.171319414635505
  0
ARC
  5
11636
  8
0
 10
52.9371668611436093
 20
-24.9516695032671798
 30
0.0
 40
0.0763098722033799
 50
124.1713194146354056
 51
151.4838171234563049
  0
ARC
  5
11637
  8
0
 10
52.9018567689742909
 20
-24.9324847722568492
 30
0.0
 40
0.0361245948876223
 50
151.4838171234555944
 51
185.3420000289542031
  0
ARC
  5
11638
  8
0
 10
52.9057041800022532
 20
-24.9321250139606896
 30
0.0
 40
0.0399887891955842
 50
185.342000028954601
 51
201.5364983597025912
  0
ARC
  5
11639
  8
0
 10
52.9274351646683883
 20
-24.9211784520097197
 30
0.0
 40
0.0642588598958308
 50
203.5029555035766862
 51
229.1480642412471127
  0
ARC
  5
1163A
  8
0
 10
53.2383447809117669
 20
-26.1771603095218985
 30
0.0
 40
1.384250006401011
 50
89.9405921682162273
 51
97.7286018530130463
  0
ARC
  5
1163B
  8
0
 10
53.1643089782398803
 20
-25.6316308315376986
 30
0.0
 40
0.8337196153897817
 50
97.7286018530130463
 51
109.9451044321668007
  0
ARC
  5
1163C
  8
0
 10
52.9562088532424085
 20
-25.0581714905296096
 30
0.0
 40
0.223669389741601
 50
109.9451044321668007
 51
131.2375333298265048
  0
ARC
  5
1163D
  8
0
 10
52.8534220245280935
 20
-24.9409141183533798
 30
0.0
 40
0.0677385605678153
 50
131.2375333298259932
 51
163.8399793948605918
  0
ARC
  5
1163E
  8
0
 10
52.8260516239385822
 20
-24.9329829880179901
 30
0.0
 40
0.0392422159456189
 50
163.8399793948615013
 51
199.4128327925762107
  0
ARC
  5
1163F
  8
0
 10
52.8568254710804979
 20
-24.9221380577740597
 30
0.0
 40
0.0718710709655307
 50
199.4128327925762107
 51
215.6608488497857081
  0
ARC
  5
11640
  8
0
 10
52.8607773953633497
 20
-24.9193024048562997
 30
0.0
 40
0.0767350850493293
 50
215.660848849786106
 51
228.6919222355296029
  0
ARC
  5
11641
  8
0
 10
52.9376180529805112
 20
-24.8318613853991295
 30
0.0
 40
0.1931413501158916
 50
228.6919222355296029
 51
238.5233695755549945
  0
ARC
  5
11642
  8
0
 10
52.9994818255097471
 20
-24.7197325480867391
 30
0.0
 40
0.3211251598975728
 50
239.5560317849974012
 51
249.4333486439986132
  0
ARC
  5
11643
  8
0
 10
52.9032201416672621
 20
-24.8505272482792314
 30
0.0
 40
0.1567780082595126
 50
216.5529700098614114
 51
232.7837380574599138
  0
ARC
  5
11644
  8
0
 10
52.8170869208818416
 20
-24.9143857945178908
 30
0.0
 40
0.0495546635505068
 50
193.8378884351101021
 51
216.5529700098618946
  0
ARC
  5
11645
  8
0
 10
52.8175701798923214
 20
-24.9142667558165911
 30
0.0
 40
0.0500523677634878
 50
159.3910796541219952
 51
193.8378884351099032
  0
ARC
  5
11646
  8
0
 10
52.8386577687461809
 20
-24.9221968065480191
 30
0.0
 40
0.0725817287902166
 50
123.9818660673507935
 51
159.3910796541221089
  0
ARC
  5
11647
  8
0
 10
53.2393644256039522
 20
-26.3421641219978717
 30
0.0
 40
1.5651636695091691
 50
89.984785016371319
 51
93.669046475494369
  0
ARC
  5
11648
  8
0
 10
53.2277062330548816
 20
-26.1557221236145097
 30
0.0
 40
1.3783575341316281
 50
93.5780387174110331
 51
99.7882048053225645
  0
ARC
  5
11649
  8
0
 10
53.1367254390940502
 20
-25.628352240175559
 30
0.0
 40
0.8431972788546191
 50
99.7882048053225645
 51
106.437314969624893
  0
ARC
  5
1164A
  8
0
 10
53.0457486844739989
 20
-25.3199813659968989
 30
0.0
 40
0.5216862122909544
 50
106.437314969624893
 51
115.4945911964713048
  0
ARC
  5
1164B
  8
0
 10
52.9093546977036979
 20
-25.0339559410796006
 30
0.0
 40
0.2048047465561708
 50
115.4945911964714043
 51
122.9067856221650032
  0
ARC
  5
1164C
  8
0
 10
53.2381372194698486
 20
-26.3363855230124599
 30
0.0
 40
1.5624274321314131
 50
89.9397554812387199
 51
94.606711148621045
  0
ARC
  5
1164D
  8
0
 10
53.21542142722123
 20
-26.0547238764718507
 30
0.0
 40
1.279851265703148
 50
94.6057906282019729
 51
103.159117037839593
  0
ARC
  5
1164E
  8
0
 10
53.0497888653357634
 20
-25.346272405766431
 30
0.0
 40
0.5522953352748236
 50
103.159117037839593
 51
114.8565054727181973
  0
ARC
  5
1164F
  8
0
 10
52.8995829829165771
 20
-25.02979775178121
 30
0.0
 40
0.2020255524869514
 50
113.9313116567315944
 51
135.2404287401940053
  0
ARC
  5
11650
  8
0
 10
52.7986876271049468
 20
-24.9311308714539983
 30
0.0
 40
0.0609163138146518
 50
134.3152349242070898
 51
178.0700002494629075
  0
ARC
  5
11651
  8
0
 10
52.7996553211754502
 20
-24.9264371693301214
 30
0.0
 40
0.0619058598566266
 50
182.4461186878255035
 51
223.7156074604424134
  0
ARC
  5
11652
  8
0
 10
52.8633838240594685
 20
-24.8717188410548893
 30
0.0
 40
0.1458513795335689
 50
221.9506286076168067
 51
236.9370597560879048
  0
ARC
  5
11653
  8
0
 10
52.9562501869682407
 20
-24.7281035147963699
 30
0.0
 40
0.3168759328273547
 50
237.0314631007273078
 51
248.5278888400193011
  0
ARC
  5
11654
  8
0
 10
53.0527473741980486
 20
-24.494027008513811
 30
0.0
 40
0.5700440543809212
 50
248.114123593086191
 51
253.8399354526711136
  0
ARC
  5
11655
  8
0
 10
53.0113718956510027
 20
-24.6297173431650691
 30
0.0
 40
0.4240968843945993
 50
240.3156953044058923
 51
253.5890106612361876
  0
ARC
  5
11656
  8
0
 10
52.8589908994534525
 20
-24.8904281509823697
 30
0.0
 40
0.1221815399159839
 50
209.2479507764707023
 51
241.8512924424379946
  0
ARC
  5
11657
  8
0
 10
52.7968034906058321
 20
-24.9291504042632788
 30
0.0
 40
0.0491207973800339
 50
164.1794927273724909
 51
205.2771281778431955
  0
ARC
  5
11658
  8
0
 10
52.8397886481849071
 20
-24.9509928987686393
 30
0.0
 40
0.0968795548699436
 50
135.5375353309678133
 51
158.6730729907145871
  0
ARC
  5
11659
  8
0
 10
52.8755438716704305
 20
-24.9922554029883202
 30
0.0
 40
0.151364491624114
 50
121.7151959890913986
 51
133.8698873066510941
  0
ARC
  5
1165A
  8
0
 10
53.8860324339079924
 20
-23.9410838392069785
 30
0.0
 40
1.5176235048538791
 50
200.2491701034792868
 51
215.2395044581535046
  0
ARC
  5
1165B
  8
0
 10
53.5244536114287968
 20
-24.1965231825156692
 30
0.0
 40
1.0749176171864361
 50
215.2395044581535046
 51
222.9606853566999973
  0
ARC
  5
1165C
  8
0
 10
53.3377973826647676
 20
-27.0327126912810591
 30
0.0
 40
2.194808591730506
 50
93.9985274685696339
 51
96.0984080834236067
  0
ARC
  5
1165D
  8
0
 10
53.2402899206475269
 20
-25.9057875782033484
 30
0.0
 40
0.9617105694291453
 50
87.8537099979877638
 51
90.0303761057922003
  0
ARC
  5
1165E
  8
0
 10
53.2452972330523409
 20
-25.8517361750042802
 30
0.0
 40
0.9075144472437681
 50
84.4450648430462962
 51
88.0418216568062917
  0
ARC
  5
1165F
  8
0
 10
53.2653787019317804
 20
-25.6910914263936085
 30
0.0
 40
0.7456934223594988
 50
77.8276656712576056
 51
84.7859660324203759
  0
ARC
  5
11660
  8
0
 10
53.3277460417093323
 20
-25.4054311104314117
 30
0.0
 40
0.4533056360671263
 50
70.3166935409286538
 51
77.9203013225840238
  0
ARC
  5
11661
  8
0
 10
53.4082025254625421
 20
-25.1851645878687584
 30
0.0
 40
0.2188157360114574
 50
57.618787826708342
 51
70.7264662720695725
  0
ARC
  5
11662
  8
0
 10
53.4870392108992903
 20
-25.0636252575538592
 30
0.0
 40
0.073969314695926
 50
30.3528559235185291
 51
58.7710555948027675
  0
ARC
  5
11663
  8
0
 10
53.5232825608797711
 20
-25.0413430385714584
 30
0.0
 40
0.0314473785149762
 50
343.850732963917892
 51
28.6885213056203483
  0
ARC
  5
11664
  8
0
 10
53.504556528159263
 20
-25.0333783604844697
 30
0.0
 40
0.0517074825056866
 50
308.3760312055943018
 51
341.1438920218055841
  0
ARC
  5
11665
  8
0
 10
53.408864322631679
 20
-24.9060193527472187
 30
0.0
 40
0.2109974616367204
 50
285.6611398663014256
 51
307.2765260333728747
  0
ARC
  5
11666
  8
0
 10
53.299308846673739
 20
-24.5699133320438712
 30
0.0
 40
0.5643927500662295
 50
278.9050752078154005
 51
287.1594329645714083
  0
ARC
  5
11667
  8
0
 10
53.2468315560534009
 20
-24.2482574211164312
 30
0.0
 40
0.8902972129565309
 50
272.1569666461256816
 51
279.0372028218188234
  0
ARC
  5
11668
  8
0
 10
53.239894250450547
 20
-24.1280458718922617
 30
0.0
 40
1.0106875580584671
 50
269.9935263987118219
 51
272.2934734971476018
  0
LINE
  5
11669
  8
0
 10
53.2774670171530929
 20
-24.9526233322745092
 30
0.0
 11
53.2577819777729999
 21
-24.9536149102832105
 31
0.0
  0
LINE
  5
1166A
  8
0
 10
53.2577819777729999
 20
-24.9536149102832105
 30
0.0
 11
53.2479394580789034
 21
-24.9670328118256002
 31
0.0
  0
LINE
  5
1166B
  8
0
 10
53.2479394580789034
 20
-24.9670328118256002
 30
0.0
 11
53.2577819777530834
 21
-24.9793616697037315
 31
0.0
  0
LINE
  5
1166C
  8
0
 10
53.2577819777530834
 20
-24.9793616697037315
 30
0.0
 11
53.2774670171530929
 21
-24.97839939997451
 31
0.0
  0
LINE
  5
1166D
  8
0
 10
53.2774670171530929
 20
-24.97839939997451
 30
0.0
 11
53.287309536753078
 21
-24.9650796208745192
 31
0.0
  0
LINE
  5
1166E
  8
0
 10
53.287309536753078
 20
-24.9650796208745192
 30
0.0
 11
53.2774670171530929
 21
-24.9526233322745092
 31
0.0
  0
LINE
  5
1166F
  8
0
 10
53.2774670171530929
 20
-24.9526233322745092
 30
0.0
 11
53.2774670171530929
 21
-24.97839939997451
 31
0.0
  0
LINE
  5
11670
  8
0
 10
53.2577819777530834
 20
-24.9793616697037315
 30
0.0
 11
53.2577819777729999
 21
-24.9536149102832105
 31
0.0
  0
LINE
  5
11671
  8
0
 10
53.3053058667530806
 20
-24.9713133064797397
 30
0.0
 11
53.2856208273530925
 21
-24.973255425704469
 31
0.0
  0
LINE
  5
11672
  8
0
 10
53.2856208273530925
 20
-24.973255425704469
 30
0.0
 11
53.2757783077115192
 21
-24.9861507352920817
 31
0.0
  0
LINE
  5
11673
  8
0
 10
53.2757783077115192
 20
-24.9861507352920817
 30
0.0
 11
53.2856208273530925
 21
-24.99704951630601
 31
0.0
  0
LINE
  5
11674
  8
0
 10
53.2856208273530925
 20
-24.99704951630601
 30
0.0
 11
53.3053058667857016
 21
-24.9951566518977906
 31
0.0
  0
LINE
  5
11675
  8
0
 10
53.3053058667857016
 20
-24.9951566518977906
 30
0.0
 11
53.3151483864554194
 21
-24.9823166806185206
 31
0.0
  0
LINE
  5
11676
  8
0
 10
53.3151483864554194
 20
-24.9823166806185206
 30
0.0
 11
53.3053058667530806
 21
-24.9713133064797397
 31
0.0
  0
LINE
  5
11677
  8
0
 10
53.3053058667530806
 20
-24.9713133064797397
 30
0.0
 11
53.3053058667857016
 21
-24.9951566518977906
 31
0.0
  0
LINE
  5
11678
  8
0
 10
53.2856208273530925
 20
-24.99704951630601
 30
0.0
 11
53.2856208273530925
 21
-24.973255425704469
 31
0.0
  0
LINE
  5
11679
  8
0
 10
53.3232460609278434
 20
-24.94757554094139
 30
0.0
 11
53.3134596770312186
 21
-24.9489803891378301
 31
0.0
  0
LINE
  5
1167A
  8
0
 10
53.3134596770312186
 20
-24.9489803891378301
 30
0.0
 11
53.3036171574036075
 21
-24.9634558226600802
 31
0.0
  0
LINE
  5
1167B
  8
0
 10
53.3036171574036075
 20
-24.9634558226600802
 30
0.0
 11
53.313459677053082
 21
-24.9748650938824603
 31
0.0
  0
LINE
  5
1167C
  8
0
 10
53.313459677053082
 20
-24.9748650938824603
 30
0.0
 11
53.3331447164777899
 21
-24.9719472757866185
 31
0.0
  0
LINE
  5
1167D
  8
0
 10
53.3331447164777899
 20
-24.9719472757866185
 30
0.0
 11
53.3429872360886321
 21
-24.9575313191938513
 31
0.0
  0
LINE
  5
1167E
  8
0
 10
53.3429872360886321
 20
-24.9575313191938513
 30
0.0
 11
53.3331447164530914
 21
-24.9484835571745194
 31
0.0
  0
LINE
  5
1167F
  8
0
 10
53.3331447164530914
 20
-24.9484835571745194
 30
0.0
 11
53.3331447164777899
 21
-24.9719472757866185
 31
0.0
  0
LINE
  5
11680
  8
0
 10
53.313459677053082
 20
-24.9748650938824603
 30
0.0
 11
53.3134596770312186
 21
-24.9489803891378301
 31
0.0
  0
LINE
  5
11681
  8
0
 10
53.3609835660530791
 20
-24.9619998506108587
 30
0.0
 11
53.3412985266530768
 21
-24.9659483717999997
 31
0.0
  0
LINE
  5
11682
  8
0
 10
53.3412985266530768
 20
-24.9659483717999997
 30
0.0
 11
53.3315776543018814
 21
-24.9797524595890899
 31
0.0
  0
LINE
  5
11683
  8
0
 10
53.3315776543018814
 20
-24.9797524595890899
 30
0.0
 11
53.3414201739434475
 21
-24.9899080822007384
 31
0.0
  0
LINE
  5
11684
  8
0
 10
53.3414201739434475
 20
-24.9899080822007384
 30
0.0
 11
53.3609835660804492
 21
-24.9860845079275009
 31
0.0
  0
LINE
  5
11685
  8
0
 10
53.3609835660804492
 20
-24.9860845079275009
 30
0.0
 11
53.3708260857319701
 21
-24.9721282616947207
 31
0.0
  0
LINE
  5
11686
  8
0
 10
53.3708260857319701
 20
-24.9721282616947207
 30
0.0
 11
53.3609835660530791
 21
-24.9619998506108587
 31
0.0
  0
LINE
  5
11687
  8
0
 10
53.3609835660530791
 20
-24.9619998506108587
 30
0.0
 11
53.3609835660804492
 21
-24.9860845079275009
 31
0.0
  0
LINE
  5
11688
  8
0
 10
53.3414201739434475
 20
-24.9899080822007384
 30
0.0
 11
53.3412985266530768
 21
-24.9659483717999997
 31
0.0
  0
LINE
  5
11689
  8
0
 10
53.3331447164530914
 20
-24.9871009511498485
 30
0.0
 11
53.313459676947403
 21
-24.9899711211221813
 31
0.0
  0
LINE
  5
1168A
  8
0
 10
53.313459676947403
 20
-24.9899711211221813
 30
0.0
 11
53.3036171573058368
 21
-25.0024046801473396
 31
0.0
  0
LINE
  5
1168B
  8
0
 10
53.3036171573058368
 20
-25.0024046801473396
 30
0.0
 11
53.313459676947403
 21
-25.0119488367347387
 31
0.0
  0
LINE
  5
1168C
  8
0
 10
53.313459676947403
 20
-25.0119488367347387
 30
0.0
 11
53.3327922048429883
 21
-25.0091970947975391
 31
0.0
  0
LINE
  5
1168D
  8
0
 10
53.3327922048429883
 20
-25.0091970947975391
 30
0.0
 11
53.3429872361060333
 21
-24.9967274783740514
 31
0.0
  0
LINE
  5
1168E
  8
0
 10
53.3429872361060333
 20
-24.9967274783740514
 30
0.0
 11
53.3331447164530914
 21
-24.9871009511498485
 31
0.0
  0
LINE
  5
1168F
  8
0
 10
53.3331447164530914
 20
-24.9871009511498485
 30
0.0
 11
53.3327922048429883
 21
-25.0091970947975391
 31
0.0
  0
LINE
  5
11690
  8
0
 10
53.313459676947403
 20
-25.0119488367347387
 30
0.0
 11
53.313459676947403
 21
-24.9899711211221813
 31
0.0
  0
LINE
  5
11691
  8
0
 10
53.3888224157530829
 20
-24.9751491787221696
 30
0.0
 11
53.3691373763530876
 21
-24.9800360164105797
 31
0.0
  0
LINE
  5
11692
  8
0
 10
53.3691373763530876
 20
-24.9800360164105797
 30
0.0
 11
53.3592948566903331
 21
-24.9935653685918311
 31
0.0
  0
LINE
  5
11693
  8
0
 10
53.3592948566903331
 20
-24.9935653685918311
 30
0.0
 11
53.3691373763530876
 21
-25.0022318526297305
 31
0.0
  0
LINE
  5
11694
  8
0
 10
53.3691373763530876
 20
-25.0022318526297305
 30
0.0
 11
53.3888224157154099
 21
-24.9974553481989794
 31
0.0
  0
LINE
  5
11695
  8
0
 10
53.3888224157154099
 20
-24.9974553481989794
 30
0.0
 11
53.3986649353597826
 21
-24.9839035946641204
 31
0.0
  0
LINE
  5
11696
  8
0
 10
53.3986649353597826
 20
-24.9839035946641204
 30
0.0
 11
53.3888224157530829
 21
-24.9751491787221696
 31
0.0
  0
LINE
  5
11697
  8
0
 10
53.3888224157530829
 20
-24.9751491787221696
 30
0.0
 11
53.3888224157154099
 21
-24.9974553481989794
 31
0.0
  0
LINE
  5
11698
  8
0
 10
53.3691373763530876
 20
-25.0022318526297305
 30
0.0
 11
53.3691373763530876
 21
-24.9800360164105797
 31
0.0
  0
LINE
  5
11699
  8
0
 10
53.3609835660296383
 20
-25.0001063399363908
 30
0.0
 11
53.3412985266530768
 21
-25.0038976453745185
 31
0.0
  0
LINE
  5
1169A
  8
0
 10
53.3412985266530768
 20
-25.0038976453745185
 30
0.0
 11
53.3314560069991188
 21
-25.015918320837411
 31
0.0
  0
LINE
  5
1169B
  8
0
 10
53.3314560069991188
 20
-25.015918320837411
 30
0.0
 11
53.3412985266618733
 21
-25.0245848048753103
 31
0.0
  0
LINE
  5
1169C
  8
0
 10
53.3412985266618733
 20
-25.0245848048753103
 30
0.0
 11
53.3609835660530791
 21
-25.0204363238715501
 31
0.0
  0
LINE
  5
1169D
  8
0
 10
53.3609835660530791
 20
-25.0204363238715501
 30
0.0
 11
53.3708260857328227
 21
-25.0084059848257709
 31
0.0
  0
LINE
  5
1169E
  8
0
 10
53.3708260857328227
 20
-25.0084059848257709
 30
0.0
 11
53.3609835660296383
 21
-25.0001063399363908
 31
0.0
  0
LINE
  5
1169F
  8
0
 10
53.3609835660296383
 20
-25.0001063399363908
 30
0.0
 11
53.3609835660530791
 21
-25.0204363238715501
 31
0.0
  0
LINE
  5
116A0
  8
0
 10
53.3412985266618733
 20
-25.0245848048753103
 30
0.0
 11
53.3412985266530768
 21
-25.0038976453745185
 31
0.0
  0
LINE
  5
116A1
  8
0
 10
53.3888224156862066
 20
-25.0103997748442914
 30
0.0
 11
53.3695363403838812
 21
-25.015030822928459
 31
0.0
  0
LINE
  5
116A2
  8
0
 10
53.3695363403838812
 20
-25.015030822928459
 30
0.0
 11
53.3592948566278267
 21
-25.0267672868444606
 31
0.0
  0
LINE
  5
116A3
  8
0
 10
53.3592948566278267
 20
-25.0267672868444606
 30
0.0
 11
53.3691707982647898
 21
-25.0337245774700499
 31
0.0
  0
LINE
  5
116A4
  8
0
 10
53.3691707982647898
 20
-25.0337245774700499
 30
0.0
 11
53.3888224157736389
 21
-25.0290839983278204
 31
0.0
  0
LINE
  5
116A5
  8
0
 10
53.3888224157736389
 20
-25.0290839983278204
 30
0.0
 11
53.3986649352972904
 21
-25.0171055129167499
 31
0.0
  0
LINE
  5
116A6
  8
0
 10
53.3986649352972904
 20
-25.0171055129167499
 30
0.0
 11
53.3888224156862066
 21
-25.0103997748442914
 31
0.0
  0
LINE
  5
116A7
  8
0
 10
53.3888224156862066
 20
-25.0103997748442914
 30
0.0
 11
53.3888224157736389
 21
-25.0290839983278204
 31
0.0
  0
LINE
  5
116A8
  8
0
 10
53.3691707982647898
 20
-25.0337245774700499
 30
0.0
 11
53.3695363403838812
 21
-25.015030822928459
 31
0.0
  0
LINE
  5
116A9
  8
0
 10
53.4166612653956534
 20
-25.0180076204573005
 30
0.0
 11
53.3975362923846575
 21
-25.0235255915092694
 31
0.0
  0
LINE
  5
116AA
  8
0
 10
53.3975362923846575
 20
-25.0235255915092694
 30
0.0
 11
53.3871337062897879
 21
-25.0349852395728689
 31
0.0
  0
LINE
  5
116AB
  8
0
 10
53.3871337062897879
 20
-25.0349852395728689
 30
0.0
 11
53.3969762259530825
 21
-25.0406843323745107
 31
0.0
  0
LINE
  5
116AC
  8
0
 10
53.3969762259530825
 20
-25.0406843323745107
 30
0.0
 11
53.4166612653212809
 21
-25.0350845463577087
 31
0.0
  0
LINE
  5
116AD
  8
0
 10
53.4166612653212809
 20
-25.0350845463577087
 30
0.0
 11
53.4265037850354716
 21
-25.0237163788452186
 31
0.0
  0
LINE
  5
116AE
  8
0
 10
53.4265037850354716
 20
-25.0237163788452186
 30
0.0
 11
53.4166612653956534
 21
-25.0180076204573005
 31
0.0
  0
LINE
  5
116AF
  8
0
 10
53.4166612653956534
 20
-25.0180076204573005
 30
0.0
 11
53.4166612653212809
 21
-25.0350845463577087
 31
0.0
  0
LINE
  5
116B0
  8
0
 10
53.3969762259530825
 20
-25.0406843323745107
 30
0.0
 11
53.3975362923846575
 21
-25.0235255915092694
 31
0.0
  0
LINE
  5
116B1
  8
0
 10
53.4166612653530777
 20
-24.9854972140930691
 30
0.0
 11
53.3970771680699272
 21
-24.9913078227948411
 31
0.0
  0
LINE
  5
116B2
  8
0
 10
53.3970771680699272
 20
-24.9913078227948411
 30
0.0
 11
53.3871337063038993
 21
-25.0044737170831084
 31
0.0
  0
LINE
  5
116B3
  8
0
 10
53.3871337063038993
 20
-25.0044737170831084
 30
0.0
 11
53.3969762260293379
 21
-25.0118303306491185
 31
0.0
  0
LINE
  5
116B4
  8
0
 10
53.3969762260293379
 20
-25.0118303306491185
 30
0.0
 11
53.4166612653530777
 21
-25.0061042751745184
 31
0.0
  0
LINE
  5
116B5
  8
0
 10
53.4166612653530777
 20
-25.0061042751745184
 30
0.0
 11
53.4265037850312225
 21
-24.9929101242252116
 31
0.0
  0
LINE
  5
116B6
  8
0
 10
53.4265037850312225
 20
-24.9929101242252116
 30
0.0
 11
53.4166612653530777
 21
-24.9854972140930691
 31
0.0
  0
LINE
  5
116B7
  8
0
 10
53.4166612653530777
 20
-24.9854972140930691
 30
0.0
 11
53.4166612653530777
 21
-25.0061042751745184
 31
0.0
  0
LINE
  5
116B8
  8
0
 10
53.3969762260293379
 20
-25.0118303306491185
 30
0.0
 11
53.3970771680699272
 21
-24.9913078227948411
 31
0.0
  0
LINE
  5
116B9
  8
0
 10
53.4444693163126701
 20
-24.9930842599216909
 30
0.0
 11
53.4248150756530933
 21
-24.9998919022658086
 31
0.0
  0
LINE
  5
116BA
  8
0
 10
53.4248150756530933
 20
-24.9998919022658086
 30
0.0
 11
53.4152473608030931
 21
-25.0123347781745196
 31
0.0
  0
LINE
  5
116BB
  8
0
 10
53.4152473608030931
 20
-25.0123347781745196
 30
0.0
 11
53.4248150756007192
 21
-25.0187406263271015
 31
0.0
  0
LINE
  5
116BC
  8
0
 10
53.4248150756007192
 20
-25.0187406263271015
 30
0.0
 11
53.4445001150530814
 21
-25.0120320234744291
 31
0.0
  0
LINE
  5
116BD
  8
0
 10
53.4445001150530814
 20
-25.0120320234744291
 30
0.0
 11
53.454342634715637
 21
-24.9991544767092684
 31
0.0
  0
LINE
  5
116BE
  8
0
 10
53.454342634715637
 20
-24.9991544767092684
 30
0.0
 11
53.4444693163126701
 21
-24.9930842599216909
 31
0.0
  0
LINE
  5
116BF
  8
0
 10
53.4444693163126701
 20
-24.9930842599216909
 30
0.0
 11
53.4445001150530814
 21
-25.0120320234744291
 31
0.0
  0
LINE
  5
116C0
  8
0
 10
53.4248150756007192
 20
-25.0187406263271015
 30
0.0
 11
53.4248150756530933
 21
-24.9998919022658086
 31
0.0
  0
LINE
  5
116C1
  8
0
 10
53.4723389646530833
 20
-24.9978594436745105
 30
0.0
 11
53.4526539252832578
 21
-25.0057034277732413
 31
0.0
  0
LINE
  5
116C2
  8
0
 10
53.4526539252832578
 20
-25.0057034277732413
 30
0.0
 11
53.4428114056478023
 21
-25.0181826340520495
 31
0.0
  0
LINE
  5
116C3
  8
0
 10
53.4428114056478023
 20
-25.0181826340520495
 30
0.0
 11
53.4526539253530828
 21
-25.0229362982756491
 31
0.0
  0
LINE
  5
116C4
  8
0
 10
53.4526539253530828
 20
-25.0229362982756491
 30
0.0
 11
53.4723389646845106
 21
-25.0151956445007606
 31
0.0
  0
LINE
  5
116C5
  8
0
 10
53.4723389646845106
 20
-25.0151956445007606
 30
0.0
 11
53.4821814843035526
 21
-25.0025976534431216
 31
0.0
  0
LINE
  5
116C6
  8
0
 10
53.4821814843035526
 20
-25.0025976534431216
 30
0.0
 11
53.4723389646530833
 21
-24.9978594436745105
 31
0.0
  0
LINE
  5
116C7
  8
0
 10
53.4723389646530833
 20
-24.9978594436745105
 30
0.0
 11
53.4723389646845106
 21
-25.0151956445007606
 31
0.0
  0
LINE
  5
116C8
  8
0
 10
53.4526539253530828
 20
-25.0229362982756491
 30
0.0
 11
53.4526539252832578
 21
-25.0057034277732413
 31
0.0
  0
LINE
  5
116C9
  8
0
 10
53.360983565999291
 20
-25.0321997226331909
 30
0.0
 11
53.3412985266530768
 21
-25.0358864410745099
 31
0.0
  0
LINE
  5
116CA
  8
0
 10
53.3412985266530768
 20
-25.0358864410745099
 30
0.0
 11
53.3314560070320809
 21
-25.0461503098204794
 31
0.0
  0
LINE
  5
116CB
  8
0
 10
53.3314560070320809
 20
-25.0461503098204794
 30
0.0
 11
53.3412985266948283
 21
-25.0527492166554495
 31
0.0
  0
LINE
  5
116CC
  8
0
 10
53.3412985266948283
 20
-25.0527492166554495
 30
0.0
 11
53.3609835660530791
 21
-25.0491055083745096
 31
0.0
  0
LINE
  5
116CD
  8
0
 10
53.3609835660530791
 20
-25.0491055083745096
 30
0.0
 11
53.3708260857152013
 21
-25.0388201355551701
 31
0.0
  0
LINE
  5
116CE
  8
0
 10
53.3708260857152013
 20
-25.0388201355551701
 30
0.0
 11
53.360983565999291
 21
-25.0321997226331909
 31
0.0
  0
LINE
  5
116CF
  8
0
 10
53.360983565999291
 20
-25.0321997226331909
 30
0.0
 11
53.3609835660530791
 21
-25.0491055083745096
 31
0.0
  0
LINE
  5
116D0
  8
0
 10
53.3412985266948283
 20
-25.0527492166554495
 30
0.0
 11
53.3412985266530768
 21
-25.0358864410745099
 31
0.0
  0
LINE
  5
116D1
  8
0
 10
53.3331447163919776
 20
-25.021948050478759
 30
0.0
 11
53.3134596769632125
 21
-25.0250821193963802
 31
0.0
  0
LINE
  5
116D2
  8
0
 10
53.3134596769632125
 20
-25.0250821193963802
 30
0.0
 11
53.3036171573422024
 21
-25.035345988142339
 31
0.0
  0
LINE
  5
116D3
  8
0
 10
53.3036171573422024
 20
-25.035345988142339
 30
0.0
 11
53.313459676994313
 21
-25.0431940669998383
 31
0.0
  0
LINE
  5
116D4
  8
0
 10
53.313459676994313
 20
-25.0431940669998383
 30
0.0
 11
53.3331447164530914
 21
-25.0404587812745092
 31
0.0
  0
LINE
  5
116D5
  8
0
 10
53.3331447164530914
 20
-25.0404587812745092
 30
0.0
 11
53.3429872360831681
 21
-25.0298351964796204
 31
0.0
  0
LINE
  5
116D6
  8
0
 10
53.3429872360831681
 20
-25.0298351964796204
 30
0.0
 11
53.3331447163919776
 21
-25.021948050478759
 31
0.0
  0
LINE
  5
116D7
  8
0
 10
53.3331447163919776
 20
-25.021948050478759
 30
0.0
 11
53.3331447164530914
 21
-25.0404587812745092
 31
0.0
  0
LINE
  5
116D8
  8
0
 10
53.313459676994313
 20
-25.0431940669998383
 30
0.0
 11
53.3134596769632125
 21
-25.0250821193963802
 31
0.0
  0
LINE
  5
116D9
  8
0
 10
53.3053058666238471
 20
-25.0090526466071914
 30
0.0
 11
53.2856208273530925
 21
-25.0109197931217011
 31
0.0
  0
LINE
  5
116DA
  8
0
 10
53.2856208273530925
 20
-25.0109197931217011
 30
0.0
 11
53.2757783076532192
 21
-25.0219312378976717
 31
0.0
  0
LINE
  5
116DB
  8
0
 10
53.2757783076532192
 20
-25.0219312378976717
 30
0.0
 11
53.2856208273530925
 21
-25.0310542263132199
 31
0.0
  0
LINE
  5
116DC
  8
0
 10
53.2856208273530925
 20
-25.0310542263132199
 30
0.0
 11
53.3053058667530806
 21
-25.0292202905736687
 31
0.0
  0
LINE
  5
116DD
  8
0
 10
53.3053058667530806
 20
-25.0292202905736687
 30
0.0
 11
53.3151483864172491
 21
-25.0182305861452896
 31
0.0
  0
LINE
  5
116DE
  8
0
 10
53.3151483864172491
 20
-25.0182305861452896
 30
0.0
 11
53.3053058666238471
 21
-25.0090526466071914
 31
0.0
  0
LINE
  5
116DF
  8
0
 10
53.3053058666238471
 20
-25.0090526466071914
 30
0.0
 11
53.3053058667530806
 21
-25.0292202905736687
 31
0.0
  0
LINE
  5
116E0
  8
0
 10
53.2856208273530925
 20
-25.0310542263132199
 30
0.0
 11
53.2856208273530925
 21
-25.0109197931217011
 31
0.0
  0
LINE
  5
116E1
  8
0
 10
53.2774670170289184
 20
-24.9934484180953085
 30
0.0
 11
53.2577819777530834
 21
-24.9943952982591604
 31
0.0
  0
LINE
  5
116E2
  8
0
 10
53.2577819777530834
 20
-24.9943952982591604
 30
0.0
 11
53.2479394580567202
 21
-25.0058349783413902
 31
0.0
  0
LINE
  5
116E3
  8
0
 10
53.2479394580567202
 20
-25.0058349783413902
 30
0.0
 11
53.2577819777530834
 21
-25.0162784599670616
 31
0.0
  0
LINE
  5
116E4
  8
0
 10
53.2577819777530834
 20
-25.0162784599670616
 30
0.0
 11
53.2774670171530929
 21
-25.0153516862440384
 31
0.0
  0
LINE
  5
116E5
  8
0
 10
53.2774670171530929
 20
-25.0153516862440384
 30
0.0
 11
53.2873095367614198
 21
-25.0039616458577996
 31
0.0
  0
LINE
  5
116E6
  8
0
 10
53.2873095367614198
 20
-25.0039616458577996
 30
0.0
 11
53.2774670170289184
 21
-24.9934484180953085
 31
0.0
  0
LINE
  5
116E7
  8
0
 10
53.2774670170289184
 20
-24.9934484180953085
 30
0.0
 11
53.2774670171530929
 21
-25.0153516862440384
 31
0.0
  0
LINE
  5
116E8
  8
0
 10
53.2577819777530834
 20
-25.0162784599670616
 30
0.0
 11
53.2577819777530834
 21
-24.9943952982591604
 31
0.0
  0
LINE
  5
116E9
  8
0
 10
53.2774670171530929
 20
-25.0280883579464195
 30
0.0
 11
53.2577997560985068
 21
-25.0290042099856187
 31
0.0
  0
LINE
  5
116EA
  8
0
 10
53.2577997560985068
 20
-25.0290042099856187
 30
0.0
 11
53.2479394581097267
 21
-25.0386773907393803
 31
0.0
  0
LINE
  5
116EB
  8
0
 10
53.2479394581097267
 20
-25.0386773907393803
 30
0.0
 11
53.2577819776346288
 21
-25.0474130253117302
 31
0.0
  0
LINE
  5
116EC
  8
0
 10
53.2577819776346288
 20
-25.0474130253117302
 30
0.0
 11
53.2774670170852573
 21
-25.046509794777581
 31
0.0
  0
LINE
  5
116ED
  8
0
 10
53.2774670170852573
 20
-25.046509794777581
 30
0.0
 11
53.2873095368147176
 21
-25.0368579140769612
 31
0.0
  0
LINE
  5
116EE
  8
0
 10
53.2873095368147176
 20
-25.0368579140769612
 30
0.0
 11
53.2774670171530929
 21
-25.0280883579464195
 31
0.0
  0
LINE
  5
116EF
  8
0
 10
53.2774670171530929
 20
-25.0280883579464195
 30
0.0
 11
53.2774670170852573
 21
-25.046509794777581
 31
0.0
  0
LINE
  5
116F0
  8
0
 10
53.2577819776346288
 20
-25.0474130253117302
 30
0.0
 11
53.2577997560985068
 21
-25.0290042099856187
 31
0.0
  0
LINE
  5
116F1
  8
0
 10
53.305305866700742
 20
-25.0409015400503208
 30
0.0
 11
53.2856208273480902
 21
-25.0427186561251496
 31
0.0
  0
LINE
  5
116F2
  8
0
 10
53.2856208273480902
 20
-25.0427186561251496
 30
0.0
 11
53.2757783077247069
 21
-25.0520209624415493
 31
0.0
  0
LINE
  5
116F3
  8
0
 10
53.2757783077247069
 20
-25.0520209624415493
 30
0.0
 11
53.2856868088674602
 21
-25.0594982803031492
 31
0.0
  0
LINE
  5
116F4
  8
0
 10
53.2856868088674602
 20
-25.0594982803031492
 30
0.0
 11
53.3053058667530806
 21
-25.0577067264844011
 31
0.0
  0
LINE
  5
116F5
  8
0
 10
53.3053058667530806
 20
-25.0577067264844011
 30
0.0
 11
53.315148386384152
 21
-25.0484075016731289
 31
0.0
  0
LINE
  5
116F6
  8
0
 10
53.315148386384152
 20
-25.0484075016731289
 30
0.0
 11
53.305305866700742
 21
-25.0409015400503208
 31
0.0
  0
LINE
  5
116F7
  8
0
 10
53.305305866700742
 20
-25.0409015400503208
 30
0.0
 11
53.3053058667530806
 21
-25.0577067264844011
 31
0.0
  0
LINE
  5
116F8
  8
0
 10
53.2856868088674602
 20
-25.0594982803031492
 30
0.0
 11
53.2856208273480902
 21
-25.0427186561251496
 31
0.0
  0
LINE
  5
116F9
  8
0
 10
53.3108806446530821
 20
-24.9465982413745202
 30
0.0
 11
53.3053058667542388
 21
-24.9549517570064694
 31
0.0
  0
LINE
  5
116FA
  8
0
 10
53.3053058667542388
 20
-24.9549517570064694
 30
0.0
 11
53.2856208273484881
 21
-24.9569313921846287
 31
0.0
  0
LINE
  5
116FB
  8
0
 10
53.2856208273484881
 20
-24.9569313921846287
 30
0.0
 11
53.2761756518277423
 21
-24.9447472030701682
 31
0.0
  0
LINE
  5
116FC
  8
0
 10
53.2856235418569497
 20
-24.9451181403422915
 30
0.0
 11
53.2856208273957321
 21
-24.9569313921807314
 31
0.0
  0
LINE
  5
116FD
  8
0
 10
53.3053058667474318
 20
-24.9549517570165094
 30
0.0
 11
53.3053058667474318
 21
-24.9462076064680183
 31
0.0
  0
LINE
  5
116FE
  8
0
 10
53.3911991560285628
 20
-24.9560894580417489
 30
0.0
 11
53.3888224157530829
 21
-24.9597911128351804
 31
0.0
  0
LINE
  5
116FF
  8
0
 10
53.3888224157530829
 20
-24.9597911128351804
 30
0.0
 11
53.3691373763530876
 21
-24.9647627105158385
 31
0.0
  0
LINE
  5
11700
  8
0
 10
53.3691373763530876
 20
-24.9647627105158385
 30
0.0
 11
53.3592948566370069
 21
-24.9542289570087199
 31
0.0
  0
LINE
  5
11701
  8
0
 10
53.3592948566370069
 20
-24.9542289570087199
 30
0.0
 11
53.3610184555000373
 21
-24.9515566282349113
 31
0.0
  0
LINE
  5
11702
  8
0
 10
53.3691373763530876
 20
-24.9647627105158492
 30
0.0
 11
53.3691373763530876
 21
-24.9526519788878893
 31
0.0
  0
LINE
  5
11703
  8
0
 10
53.3888224157669811
 20
-24.9597911128760295
 30
0.0
 11
53.3888224157669811
 21
-24.9556865517396602
 31
0.0
  0
LINE
  5
11704
  8
0
 10
53.4226102626530803
 20
-24.9621628177745194
 30
0.0
 11
53.4166612653499371
 21
-24.9712601219657984
 31
0.0
  0
LINE
  5
11705
  8
0
 10
53.4166612653499371
 20
-24.9712601219657984
 30
0.0
 11
53.3969762259499419
 21
-24.977186291053421
 31
0.0
  0
LINE
  5
11706
  8
0
 10
53.3969762259499419
 20
-24.977186291053421
 30
0.0
 11
53.3871337063400873
 21
-24.9680463041375198
 31
0.0
  0
LINE
  5
11707
  8
0
 10
53.3871337063400873
 20
-24.9680463041375198
 30
0.0
 11
53.3946606467585028
 21
-24.9566904059068086
 31
0.0
  0
LINE
  5
11708
  8
0
 10
53.396976225949949
 20
-24.977186291053421
 30
0.0
 11
53.396976225949949
 21
-24.9571017998848212
 31
0.0
  0
LINE
  5
11709
  8
0
 10
53.4166612653638424
 20
-24.971260122006651
 30
0.0
 11
53.4166612653638424
 21
-24.9609049665412996
 31
0.0
  0
LINE
  5
1170A
  8
0
 10
53.4516460451286193
 20
-24.9693866300823011
 30
0.0
 11
53.4445001150391832
 21
-24.9799106795636803
 31
0.0
  0
LINE
  5
1170B
  8
0
 10
53.4445001150391832
 20
-24.9799106795636803
 30
0.0
 11
53.4248150756801792
 21
-24.986817139172981
 31
0.0
  0
LINE
  5
1170C
  8
0
 10
53.4248150756801792
 20
-24.986817139172981
 30
0.0
 11
53.4149725559412332
 21
-24.9790321496916192
 31
0.0
  0
LINE
  5
1170D
  8
0
 10
53.4149725559412332
 20
-24.9790321496916192
 30
0.0
 11
53.4248150755707414
 21
-24.9642574764866687
 31
0.0
  0
LINE
  5
1170E
  8
0
 10
53.4248150756801792
 20
-24.9868171391729916
 30
0.0
 11
53.4248150756801792
 21
-24.9642574764411798
 31
0.0
  0
LINE
  5
1170F
  8
0
 10
53.4248150756801792
 20
-24.9626429593635102
 30
0.0
 11
53.4248150756801792
 21
-24.9626404123197787
 31
0.0
  0
LINE
  5
11710
  8
0
 10
53.4445001150530814
 20
-24.9799106796045294
 30
0.0
 11
53.4445001152891166
 21
-24.9674191402836207
 31
0.0
  0
LINE
  5
11711
  8
0
 10
53.4248150756801792
 20
-24.9642574763223983
 30
0.0
 11
53.4276801893772486
 21
-24.9632782343578583
 31
0.0
  0
LINE
  5
11712
  8
0
 10
53.4778735439315795
 20
-24.977707212610941
 30
0.0
 11
53.4723389646391922
 21
-24.9857436013336702
 31
0.0
  0
LINE
  5
11713
  8
0
 10
53.4723389646391922
 20
-24.9857436013336702
 30
0.0
 11
53.4526539253584971
 21
-24.9936723435867094
 31
0.0
  0
LINE
  5
11714
  8
0
 10
53.4526539253584971
 20
-24.9936723435867094
 30
0.0
 11
53.4428114056750303
 21
-24.9872267479997703
 31
0.0
  0
LINE
  5
11715
  8
0
 10
53.4428114056750303
 20
-24.9872267479997703
 30
0.0
 11
53.4526539253666826
 21
-24.9728117866186601
 31
0.0
  0
LINE
  5
11716
  8
0
 10
53.4526539253584971
 20
-24.9936723435867201
 30
0.0
 11
53.4526539254761204
 21
-24.9728117865731711
 31
0.0
  0
LINE
  5
11717
  8
0
 10
53.4723389646530833
 20
-24.9857436013745193
 30
0.0
 11
53.472338964925477
 21
-24.9758046607730684
 31
0.0
  0
LINE
  5
11718
  8
0
 10
53.4526539254761204
 20
-24.972811786454379
 30
0.0
 11
53.4572137489288934
 21
-24.9710072247189316
 31
0.0
  0
LINE
  5
11719
  8
0
 10
53.5014502244360983
 20
-24.9872120860851901
 30
0.0
 11
53.5001778143375617
 21
-24.988711161150011
 31
0.0
  0
LINE
  5
1171A
  8
0
 10
53.5001778143375617
 20
-24.988711161150011
 30
0.0
 11
53.4804927749530776
 21
-24.9977227763745091
 31
0.0
  0
LINE
  5
1171B
  8
0
 10
53.4804927749530776
 20
-24.9977227763745091
 30
0.0
 11
53.4706502552719627
 21
-24.9926232605904417
 31
0.0
  0
LINE
  5
1171C
  8
0
 10
53.4706502552719627
 20
-24.9926232605904417
 30
0.0
 11
53.4804288719781269
 21
-24.9786127029569016
 31
0.0
  0
LINE
  5
1171D
  8
0
 10
53.4804927749530918
 20
-24.9977227763745091
 30
0.0
 11
53.4804288720875718
 21
-24.9786127029114091
 31
0.0
  0
LINE
  5
1171E
  8
0
 10
53.500177814351467
 20
-24.9887111611908495
 30
0.0
 11
53.5001778143939006
 21
-24.9866176852179613
 31
0.0
  0
LINE
  5
1171F
  8
0
 10
53.5336045067887696
 20
-25.006152370595661
 30
0.0
 11
53.5280166639530819
 21
-25.0128147226299795
 31
0.0
  0
LINE
  5
11720
  8
0
 10
53.5280166639530819
 20
-25.0128147226299795
 30
0.0
 11
53.5083316245093812
 21
-25.0228517917334194
 31
0.0
  0
LINE
  5
11721
  8
0
 10
53.5083316245093812
 20
-25.0228517917334194
 30
0.0
 11
53.4984891049711209
 21
-25.0208203134340188
 31
0.0
  0
LINE
  5
11722
  8
0
 10
53.4984891049711209
 20
-25.0208203134340188
 30
0.0
 11
53.5083316245901273
 21
-25.0088617793939392
 31
0.0
  0
LINE
  5
11723
  8
0
 10
53.5083316245901273
 20
-25.0088617793939392
 30
0.0
 11
53.5252085224057197
 21
-25.0002594148595385
 31
0.0
  0
LINE
  5
11724
  8
0
 10
53.5280800062027566
 20
-25.0020857366145286
 30
0.0
 11
53.5280166639530819
 21
-25.012814722774511
 31
0.0
  0
LINE
  5
11725
  8
0
 10
53.5083316250382879
 20
-25.008861779165489
 30
0.0
 11
53.5083316250383021
 21
-25.0228517914758903
 31
0.0
  0
LINE
  5
11726
  8
0
 10
53.4543426346596817
 20
-25.0273187854895589
 30
0.0
 11
53.4445001150617003
 21
-25.0229144055453006
 31
0.0
  0
LINE
  5
11727
  8
0
 10
53.4445001150617003
 20
-25.0229144055453006
 30
0.0
 11
53.4248150756914697
 21
-25.0295691463450609
 31
0.0
  0
LINE
  5
11728
  8
0
 10
53.4248150756914697
 20
-25.0295691463450609
 30
0.0
 11
53.4149725559057202
 21
-25.0405664542649191
 31
0.0
  0
LINE
  5
11729
  8
0
 10
53.4149725559057202
 20
-25.0405664542649191
 30
0.0
 11
53.4543426346596675
 21
-25.0273187854895589
 31
0.0
  0
LINE
  5
1172A
  8
0
 10
53.3986649354279308
 20
-25.0451910175842798
 30
0.0
 11
53.3888224156809272
 21
-25.0398321097548191
 31
0.0
  0
LINE
  5
1172B
  8
0
 10
53.3888224156809272
 20
-25.0398321097548191
 30
0.0
 11
53.369137376305261
 21
-25.0444448589439013
 31
0.0
  0
LINE
  5
1172C
  8
0
 10
53.369137376305261
 20
-25.0444448589439013
 30
0.0
 11
53.359779475053088
 21
-25.0544961178289114
 31
0.0
  0
LINE
  5
1172D
  8
0
 10
53.359779475053088
 20
-25.0544961178289114
 30
0.0
 11
53.3986649354279308
 21
-25.0451910175842798
 31
0.0
  0
LINE
  5
1172E
  8
0
 10
53.3429872360530766
 20
-25.0573854770745186
 30
0.0
 11
53.3331231278027289
 21
-25.0511253046488314
 31
0.0
  0
LINE
  5
1172F
  8
0
 10
53.3331231278027289
 20
-25.0511253046488314
 30
0.0
 11
53.3134596770602016
 21
-25.0538373548080706
 31
0.0
  0
LINE
  5
11730
  8
0
 10
53.3134596770602016
 20
-25.0538373548080706
 30
0.0
 11
53.3036171573767277
 21
-25.0627931285234098
 31
0.0
  0
LINE
  5
11731
  8
0
 10
53.3036171573767277
 20
-25.0627931285234098
 30
0.0
 11
53.3429872360530695
 21
-25.0573854770745115
 31
0.0
  0
LINE
  5
11732
  8
0
 10
53.2873095367530922
 20
-25.0642771124745209
 30
0.0
 11
53.2774670171527802
 21
-25.057129224508131
 31
0.0
  0
LINE
  5
11733
  8
0
 10
53.2774670171527802
 20
-25.057129224508131
 30
0.0
 11
53.2577819776943002
 21
-25.0580260052743107
 31
0.0
  0
LINE
  5
11734
  8
0
 10
53.2577819776943002
 20
-25.0580260052743107
 30
0.0
 11
53.2479394580074725
 21
-25.0660631628848698
 31
0.0
  0
LINE
  5
11735
  8
0
 10
53.2479394580074725
 20
-25.0660631628848698
 30
0.0
 11
53.287309536753078
 21
-25.0642771124745209
 31
0.0
  0
LINE
  5
11736
  8
0
 10
53.5100203340347633
 20
-25.0031517217447892
 30
0.0
 11
53.50017781435308
 21
-24.9997920963745202
 31
0.0
  0
LINE
  5
11737
  8
0
 10
53.50017781435308
 20
-24.9997920963745202
 30
0.0
 11
53.4804927749536034
 21
-25.0087248173252092
 31
0.0
  0
LINE
  5
11738
  8
0
 10
53.4804927749536034
 20
-25.0087248173252092
 30
0.0
 11
53.4706502552530765
 21
-25.0209277088745097
 31
0.0
  0
LINE
  5
11739
  8
0
 10
53.4706502552530765
 20
-25.0209277088745097
 30
0.0
 11
53.4835624285530926
 21
-25.0158567181745184
 31
0.0
  0
LINE
  5
1173A
  8
0
 10
53.4835624285530926
 20
-25.0158567181745184
 30
0.0
 11
53.4884712535530866
 21
-25.0208653795745199
 31
0.0
  0
LINE
  5
1173B
  8
0
 10
53.4884712535530866
 20
-25.0208653795745199
 30
0.0
 11
53.5001778143892892
 21
-25.0155049624470109
 31
0.0
  0
LINE
  5
1173C
  8
0
 10
53.5001778143892892
 20
-25.0155049624470109
 30
0.0
 11
53.5100203340347633
 21
-25.0031517217447892
 31
0.0
  0
LINE
  5
1173D
  8
0
 10
53.5001778157078434
 20
-24.9997920968369414
 30
0.0
 11
53.5001778157078434
 21
-25.0155049617478191
 31
0.0
  0
LINE
  5
1173E
  8
0
 10
53.287309536753078
 20
-25.1158932041745118
 30
0.0
 11
53.2868249184099767
 21
-25.1157850459745084
 31
0.0
  0
ARC
  5
1173F
  8
0
 10
53.2397848687531265
 20
-24.5028416359755887
 30
0.0
 40
0.6147457930989239
 50
270.8052213318756003
 51
274.3885350116030963
  0
LINE
  5
11740
  8
0
 10
53.2484240763696803
 20
-25.1175267213848485
 30
0.0
 11
53.2479394580530823
 21
-25.1176792545745187
 31
0.0
  0
LINE
  5
11741
  8
0
 10
53.2479394580530823
 20
-25.1176792545745187
 30
0.0
 11
53.2577819776943002
 21
-25.1201781875743109
 31
0.0
  0
LINE
  5
11742
  8
0
 10
53.2577819776943002
 20
-25.1201781875743109
 30
0.0
 11
53.2774670171530929
 21
-25.1192814067745189
 31
0.0
  0
LINE
  5
11743
  8
0
 10
53.2774670171530929
 20
-25.1192814067745189
 30
0.0
 11
53.2873095368056013
 21
-25.1158932042527603
 31
0.0
  0
LINE
  5
11744
  8
0
 10
53.2774670171179423
 20
-25.1192814068730499
 30
0.0
 11
53.2774670171179423
 21
-25.11643143855337
 31
0.0
  0
LINE
  5
11745
  8
0
 10
53.2577819777530834
 20
-25.1201781875716286
 30
0.0
 11
53.2577819777530834
 21
-25.1173239336868193
 31
0.0
  0
LINE
  5
11746
  8
0
 10
53.3429872360685593
 20
-25.1090015687406201
 30
0.0
 11
53.3425026175787309
 21
-25.1089398956523304
 31
0.0
  0
ARC
  5
11747
  8
0
 10
53.2377968891326034
 20
-24.4889125875751112
 30
0.0
 40
0.6288061325487529
 50
276.0528443552739191
 51
279.5852621718713067
  0
LINE
  5
11748
  8
0
 10
53.3041017757530824
 20
-25.114213166774519
 30
0.0
 11
53.3036171573562712
 21
-25.114409220273231
 31
0.0
  0
LINE
  5
11749
  8
0
 10
53.3036171573562712
 20
-25.114409220273231
 30
0.0
 11
53.313459677053082
 21
-25.1159895372386401
 31
0.0
  0
LINE
  5
1174A
  8
0
 10
53.313459677053082
 20
-25.1159895372386401
 30
0.0
 11
53.3331447164649504
 21
-25.1132741501517884
 31
0.0
  0
LINE
  5
1174B
  8
0
 10
53.3331447164298211
 20
-25.1132741502503301
 30
0.0
 11
53.3429872361210826
 21
-25.1090015688188615
 31
0.0
  0
LINE
  5
1174C
  8
0
 10
53.3331447164298211
 20
-25.1132741502503301
 30
0.0
 11
53.3331447164530914
 21
-25.1104510851745211
 31
0.0
  0
LINE
  5
1174D
  8
0
 10
53.3134596771118581
 20
-25.1159895372359685
 30
0.0
 11
53.3134596771118581
 21
-25.1131352833511592
 31
0.0
  0
LINE
  5
1174E
  8
0
 10
53.5378591836766233
 20
-25.0207775649978785
 30
0.0
 11
53.52801666399656
 21
-25.0205944727675984
 31
0.0
  0
LINE
  5
1174F
  8
0
 10
53.52801666399656
 20
-25.0205944727675984
 30
0.0
 11
53.5083316246530813
 21
-25.0306092484124783
 31
0.0
  0
LINE
  5
11750
  8
0
 10
53.5083316246530813
 20
-25.0306092484124783
 30
0.0
 11
53.4984891049276285
 21
-25.0408101934208389
 31
0.0
  0
LINE
  5
11751
  8
0
 10
53.4984891049276285
 20
-25.0408101934208389
 30
0.0
 11
53.5083316246530813
 21
-25.0411453390745109
 31
0.0
  0
LINE
  5
11752
  8
0
 10
53.5083316246530813
 20
-25.0411453390745109
 30
0.0
 11
53.5280166639530819
 21
-25.0311305634760188
 31
0.0
  0
LINE
  5
11753
  8
0
 10
53.5280166639530819
 20
-25.0311305634760188
 30
0.0
 11
53.5378591836766233
 21
-25.0207775649978785
 31
0.0
  0
LINE
  5
11754
  8
0
 10
53.52801666399656
 20
-25.0205944727675984
 30
0.0
 11
53.52801666399656
 21
-25.0311305633676007
 31
0.0
  0
LINE
  5
11755
  8
0
 10
53.5083316233425492
 20
-25.0306092471480106
 30
0.0
 11
53.5083316233425492
 21
-25.0411453396491801
 31
0.0
  0
ARC
  5
11756
  8
0
 10
53.5131178468831195
 20
-24.9144677071075691
 30
0.0
 40
0.123126386987943
 50
276.9500647156513082
 51
281.5920853733169906
  0
LINE
  5
11757
  8
0
 10
53.5280166640295931
 20
-25.0366893599369291
 30
0.0
 11
53.5083316246284184
 21
-25.0467264290384684
 31
0.0
  0
ARC
  5
11758
  8
0
 10
53.3022231151534811
 20
-24.8181416108749815
 30
0.0
 40
0.3077852120993902
 50
309.6184393795846859
 51
312.0400930286393191
  0
LINE
  5
11759
  8
0
 10
53.4984891049880105
 20
-25.0552310413043813
 30
0.0
 11
53.5083316246424516
 21
-25.0538085978232594
 31
0.0
  0
LINE
  5
1175A
  8
0
 10
53.5083316246424516
 20
-25.0538085978232594
 30
0.0
 11
53.5280166640167892
 21
-25.0437000999151813
 31
0.0
  0
LINE
  5
1175B
  8
0
 10
53.5280166640167892
 20
-25.0437000999151813
 30
0.0
 11
53.5378591836486493
 21
-25.0350826872209709
 31
0.0
  0
LINE
  5
1175C
  8
0
 10
53.528016664139443
 20
-25.0366893598809206
 30
0.0
 11
53.528016664139443
 21
-25.043700099885509
 31
0.0
  0
LINE
  5
1175D
  8
0
 10
53.5083316246284184
 20
-25.0467264290384684
 30
0.0
 11
53.5083316246284184
 21
-25.053808597830141
 31
0.0
  0
LINE
  5
1175E
  8
0
 10
53.2479394580816319
 20
-25.124704210252311
 30
0.0
 11
53.2577819776933765
 21
-25.1229037543534588
 31
0.0
  0
LINE
  5
1175F
  8
0
 10
53.2577819776933765
 20
-25.1229037543534588
 30
0.0
 11
53.27746701706441
 21
-25.1220005236753217
 31
0.0
  0
LINE
  5
11760
  8
0
 10
53.27746701706441
 20
-25.1220005236753217
 30
0.0
 11
53.2873095365570677
 21
-25.1228847336513788
 31
0.0
  0
LINE
  5
11761
  8
0
 10
53.2873095365570677
 20
-25.1228847336513788
 30
0.0
 11
53.2774670171103466
 21
-25.1246512680223404
 31
0.0
  0
LINE
  5
11762
  8
0
 10
53.2774670171103466
 20
-25.1246512680223404
 30
0.0
 11
53.2577819777530834
 21
-25.1255676549091085
 31
0.0
  0
LINE
  5
11763
  8
0
 10
53.2577819777530834
 20
-25.1255676549091085
 30
0.0
 11
53.2479394580816319
 21
-25.124704210252311
 31
0.0
  0
LINE
  5
11764
  8
0
 10
53.2757783076512794
 20
-25.1208424180751386
 30
0.0
 11
53.2856208273530925
 21
-25.1177885979830506
 31
0.0
  0
LINE
  5
11765
  8
0
 10
53.2856208273530925
 20
-25.1177885979830506
 30
0.0
 11
53.3053058667225486
 21
-25.1159920915143005
 31
0.0
  0
LINE
  5
11766
  8
0
 10
53.3053058667225486
 20
-25.1159920915143005
 30
0.0
 11
53.3151483863216171
 21
-25.1172289572770495
 31
0.0
  0
LINE
  5
11767
  8
0
 10
53.3151483863216171
 20
-25.1172289572770495
 30
0.0
 11
53.3053058667811968
 21
-25.1202590862569792
 31
0.0
  0
LINE
  5
11768
  8
0
 10
53.3053058667811968
 20
-25.1202590862569792
 30
0.0
 11
53.285620827367417
 21
-25.1220762024256707
 31
0.0
  0
LINE
  5
11769
  8
0
 10
53.285620827367417
 20
-25.1220762024256707
 30
0.0
 11
53.2757783076371609
 21
-25.1208424180728898
 31
0.0
  0
LINE
  5
1176A
  8
0
 10
53.2757783077234208
 20
-25.1251634212597708
 30
0.0
 11
53.2856208274154781
 21
-25.124688067086371
 31
0.0
  0
LINE
  5
1176B
  8
0
 10
53.2856208274154781
 20
-25.124688067086371
 30
0.0
 11
53.3053058667856803
 21
-25.1228209205890991
 31
0.0
  0
LINE
  5
1176C
  8
0
 10
53.3053058667856803
 20
-25.1228209205890991
 30
0.0
 11
53.3151483864218108
 21
-25.12146276951216
 31
0.0
  0
LINE
  5
1176D
  8
0
 10
53.3151483864218108
 20
-25.12146276951216
 30
0.0
 11
53.3053058667811825
 21
-25.1219163834061803
 31
0.0
  0
LINE
  5
1176E
  8
0
 10
53.3053058667811825
 20
-25.1219163834061803
 30
0.0
 11
53.2856208273530925
 21
-25.1237503191132205
 31
0.0
  0
LINE
  5
1176F
  8
0
 10
53.2856208273530925
 20
-25.1237503191132205
 30
0.0
 11
53.2757783076623923
 21
-25.1251634213143902
 31
0.0
  0
LINE
  5
11770
  8
0
 10
53.3036171573603497
 20
-25.1213728077181813
 30
0.0
 11
53.313459677053082
 21
-25.1186847958755095
 31
0.0
  0
LINE
  5
11771
  8
0
 10
53.313459677053082
 20
-25.1186847958755095
 30
0.0
 11
53.3331447164530914
 21
-25.1159495102745183
 31
0.0
  0
LINE
  5
11772
  8
0
 10
53.3331447164530914
 20
-25.1159495102745183
 30
0.0
 11
53.3429872359680886
 21
-25.1158620160451989
 31
0.0
  0
LINE
  5
11773
  8
0
 10
53.3429872359680886
 20
-25.1158620160451989
 30
0.0
 11
53.3331447164530914
 21
-25.1185109605456489
 31
0.0
  0
LINE
  5
11774
  8
0
 10
53.3331447164530914
 20
-25.1185109605456489
 30
0.0
 11
53.3134596770686571
 21
-25.121286861639561
 31
0.0
  0
LINE
  5
11775
  8
0
 10
53.3134596770686571
 20
-25.121286861639561
 30
0.0
 11
53.3036171587574898
 21
-25.1213728073366198
 31
0.0
  0
LINE
  5
11776
  8
0
 10
53.5100203339770673
 20
-25.0547678135117806
 30
0.0
 11
53.500177814288719
 21
-25.0565849635598497
 31
0.0
  0
LINE
  5
11777
  8
0
 10
53.500177814288719
 20
-25.0565849635598497
 30
0.0
 11
53.4884712535530866
 21
-25.0619453806745192
 31
0.0
  0
LINE
  5
11778
  8
0
 10
53.4884712535530866
 20
-25.0619453806745192
 30
0.0
 11
53.4835624285530926
 21
-25.0669540420745207
 31
0.0
  0
LINE
  5
11779
  8
0
 10
53.4835624285530926
 20
-25.0669540420745207
 30
0.0
 11
53.4804927749530918
 21
-25.0682828801646203
 31
0.0
  0
LINE
  5
1177A
  8
0
 10
53.4804927749530918
 20
-25.0682828801646203
 30
0.0
 11
53.4706502552307512
 21
-25.0725438005435208
 31
0.0
  0
LINE
  5
1177B
  8
0
 10
53.4706502552307512
 20
-25.0725438005435208
 30
0.0
 11
53.4804927749530918
 21
-25.0708769996809799
 31
0.0
  0
LINE
  5
1177C
  8
0
 10
53.4804927749530918
 20
-25.0708769996809799
 30
0.0
 11
53.5001778143363467
 21
-25.06194427867743
 31
0.0
  0
LINE
  5
1177D
  8
0
 10
53.5001778143363467
 20
-25.06194427867743
 30
0.0
 11
53.5100203340165379
 21
-25.0547678135028598
 31
0.0
  0
LINE
  5
1177E
  8
0
 10
53.5100203340258389
 20
-25.0604645361911196
 30
0.0
 11
53.5001778143530871
 21
-25.0642018899901409
 31
0.0
  0
LINE
  5
1177F
  8
0
 10
53.5001778143530871
 20
-25.0642018899901409
 30
0.0
 11
53.4804927749530918
 21
-25.0732135053905303
 31
0.0
  0
LINE
  5
11780
  8
0
 10
53.4804927749530918
 20
-25.0732135053905303
 30
0.0
 11
53.4706502552675218
 21
-25.0786500801184182
 31
0.0
  0
LINE
  5
11781
  8
0
 10
53.4706502552675218
 20
-25.0786500801184182
 30
0.0
 11
53.4804927749915535
 21
-25.0750811697915807
 31
0.0
  0
LINE
  5
11782
  8
0
 10
53.4804927749915535
 20
-25.0750811697915807
 30
0.0
 11
53.5001778143009332
 21
-25.0659074146149514
 31
0.0
  0
LINE
  5
11783
  8
0
 10
53.5001778143009332
 20
-25.0659074146149514
 30
0.0
 11
53.5100203340258389
 21
-25.0604645361911196
 31
0.0
  0
LINE
  5
11784
  8
0
 10
53.4821814842221883
 20
-25.0714191091591196
 30
0.0
 11
53.4723389646530833
 21
-25.0734810094614602
 31
0.0
  0
LINE
  5
11785
  8
0
 10
53.4723389646530833
 20
-25.0734810094614602
 30
0.0
 11
53.4526539252762873
 21
-25.0812216632477316
 31
0.0
  0
LINE
  5
11786
  8
0
 10
53.4526539252762873
 20
-25.0812216632477316
 30
0.0
 11
53.4428114056462888
 21
-25.0870040896742097
 31
0.0
  0
LINE
  5
11787
  8
0
 10
53.4428114056462888
 20
-25.0870040896742097
 30
0.0
 11
53.4524851783253894
 21
-25.0851009438802599
 31
0.0
  0
LINE
  5
11788
  8
0
 10
53.4524851783253894
 20
-25.0851009438802599
 30
0.0
 11
53.4723389646530833
 21
-25.0772169898378792
 31
0.0
  0
LINE
  5
11789
  8
0
 10
53.4723389646530833
 20
-25.0772169898378792
 30
0.0
 11
53.4821814843756727
 21
-25.0714191091206793
 31
0.0
  0
LINE
  5
1178A
  8
0
 10
53.4543426347275599
 20
-25.078934877254099
 30
0.0
 11
53.4445001150530814
 21
-25.0823925769080098
 31
0.0
  0
LINE
  5
1178B
  8
0
 10
53.4445001150530814
 20
-25.0823925769080098
 30
0.0
 11
53.4248150756530933
 21
-25.0890088083745084
 31
0.0
  0
LINE
  5
1178C
  8
0
 10
53.4248150756530933
 20
-25.0890088083745084
 30
0.0
 11
53.4149725559442885
 21
-25.0921825460218102
 31
0.0
  0
LINE
  5
1178D
  8
0
 10
53.4149725559442885
 20
-25.0921825460218102
 30
0.0
 11
53.4248150756914697
 21
-25.0917213286450611
 31
0.0
  0
LINE
  5
1178E
  8
0
 10
53.4248150756914697
 20
-25.0917213286450611
 30
0.0
 11
53.4445001150343018
 21
-25.0850665878690293
 31
0.0
  0
LINE
  5
1178F
  8
0
 10
53.4445001150343018
 20
-25.0850665878690293
 30
0.0
 11
53.454342634672571
 21
-25.0789348772734186
 31
0.0
  0
LINE
  5
11790
  8
0
 10
53.4543426345674391
 20
-25.0851812961943388
 30
0.0
 11
53.4445001150530814
 21
-25.0875227524745092
 31
0.0
  0
LINE
  5
11791
  8
0
 10
53.4445001150530814
 20
-25.0875227524745092
 30
0.0
 11
53.4248150756007192
 21
-25.0942313552271088
 31
0.0
  0
LINE
  5
11792
  8
0
 10
53.4248150756007192
 20
-25.0942313552271088
 30
0.0
 11
53.4149725560686335
 21
-25.0987083555025912
 31
0.0
  0
LINE
  5
11793
  8
0
 10
53.4149725560686335
 20
-25.0987083555025912
 30
0.0
 11
53.4248150756530933
 21
-25.096454812374521
 31
0.0
  0
LINE
  5
11794
  8
0
 10
53.4248150756530933
 20
-25.096454812374521
 30
0.0
 11
53.4445001149759591
 21
-25.0896358878399788
 31
0.0
  0
LINE
  5
11795
  8
0
 10
53.4445001149759591
 20
-25.0896358878399788
 30
0.0
 11
53.4543426346973689
 21
-25.0851812961309015
 31
0.0
  0
LINE
  5
11796
  8
0
 10
53.4265037850088191
 20
-25.0925378344599288
 30
0.0
 11
53.4166612653274697
 21
-25.0933699112345714
 31
0.0
  0
LINE
  5
11797
  8
0
 10
53.4166612653274697
 20
-25.0933699112345714
 30
0.0
 11
53.3969762260135923
 21
-25.0989696973120893
 31
0.0
  0
LINE
  5
11798
  8
0
 10
53.3969762260135923
 20
-25.0989696973120893
 30
0.0
 11
53.3871337063081768
 21
-25.1038066951994914
 31
0.0
  0
LINE
  5
11799
  8
0
 10
53.3871337063081768
 20
-25.1038066951994914
 30
0.0
 11
53.3969762259530825
 21
-25.1030344018002687
 31
0.0
  0
LINE
  5
1179A
  8
0
 10
53.3969762259530825
 20
-25.1030344018002687
 30
0.0
 11
53.4166612653530777
 21
-25.0973651666745212
 31
0.0
  0
LINE
  5
1179B
  8
0
 10
53.4166612653530777
 20
-25.0973651666745212
 30
0.0
 11
53.426503785008812
 21
-25.0925378344599395
 31
0.0
  0
LINE
  5
1179C
  8
0
 10
53.3986649354144376
 20
-25.0968071092733993
 30
0.0
 11
53.3888224157530829
 21
-25.0992178547745191
 31
0.0
  0
LINE
  5
1179D
  8
0
 10
53.3888224157530829
 20
-25.0992178547745191
 30
0.0
 11
53.3691373763530876
 21
-25.10380976173942
 31
0.0
  0
LINE
  5
1179E
  8
0
 10
53.3691373763530876
 20
-25.10380976173942
 30
0.0
 11
53.3592948566172893
 21
-25.1059919748522518
 31
0.0
  0
LINE
  5
1179F
  8
0
 10
53.3592948566172893
 20
-25.1059919748522518
 30
0.0
 11
53.3691373763047565
 21
-25.1065970412813684
 31
0.0
  0
LINE
  5
117A0
  8
0
 10
53.3691373763047565
 20
-25.1065970412813684
 30
0.0
 11
53.3888224157530829
 21
-25.1019842920967911
 31
0.0
  0
LINE
  5
117A1
  8
0
 10
53.3888224157530829
 20
-25.1019842920967911
 30
0.0
 11
53.3986649353670089
 21
-25.0968071093006806
 31
0.0
  0
LINE
  5
117A2
  8
0
 10
53.3986649354474068
 20
-25.1034270915717883
 30
0.0
 11
53.3888224157206679
 21
-25.1045747272002586
 31
0.0
  0
LINE
  5
117A3
  8
0
 10
53.3888224157206679
 20
-25.1045747272002586
 30
0.0
 11
53.3691373763444616
 21
-25.1092226087023889
 31
0.0
  0
LINE
  5
117A4
  8
0
 10
53.3691373763444616
 20
-25.1092226087023889
 30
0.0
 11
53.3592948569197389
 21
-25.1127941063363984
 31
0.0
  0
LINE
  5
117A5
  8
0
 10
53.3592948569197389
 20
-25.1127941063363984
 30
0.0
 11
53.3691373763530876
 21
-25.1116823687745097
 31
0.0
  0
LINE
  5
117A6
  8
0
 10
53.3691373763530876
 20
-25.1116823687745097
 30
0.0
 11
53.3888224157585611
 21
-25.1069626849708207
 31
0.0
  0
LINE
  5
117A7
  8
0
 10
53.3888224157585611
 20
-25.1069626849708207
 30
0.0
 11
53.398664935447421
 21
-25.1034270915717883
 31
0.0
  0
LINE
  5
117A8
  8
0
 10
53.3708260857493073
 20
-25.1076415911846702
 30
0.0
 11
53.3609835661032292
 21
-25.1073908734271285
 31
0.0
  0
LINE
  5
117A9
  8
0
 10
53.3609835661032292
 20
-25.1073908734271285
 30
0.0
 11
53.3412985267272077
 21
-25.1110345815834783
 31
0.0
  0
LINE
  5
117AA
  8
0
 10
53.3412985267272077
 20
-25.1110345815834783
 30
0.0
 11
53.3314560070525374
 21
-25.1149717654766498
 31
0.0
  0
LINE
  5
117AB
  8
0
 10
53.3314560070525374
 20
-25.1149717654766498
 30
0.0
 11
53.3412985266530768
 21
-25.1152439874004614
 31
0.0
  0
LINE
  5
117AC
  8
0
 10
53.3412985266530768
 20
-25.1152439874004614
 30
0.0
 11
53.3609835660530791
 21
-25.1115572688256705
 31
0.0
  0
LINE
  5
117AD
  8
0
 10
53.3609835660530791
 20
-25.1115572688256705
 30
0.0
 11
53.3708260857928991
 21
-25.1076415911658692
 31
0.0
  0
LINE
  5
117AE
  8
0
 10
53.5100203340148823
 20
-25.0260118189784713
 30
0.0
 11
53.50017781435308
 21
-25.0243428035745197
 31
0.0
  0
LINE
  5
117AF
  8
0
 10
53.50017781435308
 20
-25.0243428035745197
 30
0.0
 11
53.4965824875508318
 21
-25.0260142518626907
 31
0.0
  0
LINE
  5
117B0
  8
0
 10
53.4965824875508318
 20
-25.0260142518626907
 30
0.0
 11
53.4960770719295127
 21
-25.0237591059637907
 31
0.0
  0
ARC
  5
117B1
  8
0
 10
53.2402520789704781
 20
-24.4661241112530092
 30
0.0
 40
0.6135170856207478
 50
269.9559183345539282
 51
294.644134158265274
  0
LINE
  5
117B2
  8
0
 10
53.4046067965156297
 20
-25.0572169475902804
 30
0.0
 11
53.4239076735530816
 21
-25.0572169475902804
 31
0.0
  0
LINE
  5
117B3
  8
0
 10
53.4239076735530816
 20
-25.0572169475902804
 30
0.0
 11
53.4239076735530816
 21
-25.0515076068583191
 31
0.0
  0
LINE
  5
117B4
  8
0
 10
53.4166612653530777
 20
-25.0572212184745204
 30
0.0
 11
53.4166612653530777
 21
-25.0537319850161211
 31
0.0
  0
LINE
  5
117B5
  8
0
 10
53.4454075170530771
 20
-25.0572212184745204
 30
0.0
 11
53.4454075170530771
 21
-25.0443234372416512
 31
0.0
  0
LINE
  5
117B6
  8
0
 10
53.4454075170530771
 20
-25.0572212184745204
 30
0.0
 11
53.4795853729530819
 21
-25.0572212184745204
 31
0.0
  0
LINE
  5
117B7
  8
0
 10
53.4795853729530819
 20
-25.0572212184745204
 30
0.0
 11
53.4795853729530819
 21
-25.0457366320745187
 31
0.0
  0
LINE
  5
117B8
  8
0
 10
53.4682519373336618
 20
-25.0357221039183884
 30
0.0
 11
53.4723389646859601
 21
-25.0378896140543183
 31
0.0
  0
LINE
  5
117B9
  8
0
 10
53.4723389646859601
 20
-25.0378896140543183
 30
0.0
 11
53.4795853729530819
 21
-25.0457366320745187
 31
0.0
  0
LINE
  5
117BA
  8
0
 10
53.4795853729530819
 20
-25.0457366320745187
 30
0.0
 11
53.4960770720800198
 21
-25.0553907825621494
 31
0.0
  0
ARC
  5
117BB
  8
0
 10
53.2402526562374518
 20
-24.4977584397057591
 30
0.0
 40
0.6135144346636815
 50
269.955864233416321
 51
294.644188438373817
  0
LINE
  5
117BC
  8
0
 10
53.4723389646530833
 20
-25.0572212184745204
 30
0.0
 11
53.4723989906143515
 21
-25.0379214481471699
 31
0.0
  0
LINE
  5
117BD
  8
0
 10
53.4526539253530828
 20
-25.0572212184745204
 30
0.0
 11
53.4526539253530828
 21
-25.0417009262845411
 31
0.0
  0
LINE
  5
117BE
  8
0
 10
53.4713848456356118
 20
-25.034438160456709
 30
0.0
 11
53.4804927749897132
 21
-25.0442999560594188
 31
0.0
  0
LINE
  5
117BF
  8
0
 10
53.4804927749897132
 20
-25.0442999560594188
 30
0.0
 11
53.4965824876772018
 21
-25.053755706302411
 31
0.0
  0
LINE
  5
117C0
  8
0
 10
53.4965824876772018
 20
-25.053755706302411
 30
0.0
 11
53.5001778143744318
 21
-25.0520842580496996
 31
0.0
  0
LINE
  5
117C1
  8
0
 10
53.5001778143744318
 20
-25.0520842580496996
 30
0.0
 11
53.5100203339612719
 21
-25.0432171829286609
 31
0.0
  0
LINE
  5
117C2
  8
0
 10
53.5100203339612719
 20
-25.0432171829286609
 30
0.0
 11
53.50017781435308
 21
-25.0432545186745195
 31
0.0
  0
LINE
  5
117C3
  8
0
 10
53.50017781435308
 20
-25.0432545186745195
 30
0.0
 11
53.4981600654891665
 21
-25.0441929217284383
 31
0.0
  0
LINE
  5
117C4
  8
0
 10
53.4981600654891665
 20
-25.0441929217284383
 30
0.0
 11
53.4804927749508892
 21
-25.0337638654151711
 31
0.0
  0
LINE
  5
117C5
  8
0
 10
53.4804927749508892
 20
-25.0337638654151711
 30
0.0
 11
53.4733041871366908
 21
-25.0336537838057893
 31
0.0
  0
LINE
  5
117C6
  8
0
 10
53.4804927750224692
 20
-25.0337638654170718
 30
0.0
 11
53.4804927749897629
 21
-25.0442999560594508
 31
0.0
  0
LINE
  5
117C7
  8
0
 10
53.496077067013978
 20
-25.055390779596511
 30
0.0
 11
53.4965824876772018
 21
-25.053755706302411
 31
0.0
  0
LINE
  5
117C8
  8
0
 10
53.5100203340869669
 20
-25.0260118189880387
 30
0.0
 11
53.50017781435308
 21
-25.0365852454362816
 31
0.0
  0
LINE
  5
117C9
  8
0
 10
53.50017781435308
 20
-25.0365852454362816
 30
0.0
 11
53.498160065405159
 21
-25.037523648419441
 31
0.0
  0
LINE
  5
117CA
  8
0
 10
53.498160065405159
 20
-25.037523648419441
 30
0.0
 11
53.4981601113312024
 21
-25.0441929004084898
 31
0.0
  0
LINE
  5
117CB
  8
0
 10
53.4981600654543499
 20
-25.0375236484192989
 30
0.0
 11
53.4840583397529485
 21
-25.029117647229981
 31
0.0
  0
LINE
  5
117CC
  8
0
 10
53.5001778166462501
 20
-25.0243428039633713
 30
0.0
 11
53.5001778166462501
 21
-25.0365852442633496
 31
0.0
  0
LINE
  5
117CD
  8
0
 10
53.2577819777530834
 20
-25.1255676549091085
 30
0.0
 11
53.2577819776933765
 21
-25.1229037543534588
 31
0.0
  0
LINE
  5
117CE
  8
0
 10
53.2774670171103466
 20
-25.1246512680223404
 30
0.0
 11
53.27746701706441
 21
-25.1220005236753217
 31
0.0
  0
LINE
  5
117CF
  8
0
 10
53.285620827367417
 20
-25.1220762024256707
 30
0.0
 11
53.2856208273530925
 21
-25.1177885979830506
 31
0.0
  0
LINE
  5
117D0
  8
0
 10
53.3053058667225486
 20
-25.1159920915143005
 30
0.0
 11
53.3053058667811968
 21
-25.1202590862569792
 31
0.0
  0
LINE
  5
117D1
  8
0
 10
53.3134596770686571
 20
-25.121286861639561
 30
0.0
 11
53.313459677053082
 21
-25.1186847958755095
 31
0.0
  0
LINE
  5
117D2
  8
0
 10
53.3331447164530914
 20
-25.1185109605456489
 30
0.0
 11
53.3331219484607217
 21
-25.1159497126686198
 31
0.0
  0
LINE
  5
117D3
  8
0
 10
53.2856208273530925
 20
-25.1237503191132205
 30
0.0
 11
53.2856208273530925
 21
-25.1246880670893802
 31
0.0
  0
LINE
  5
117D4
  8
0
 10
53.3053058667811825
 20
-25.1219163834061803
 30
0.0
 11
53.3053058667811825
 21
-25.1228209205895183
 31
0.0
  0
LINE
  5
117D5
  8
0
 10
53.3412985266530768
 20
-25.1152439874004614
 30
0.0
 11
53.3412985267272077
 21
-25.1110345815834783
 31
0.0
  0
LINE
  5
117D6
  8
0
 10
53.3609835660530791
 20
-25.1115572688256705
 30
0.0
 11
53.3609835661032292
 21
-25.1073908734271285
 31
0.0
  0
LINE
  5
117D7
  8
0
 10
53.3691373763530876
 20
-25.1116823687745097
 30
0.0
 11
53.3691373763444616
 21
-25.1092226087023889
 31
0.0
  0
LINE
  5
117D8
  8
0
 10
53.3691373763047565
 20
-25.1065970412813684
 30
0.0
 11
53.3691373763530876
 21
-25.10380976173942
 31
0.0
  0
LINE
  5
117D9
  8
0
 10
53.3888224157585611
 20
-25.1069626849708207
 30
0.0
 11
53.3888224157206679
 21
-25.1045747272002586
 31
0.0
  0
LINE
  5
117DA
  8
0
 10
53.3888224157530829
 20
-25.1019842920967911
 30
0.0
 11
53.3888224157530829
 21
-25.0992178547745191
 31
0.0
  0
LINE
  5
117DB
  8
0
 10
53.3969762259530825
 20
-25.1030344018002687
 30
0.0
 11
53.3969762260135923
 21
-25.0989696973120893
 31
0.0
  0
LINE
  5
117DC
  8
0
 10
53.4166612653530777
 20
-25.0973651666745212
 30
0.0
 11
53.4166612653274697
 21
-25.0933699112345714
 31
0.0
  0
LINE
  5
117DD
  8
0
 10
53.4248150756914697
 20
-25.0917213286450611
 30
0.0
 11
53.4248150756530933
 21
-25.0890088083745084
 31
0.0
  0
LINE
  5
117DE
  8
0
 10
53.4248150756530933
 20
-25.096454812374521
 30
0.0
 11
53.4248150756007192
 21
-25.0942313552271088
 31
0.0
  0
LINE
  5
117DF
  8
0
 10
53.4445001149759591
 20
-25.0896358878399788
 30
0.0
 11
53.4445001150530814
 21
-25.0875227524745092
 31
0.0
  0
LINE
  5
117E0
  8
0
 10
53.4445001150343018
 20
-25.0850665878690293
 30
0.0
 11
53.4445001150530814
 21
-25.0823925769080098
 31
0.0
  0
LINE
  5
117E1
  8
0
 10
53.4524851783253894
 20
-25.0851009438802599
 30
0.0
 11
53.4526539252762873
 21
-25.0812216632477316
 31
0.0
  0
LINE
  5
117E2
  8
0
 10
53.4723389646530833
 20
-25.0772169898378792
 30
0.0
 11
53.4723389646530833
 21
-25.0734810094614602
 31
0.0
  0
LINE
  5
117E3
  8
0
 10
53.4804927749915535
 20
-25.0750811697915807
 30
0.0
 11
53.4804927749530918
 21
-25.0732135053905303
 31
0.0
  0
LINE
  5
117E4
  8
0
 10
53.4804927749530918
 20
-25.0708769996809799
 30
0.0
 11
53.4804927749530918
 21
-25.0682828801646203
 31
0.0
  0
LINE
  5
117E5
  8
0
 10
53.5001778143363467
 20
-25.06194427867743
 30
0.0
 11
53.500177814288719
 21
-25.0565849635598497
 31
0.0
  0
LINE
  5
117E6
  8
0
 10
53.5001778143009332
 20
-25.0659074146149514
 30
0.0
 11
53.5001778143530871
 21
-25.0642018899901409
 31
0.0
  0
ARC
  5
117E7
  8
0
 10
53.5045789226126374
 20
-25.002255438821031
 30
0.0
 40
0.0521383333407297
 50
311.2340014828703261
 51
332.6033340647923069
  0
ARC
  5
117E8
  8
0
 10
53.4463199758053307
 20
-24.9357864109955791
 30
0.0
 40
0.1405251906395216
 50
301.0418427074426972
 51
311.2340014828699282
  0
ARC
  5
117E9
  8
0
 10
53.429049070599838
 20
-24.9070902882529701
 30
0.0
 40
0.174017751411663
 50
294.1259707499211231
 51
301.0418427074426972
  0
ARC
  5
117EA
  8
0
 10
53.2487561181448967
 20
-24.5616189932821989
 30
0.0
 40
0.5633340792396647
 50
285.2548136389356728
 51
294.2906926780249819
  0
ARC
  5
117EB
  8
0
 10
53.2275954235588529
 20
-24.4840281523497083
 30
0.0
 40
0.6437586624961185
 50
280.173167265585505
 51
285.2548136389356728
  0
ARC
  5
117EC
  8
0
 10
53.2642724650250088
 20
-24.6884197478799408
 30
0.0
 40
0.4361023847338003
 50
276.2578111977961157
 51
280.173167265585505
  0
ARC
  5
117ED
  8
0
 10
53.2319537124382407
 20
-24.0286679008003397
 30
0.0
 40
1.116175964142835
 50
270.4017468712477807
 51
278.8833580716229221
  0
ARC
  5
117EE
  8
0
 10
53.3153806439229214
 20
-24.6065443513835902
 30
0.0
 40
0.5323917825893976
 50
279.6164237358148057
 51
292.3724658316355089
  0
ARC
  5
117EF
  8
0
 10
53.466436125506462
 20
-24.9735328950111217
 30
0.0
 40
0.1355311651551584
 50
292.3724658316352816
 51
312.6045582465056896
  0
ARC
  5
117F0
  8
0
 10
53.5200216295247628
 20
-25.0317973889142706
 30
0.0
 40
0.0563721006667002
 50
312.6045582465056896
 51
339.4156092703115064
  0
ARC
  5
117F1
  8
0
 10
53.5453015760525801
 20
-25.0412916368028995
 30
0.0
 40
0.0293680928267592
 50
339.4156092703103127
 51
23.4106657088042382
  0
ARC
  5
117F2
  8
0
 10
53.5144374145823321
 20
-25.0546545740010096
 30
0.0
 40
0.0630008826875942
 50
23.4106657088040606
 51
55.1716793199789066
  0
ARC
  5
117F3
  8
0
 10
53.4143217649106887
 20
-25.1985502927779486
 30
0.0
 40
0.2382981193786045
 50
55.1716793199789066
 51
73.3653438038978436
  0
ARC
  5
117F4
  8
0
 10
53.2751000132166723
 20
-25.6645306988101005
 30
0.0
 40
0.7246317856517158
 50
73.3653438038978436
 51
82.401155187503619
  0
ARC
  5
117F5
  8
0
 10
53.2518503326585702
 20
-25.8388057524651096
 30
0.0
 40
0.9004508459737079
 50
82.401155187503619
 51
87.5823212197897334
  0
ARC
  5
117F6
  8
0
 10
53.2342006412733113
 20
-26.2568317411903216
 30
0.0
 40
1.31884926716538
 50
87.5823212197897334
 51
89.7576084323555676
  0
ARC
  5
117F7
  8
0
 10
53.2420122212425824
 20
-25.9586780246592888
 30
0.0
 40
1.0309618080276
 50
82.2170025540808638
 51
90.1240527774222357
  0
ARC
  5
117F8
  8
0
 10
53.2892831959882614
 20
-25.6128282401622407
 30
0.0
 40
0.6818964581429963
 50
73.3450959647345115
 51
82.2170025540808638
  0
ARC
  5
117F9
  8
0
 10
53.4067481713841232
 20
-25.2201745251302398
 30
0.0
 40
0.2720489738598971
 50
56.8062048718300971
 51
73.3450959647345115
  0
ARC
  5
117FA
  8
0
 10
53.5179294348753984
 20
-25.0502315808906708
 30
0.0
 40
0.0689680105759633
 50
35.0009033517947685
 51
56.8062048718305519
  0
ARC
  5
117FB
  8
0
 10
53.5369289897869294
 20
-25.0369275028888794
 30
0.0
 40
0.0457735806775114
 50
4.1052240255384476
 51
35.0009033517947685
  0
ARC
  5
117FC
  8
0
 10
53.5588489128673331
 20
-25.0353542544025807
 30
0.0
 40
0.0237972721010002
 50
336.298967075175824
 51
4.1052240255386501
  0
ARC
  5
117FD
  8
0
 10
53.5036208427855726
 20
-25.0111096390811305
 30
0.0
 40
0.0841126192113353
 50
326.526129945337118
 51
336.2989670751759945
  0
ARC
  5
117FE
  8
0
 10
53.5065271914327809
 20
-25.0053259866865893
 30
0.0
 40
0.0851213441609339
 50
308.8545561049562025
 51
322.1956953515729083
  0
ARC
  5
117FF
  8
0
 10
53.4979895676529011
 20
-24.9923273339014607
 30
0.0
 40
0.100375095601688
 50
313.6307623648662002
 51
330.6356455315884091
  0
ARC
  5
11800
  8
0
 10
53.529414328910299
 20
-25.0100085283089015
 30
0.0
 40
0.0643176379021016
 50
330.6356455315884091
 51
350.710811162231721
  0
ARC
  5
11801
  8
0
 10
53.4985596094849996
 20
-25.0049618521597594
 30
0.0
 40
0.0955823568512388
 50
350.710811162231721
 51
358.6736374270000169
  0
ARC
  5
11802
  8
0
 10
53.5617417612140798
 20
-25.0064247420097807
 30
0.0
 40
0.0323832718592053
 50
358.6736374269993917
 51
28.0755972944062613
  0
ARC
  5
11803
  8
0
 10
53.5254886063542585
 20
-25.0257622858445608
 30
0.0
 40
0.0734713703653698
 50
28.0755972944062613
 51
55.9654212343145474
  0
ARC
  5
11804
  8
0
 10
53.4232968891755107
 20
-25.1770706804813109
 30
0.0
 40
0.2560566308534296
 50
55.9654212343149027
 51
73.407255947003776
  0
ARC
  5
11805
  8
0
 10
53.2771776013186411
 20
-25.6674449046458903
 30
0.0
 40
0.7677379047034765
 50
73.407255947003776
 51
83.3460629838666307
  0
ARC
  5
11806
  8
0
 10
53.2432373763661104
 20
-25.9583826487207716
 30
0.0
 40
1.0606486586836059
 50
83.3460629838666307
 51
88.8787367119481928
  0
ARC
  5
11807
  8
0
 10
53.2379506430952532
 20
-26.2121806626733509
 30
0.0
 40
1.314501729247965
 50
88.8066742559679057
 51
89.9202604745733538
  0
LINE
  5
11808
  8
0
 10
53.5941163583530766
 20
-25.0071907233745208
 30
0.0
 11
53.5941163564530783
 21
-24.9515417770745209
 31
0.0
  0
ARC
  5
11809
  8
0
 10
53.558884518462861
 20
-24.95154177827742
 30
0.0
 40
0.0352318379902226
 50
0.0000019562273824
 51
24.4204074788169088
  0
ARC
  5
1180A
  8
0
 10
53.5372679499643311
 20
-24.9613567737766395
 30
0.0
 40
0.0589723133498623
 50
24.4204074788174701
 51
50.6892224176048671
  0
ARC
  5
1180B
  8
0
 10
53.451141048058247
 20
-25.0665429109582405
 30
0.0
 40
0.1949207104979152
 50
50.6892224176047392
 51
72.3773357839290412
  0
ARC
  5
1180C
  8
0
 10
53.2662158313877327
 20
-25.6487019660494617
 30
0.0
 40
0.8057451543320926
 50
72.3773357839290412
 51
82.2456885202682031
  0
ARC
  5
1180D
  8
0
 10
53.2115239670413374
 20
-27.4023451357242216
 30
0.0
 40
2.5604533963810399
 50
88.135994946675126
 51
89.3676949640097433
  0
ARC
  5
1180E
  8
0
 10
53.2416572109114128
 20
-25.9456244010142711
 30
0.0
 40
1.128382975865327
 50
81.6786831283982053
 51
90.0953160708987468
  0
ARC
  5
1180F
  8
0
 10
53.3055694353986667
 20
-25.5086601985221613
 30
0.0
 40
0.6867694721106609
 50
72.0017423032883102
 51
81.6786831283982053
  0
ARC
  5
11810
  8
0
 10
53.4352545259966973
 20
-25.1094892285509417
 30
0.0
 40
0.2670604228977804
 50
55.8286805853644807
 51
72.0017423032883102
  0
ARC
  5
11811
  8
0
 10
53.5423932533625475
 20
-24.9516695032671798
 30
0.0
 40
0.0763098722033799
 50
28.5161828765436915
 51
55.8286805853646015
  0
ARC
  5
11812
  8
0
 10
53.577703345531873
 20
-24.9324847722568492
 30
0.0
 40
0.0361245948876223
 50
354.6579999710457969
 51
28.5161828765444199
  0
ARC
  5
11813
  8
0
 10
53.5738559345039107
 20
-24.9321250139606896
 30
0.0
 40
0.0399887891955842
 50
338.4635016402972951
 51
354.657999971045399
  0
ARC
  5
11814
  8
0
 10
53.5521249498377827
 20
-24.9211784520097197
 30
0.0
 40
0.0642588598958308
 50
310.8519357587529157
 51
336.4970444964230865
  0
ARC
  5
11815
  8
0
 10
53.241215333594397
 20
-26.1771603095218985
 30
0.0
 40
1.384250006401011
 50
82.2713981469869537
 51
90.0594078317837727
  0
ARC
  5
11816
  8
0
 10
53.3152511362662906
 20
-25.6316308315376986
 30
0.0
 40
0.8337196153897817
 50
70.0548955678331993
 51
82.2713981469869537
  0
ARC
  5
11817
  8
0
 10
53.5233512612637625
 20
-25.0581714905296096
 30
0.0
 40
0.223669389741601
 50
48.7624666701734597
 51
70.0548955678328156
  0
ARC
  5
11818
  8
0
 10
53.6261380899780775
 20
-24.9409141183533798
 30
0.0
 40
0.0677385605678153
 50
16.1600206051393904
 51
48.7624666701740423
  0
ARC
  5
11819
  8
0
 10
53.6535084905675888
 20
-24.9329829880179901
 30
0.0
 40
0.0392422159456189
 50
340.587167207423704
 51
16.1600206051384987
  0
ARC
  5
1181A
  8
0
 10
53.6227346434256589
 20
-24.9221380577740597
 30
0.0
 40
0.0718710709655307
 50
324.3391511502143203
 51
340.587167207423704
  0
ARC
  5
1181B
  8
0
 10
53.6187827191428212
 20
-24.9193024048562997
 30
0.0
 40
0.0767350850493293
 50
311.3080777644702835
 51
324.3391511502139224
  0
ARC
  5
1181C
  8
0
 10
53.5419420615256598
 20
-24.8318613853991295
 30
0.0
 40
0.1931413501158916
 50
301.4766304244449771
 51
311.3080777644701129
  0
ARC
  5
1181D
  8
0
 10
53.4800782889964168
 20
-24.7197325480867391
 30
0.0
 40
0.3211251598975728
 50
290.5666513560015005
 51
300.4439682150025988
  0
ARC
  5
1181E
  8
0
 10
53.5763399728389018
 20
-24.8505272482792314
 30
0.0
 40
0.1567780082595126
 50
307.2162619425399726
 51
323.4470299901383896
  0
ARC
  5
1181F
  8
0
 10
53.6624731936243293
 20
-24.9143857945178908
 30
0.0
 40
0.0495546635505068
 50
323.4470299901381054
 51
346.1621115648898126
  0
ARC
  5
11820
  8
0
 10
53.6619899346138496
 20
-24.9142667558165911
 30
0.0
 40
0.0500523677634878
 50
346.1621115648899831
 51
20.6089203458780297
  0
ARC
  5
11821
  8
0
 10
53.6409023457599829
 20
-24.9221968065480191
 30
0.0
 40
0.0725817287902166
 50
20.6089203458780297
 51
56.0181339326491994
  0
ARC
  5
11822
  8
0
 10
53.2401956889022188
 20
-26.3421641219978717
 30
0.0
 40
1.5651636695091691
 50
86.3309535245056168
 51
90.0152149836282831
  0
ARC
  5
11823
  8
0
 10
53.2518538814512894
 20
-26.1557221236145097
 30
0.0
 40
1.3783575341316281
 50
80.2117951946778618
 51
86.4219612825889527
  0
ARC
  5
11824
  8
0
 10
53.3428346754121208
 20
-25.628352240175559
 30
0.0
 40
0.8431972788546191
 50
73.5626850303750643
 51
80.2117951946778618
  0
ARC
  5
11825
  8
0
 10
53.433811430032172
 20
-25.3199813659968989
 30
0.0
 40
0.5216862122909544
 50
64.505408803528681
 51
73.5626850303750643
  0
ARC
  5
11826
  8
0
 10
53.5702054168024802
 20
-25.0339559410796006
 30
0.0
 40
0.2048047465561708
 50
57.0932143778350607
 51
64.505408803528681
  0
ARC
  5
11827
  8
0
 10
53.2414228950363224
 20
-26.3363855230124102
 30
0.0
 40
1.5624274321313649
 50
85.3932888513793671
 51
90.0602445187612659
  0
ARC
  5
11828
  8
0
 10
53.2641386872849409
 20
-26.0547238764718507
 30
0.0
 40
1.279851265703148
 50
76.8408829621599523
 51
85.3942093717980271
  0
ARC
  5
11829
  8
0
 10
53.4297712491704075
 20
-25.346272405766431
 30
0.0
 40
0.5522953352748236
 50
65.1434945272817458
 51
76.8408829621599523
  0
ARC
  5
1182A
  8
0
 10
53.5799771315895796
 20
-25.02979775178121
 30
0.0
 40
0.2020255524869514
 50
44.7595712598060018
 51
66.0686883432683487
  0
ARC
  5
1182B
  8
0
 10
53.6808724874012171
 20
-24.9311308714539983
 30
0.0
 40
0.0609163138146518
 50
1.92999975053712
 51
45.6847650757929031
  0
ARC
  5
1182C
  8
0
 10
53.6799047933307207
 20
-24.9264371693301214
 30
0.0
 40
0.0619058598566266
 50
316.2843925395575866
 51
357.553881312174326
  0
ARC
  5
1182D
  8
0
 10
53.6161762904467025
 20
-24.8717188410548893
 30
0.0
 40
0.1458513795335689
 50
303.0629402439120099
 51
318.049371392383307
  0
ARC
  5
1182E
  8
0
 10
53.5233099275379232
 20
-24.7281035147963699
 30
0.0
 40
0.3168759328273547
 50
291.4721111599802725
 51
302.9685368992725785
  0
ARC
  5
1182F
  8
0
 10
53.4268127403081223
 20
-24.494027008513811
 30
0.0
 40
0.5700440543809212
 50
286.1600645473290001
 51
291.8858764069137237
  0
ARC
  5
11830
  8
0
 10
53.4681882188551683
 20
-24.6297173431650691
 30
0.0
 40
0.4240968843945993
 50
286.410989338763784
 51
299.6843046955941077
  0
ARC
  5
11831
  8
0
 10
53.6205692150527113
 20
-24.8904281509823697
 30
0.0
 40
0.1221815399159839
 50
298.1487075575615791
 51
330.7520492235294114
  0
ARC
  5
11832
  8
0
 10
53.6827566239003389
 20
-24.9291504042632788
 30
0.0
 40
0.0491207973800339
 50
334.722871822156776
 51
15.8205072726275198
  0
ARC
  5
11833
  8
0
 10
53.6397714663212568
 20
-24.9509928987686393
 30
0.0
 40
0.0968795548699436
 50
21.3269270092853205
 51
44.4624646690321228
  0
ARC
  5
11834
  8
0
 10
53.6040162428357405
 20
-24.9922554029883202
 30
0.0
 40
0.151364491624114
 50
46.1301126933488774
 51
58.2848040109085304
  0
ARC
  5
11835
  8
0
 10
52.5935276805981786
 20
-23.9410838392069785
 30
0.0
 40
1.5176235048538791
 50
324.7604955418465238
 51
339.7508298965207132
  0
ARC
  5
11836
  8
0
 10
52.9551065030773671
 20
-24.1965231825156692
 30
0.0
 40
1.0749176171864361
 50
317.0393146432995763
 51
324.7604955418465238
  0
ARC
  5
11837
  8
0
 10
53.1417627318413892
 20
-27.0327126912810591
 30
0.0
 40
2.194808591730506
 50
83.9015919165763933
 51
86.0014725314303661
  0
ARC
  5
11838
  8
0
 10
52.7446746331048573
 20
-24.8082450948547617
 30
0.0
 40
0.0985244751996154
 50
163.9298329651022073
 51
184.9499599978547906
  0
ARC
  5
11839
  8
0
 10
52.8276570409069421
 20
-24.8321499359626614
 30
0.0
 40
0.1848814172079216
 50
137.0673254853273875
 51
163.9298329651022073
  0
ARC
  5
1183A
  8
0
 10
52.8563064828523466
 20
-24.8588031028991203
 30
0.0
 40
0.2240117357796618
 50
107.5141752359799057
 51
137.0673254853278138
  0
ARC
  5
1183B
  8
0
 10
53.245444760381389
 20
-26.8114188427160904
 30
0.0
 40
2.2138311903620198
 50
90.1467348612034129
 51
101.9013622137487971
  0
ARC
  5
1183C
  8
0
 10
53.2335823221251587
 20
-26.8163637843824993
 30
0.0
 40
2.2187775144060322
 50
78.1117856146329501
 51
89.8400820957244548
  0
ARC
  5
1183D
  8
0
 10
53.6280655186313311
 20
-24.8501165909240385
 30
0.0
 40
0.2142856433855733
 50
25.6377265119933995
 51
73.0166756434161925
  0
ARC
  5
1183E
  8
0
 10
53.7097579690973106
 20
-24.8103905912261915
 30
0.0
 40
0.1234482560916081
 50
357.0490177733672112
 51
25.4204015766144309
  0
LINE
  5
1183F
  8
0
 10
53.2205238921989121
 20
-24.9442597338193188
 30
0.0
 11
53.2200894273530807
 21
-24.9448684156745095
 31
0.0
  0
LINE
  5
11840
  8
0
 10
53.2200894273530807
 20
-24.9448684156745095
 30
0.0
 11
53.2299319470530889
 21
-24.9587343920418192
 31
0.0
  0
LINE
  5
11841
  8
0
 10
53.2299319470530889
 20
-24.9587343920418192
 30
0.0
 11
53.2496169864530771
 21
-24.9587343918780391
 31
0.0
  0
LINE
  5
11842
  8
0
 10
53.2496169864530771
 20
-24.9587343918780391
 30
0.0
 11
53.2594595061530924
 21
-24.9448684156745095
 31
0.0
  0
LINE
  5
11843
  8
0
 10
53.2594595061530924
 20
-24.9448684156745095
 30
0.0
 11
53.259021328888231
 21
-24.9442594435671197
 31
0.0
  0
LINE
  5
11844
  8
0
 10
53.2299319470530889
 20
-24.9750245064745187
 30
0.0
 11
53.220089427381609
 21
-24.9869412593188684
 31
0.0
  0
LINE
  5
11845
  8
0
 10
53.220089427381609
 20
-24.9869412593188684
 30
0.0
 11
53.2299319469931902
 21
-24.9987740429501386
 31
0.0
  0
LINE
  5
11846
  8
0
 10
53.2299319469931902
 20
-24.9987740429501386
 30
0.0
 11
53.2496169864530771
 21
-24.9987740429745209
 31
0.0
  0
LINE
  5
11847
  8
0
 10
53.2496169864530771
 20
-24.9987740429745209
 30
0.0
 11
53.2594595061772509
 21
-24.9869412592897113
 31
0.0
  0
LINE
  5
11848
  8
0
 10
53.2594595061772509
 20
-24.9869412592897113
 30
0.0
 11
53.2496169864530771
 21
-24.9750245064440293
 31
0.0
  0
LINE
  5
11849
  8
0
 10
53.2496169864530771
 20
-24.9750245064440293
 30
0.0
 11
53.2299319470779082
 21
-24.9750245064444591
 31
0.0
  0
LINE
  5
1184A
  8
0
 10
53.2299319470530889
 20
-25.0126210468338215
 30
0.0
 11
53.2200894274298832
 21
-25.0226944883346683
 31
0.0
  0
LINE
  5
1184B
  8
0
 10
53.2200894274298832
 20
-25.0226944883346683
 30
0.0
 11
53.2299319470530889
 21
-25.0327254170745199
 31
0.0
  0
LINE
  5
1184C
  8
0
 10
53.2299319470530889
 20
-25.0327254170745199
 30
0.0
 11
53.2496169863701923
 21
-25.0327254170522089
 31
0.0
  0
LINE
  5
1184D
  8
0
 10
53.2496169863701923
 20
-25.0327254170522089
 30
0.0
 11
53.2594595060654825
 21
-25.0226944883937783
 31
0.0
  0
LINE
  5
1184E
  8
0
 10
53.2594595060654825
 20
-25.0226944883937783
 30
0.0
 11
53.2496169864530771
 21
-25.0126210469794898
 31
0.0
  0
LINE
  5
1184F
  8
0
 10
53.2496169864530771
 20
-25.0126210469794898
 30
0.0
 11
53.2299319470530889
 21
-25.0126210469794898
 31
0.0
  0
LINE
  5
11850
  8
0
 10
53.2200894273117981
 20
-25.0527663739046211
 30
0.0
 11
53.2299319470530889
 21
-25.0611405293674316
 31
0.0
  0
LINE
  5
11851
  8
0
 10
53.2299319470530889
 20
-25.0611405293674316
 30
0.0
 11
53.2496169864530771
 21
-25.0611405293674316
 31
0.0
  0
LINE
  5
11852
  8
0
 10
53.2496169864530771
 20
-25.0611405293674316
 30
0.0
 11
53.2594595061411624
 21
-25.0527663739938689
 31
0.0
  0
LINE
  5
11853
  8
0
 10
53.2594595061411624
 20
-25.0527663739938689
 30
0.0
 11
53.2496169864530771
 21
-25.044374617374519
 31
0.0
  0
LINE
  5
11854
  8
0
 10
53.2496169864530771
 20
-25.044374617374519
 30
0.0
 11
53.2299319470530889
 21
-25.044374617374519
 31
0.0
  0
LINE
  5
11855
  8
0
 10
53.2299319470530889
 20
-25.044374617374519
 30
0.0
 11
53.2200894273725211
 21
-25.0527663739622994
 31
0.0
  0
LINE
  5
11856
  8
0
 10
53.2299319470530889
 20
-25.0611405293674316
 30
0.0
 11
53.2299319470530889
 21
-25.044374617374519
 31
0.0
  0
LINE
  5
11857
  8
0
 10
53.2496169864530771
 20
-25.044374617374519
 30
0.0
 11
53.2496169864530771
 21
-25.0611405293674316
 31
0.0
  0
LINE
  5
11858
  8
0
 10
53.2496169863701923
 20
-25.0327254170522089
 30
0.0
 11
53.2496169863701923
 21
-25.0126210469794898
 31
0.0
  0
LINE
  5
11859
  8
0
 10
53.2299319470530889
 20
-25.0126210469794898
 30
0.0
 11
53.2299319470758689
 21
-25.0327254170745199
 31
0.0
  0
LINE
  5
1185A
  8
0
 10
53.2299319469931902
 20
-24.9987740429501386
 30
0.0
 11
53.2299319470530889
 21
-24.9750245064745187
 31
0.0
  0
LINE
  5
1185B
  8
0
 10
53.2496169864530771
 20
-24.9750245064440293
 30
0.0
 11
53.2496169864530771
 21
-24.9987740429745209
 31
0.0
  0
LINE
  5
1185C
  8
0
 10
53.2299319470530889
 20
-24.9587343920418192
 30
0.0
 11
53.2299319470530889
 21
-24.9441223472116498
 31
0.0
  0
LINE
  5
1185D
  8
0
 10
53.2496169864530771
 20
-24.9587343918780391
 30
0.0
 11
53.2496169864530771
 21
-24.9441222387035886
 31
0.0
  0
LINE
  5
1185E
  8
0
 10
52.246910447554292
 20
-28.0019453252745087
 30
0.0
 11
52.246910447554221
 21
-28.3956461126741608
 31
0.0
  0
LINE
  5
1185F
  8
0
 10
54.232649666951751
 20
-28.0019453252745087
 30
0.0
 11
54.2326496669516729
 21
-28.395646112674509
 31
0.0
  0
LINE
  5
11860
  8
0
 10
49.5193132068530772
 20
-28.395646112674509
 30
0.0
 11
47.5114391910530927
 21
-28.395646112674509
 31
0.0
  0
LINE
  5
11861
  8
0
 10
47.5114391910530927
 20
-28.0019453252745087
 30
0.0
 11
49.5193132068530772
 21
-28.0019453252745087
 31
0.0
  0
LINE
  5
11862
  8
0
 10
47.5114391910530927
 20
-28.395646112674509
 30
0.0
 11
47.5114391910530927
 21
-28.0019453252745087
 31
0.0
  0
LINE
  5
11863
  8
0
 10
49.5193132068530772
 20
-28.395646112674509
 30
0.0
 11
49.5193132068530772
 21
-28.0019453252745087
 31
0.0
  0
LINE
  5
11864
  8
0
 10
49.2043525769556993
 20
-28.0019453252745087
 30
0.0
 11
49.2043525769556993
 21
-26.6043075299745091
 31
0.0
  0
LINE
  5
11865
  8
0
 10
49.2043525769556993
 20
-26.5688744590745216
 30
0.0
 11
49.2043525769556993
 21
-25.23845847664521
 31
0.0
  0
ARC
  5
11866
  8
0
 10
49.1846674951827225
 20
-25.2384584769347313
 30
0.0
 40
0.0196850817729775
 50
0.0000008426837391
 51
89.7054414882521769
  0
ARC
  5
11867
  8
0
 10
-4732.9487927214468073
 20
-930192.0224299686960876
 30
0.0
 40
930179.0964247698429972
 50
89.7054359980850649
 51
89.705631560080306
  0
ARC
  5
11868
  8
0
 10
46.009898900352141
 20
-25.2221262173559992
 30
0.0
 40
0.0196651953035639
 50
180.0071091889986121
 51
190.2199208573887859
  0
ARC
  5
11869
  8
0
 10
46.0099026754693199
 20
-25.2221256524813704
 30
0.0
 40
0.0196689704989077
 50
89.9417443371791734
 51
180.0087533062373097
  0
ARC
  5
1186A
  8
0
 10
46.2661243862408469
 20
-25.1790456545120804
 30
0.0
 40
0.2794858523332843
 50
189.5917234993220006
 51
206.9381631120818952
  0
ARC
  5
1186B
  8
0
 10
46.2145444998608781
 20
-25.1971268427273287
 30
0.0
 40
0.2254278406323066
 50
208.7806295682142093
 51
241.1950262471322048
  0
ARC
  5
1186C
  8
0
 10
46.3704884108559483
 20
-24.8545712378908306
 30
0.0
 40
0.6014068794297983
 50
243.9021953306570083
 51
263.843344875115406
  0
ARC
  5
1186D
  8
0
 10
46.7236872137717896
 20
-20.8050510492777505
 30
0.0
 40
4.6661912804915611
 50
264.8642456814262118
 51
268.8335824847252979
  0
ARC
  5
1186E
  8
0
 10
45.4158310339246327
 20
-68.402590024570344
 30
0.0
 40
42.9494433957522403
 50
87.7446719969606761
 51
88.3817828092259532
  0
ARC
  5
1186F
  8
0
 10
47.1177206841092868
 20
-26.5954632168088985
 30
0.0
 40
1.109108973189725
 50
70.9703730949905349
 51
90.6050232216948785
  0
ARC
  5
11870
  8
0
 10
47.3499089045115724
 20
-25.9077441608652883
 30
0.0
 40
0.3832963586318566
 50
36.2323620123612002
 51
70.2623392666292688
  0
ARC
  5
11871
  8
0
 10
47.0769121441571485
 20
-26.1347640865542914
 30
0.0
 40
0.7380064505552242
 50
5.6723575321861288
 51
37.9221556328645093
  0
ARC
  5
11872
  8
0
 10
45.9408563022788385
 20
-26.3009353722810992
 30
0.0
 40
1.885670714683658
 50
359.2959507851462035
 51
7.2850999771699323
  0
ARC
  5
11873
  8
0
 10
-440.8551402704877091
 20
-26.4464901632085407
 30
0.0
 40
488.6815402512277728
 50
359.9856509748628923
 51
0.0143490251370615
  0
LINE
  5
11874
  8
0
 10
47.8263846559172094
 20
-26.5688744590745216
 30
0.0
 11
49.2043525769556993
 21
-26.5688744590745216
 31
0.0
  0
LINE
  5
11875
  8
0
 10
49.2043525769556993
 20
-26.6043075299745091
 30
0.0
 11
47.8263998209530783
 21
-26.6043075299745091
 31
0.0
  0
LINE
  5
11876
  8
0
 10
47.8263998209530783
 20
-26.6043075299745091
 30
0.0
 11
47.8263998209530783
 21
-28.0019453252745087
 31
0.0
  0
LINE
  5
11877
  8
0
 10
49.0960848603530877
 20
-26.6043075299745091
 30
0.0
 11
49.0960848603530877
 21
-26.5688744590745216
 31
0.0
  0
LINE
  5
11878
  8
0
 10
47.9346675375530822
 20
-26.5688744590745216
 30
0.0
 11
47.9346675375530822
 21
-26.6043075299745091
 31
0.0
  0
ENDSEC
  0
EOF
