  0
SECTION
  2
HEADER
  9
$ACADVER
  1
AC1009
  9
$INSBASE
 10
131.3795778958445055
 20
-14.1656353630841902
 30
0.0
  9
$EXTMIN
 10
116.5582996058137013
 20
-17.0776346413428683
 30
0.0
  9
$EXTMAX
 10
133.8275953036180113
 20
-4.115840979565716
 30
0.0
  9
$LIMMIN
 10
0.0
 20
0.0
  9
$LIMMAX
 10
11.6929133858000007
 20
8.2677165353999982
  9
$ORTHOMODE
 70
     0
  9
$REGENMODE
 70
     1
  9
$FILLMODE
 70
     1
  9
$QTEXTMODE
 70
     0
  9
$MIRRTEXT
 70
     0
  9
$DRAGMODE
 70
     2
  9
$LTSCALE
 40
0.6431102362
  9
$OSMODE
 70
  4095
  9
$ATTMODE
 70
     1
  9
$TEXTSIZE
 40
0.2
  9
$TRACEWID
 40
0.05
  9
$TEXTSTYLE
  7
STANDARD
  9
$CLAYER
  8
0
  9
$CELTYPE
  6
BYLAYER
  9
$CECOLOR
 62
   256
  9
$DIMSCALE
 40
1.0
  9
$DIMASZ
 40
0.1875
  9
$DIMEXO
 40
0.0625
  9
$DIMDLI
 40
0.4443307087
  9
$DIMRND
 40
0.0
  9
$DIMDLE
 40
0.0
  9
$DIMEXE
 40
0.125
  9
$DIMTP
 40
0.01
  9
$DIMTM
 40
0.01
  9
$DIMTXT
 40
1.0
  9
$DIMCEN
 40
0.1052362205
  9
$DIMTSZ
 40
0.0
  9
$DIMTOL
 70
     1
  9
$DIMLIM
 70
     0
  9
$DIMTIH
 70
     1
  9
$DIMTOH
 70
     1
  9
$DIMSE1
 70
     0
  9
$DIMSE2
 70
     0
  9
$DIMTAD
 70
     0
  9
$DIMZIN
 70
     0
  9
$DIMBLK
  1

  9
$DIMASO
 70
     1
  9
$DIMSHO
 70
     1
  9
$DIMPOST
  1
\X
  9
$DIMAPOST
  1

  9
$DIMALT
 70
     1
  9
$DIMALTD
 70
     2
  9
$DIMALTF
 40
25.3999999999999986
  9
$DIMLFAC
 40
1.0
  9
$DIMTOFL
 70
     0
  9
$DIMTVP
 40
0.0
  9
$DIMTIX
 70
     0
  9
$DIMSOXD
 70
     0
  9
$DIMSAH
 70
     0
  9
$DIMBLK1
  1

  9
$DIMBLK2
  1

  9
$DIMSTYLE
  2
STANDARD
  9
$DIMCLRD
 70
     0
  9
$DIMCLRE
 70
     0
  9
$DIMCLRT
 70
     0
  9
$DIMTFAC
 40
1.0
  9
$DIMGAP
 40
0.09
  9
$LUNITS
 70
     2
  9
$LUPREC
 70
     4
  9
$SKETCHINC
 40
0.1
  9
$FILLETRAD
 40
0.0
  9
$AUNITS
 70
     0
  9
$AUPREC
 70
     0
  9
$MENU
  1
.
  9
$ELEVATION
 40
0.0
  9
$PELEVATION
 40
0.0
  9
$THICKNESS
 40
0.0
  9
$LIMCHECK
 70
     0
  9
$BLIPMODE
 70
     0
  9
$CHAMFERA
 40
0.0
  9
$CHAMFERB
 40
0.0
  9
$SKPOLY
 70
     0
  9
$TDCREATE
 40
2458172.4620254631154239
  9
$TDUPDATE
 40
2459115.9830902782268822
  9
$TDINDWG
 40
0.1052952894
  9
$TDUSRTIMER
 40
0.1052952894
  9
$USRTIMER
 70
     1
  9
$ANGBASE
 50
0.0
  9
$ANGDIR
 70
     0
  9
$PDMODE
 70
     0
  9
$PDSIZE
 40
0.3125
  9
$PLINEWID
 40
0.0
  9
$COORDS
 70
     1
  9
$SPLFRAME
 70
     0
  9
$SPLINETYPE
 70
     6
  9
$SPLINESEGS
 70
     8
  9
$ATTDIA
 70
     1
  9
$ATTREQ
 70
     1
  9
$HANDLING
 70
     1
  9
$HANDSEED
  5
11D8E
  9
$SURFTAB1
 70
     6
  9
$SURFTAB2
 70
     6
  9
$SURFTYPE
 70
     6
  9
$SURFU
 70
     6
  9
$SURFV
 70
     6
  9
$UCSNAME
  2

  9
$UCSORG
 10
0.0
 20
0.0
 30
0.0
  9
$UCSXDIR
 10
1.0
 20
0.0
 30
0.0
  9
$UCSYDIR
 10
0.0
 20
1.0
 30
0.0
  9
$PUCSNAME
  2

  9
$PUCSORG
 10
0.0
 20
0.0
 30
0.0
  9
$PUCSXDIR
 10
1.0
 20
0.0
 30
0.0
  9
$PUCSYDIR
 10
0.0
 20
1.0
 30
0.0
  9
$USERI1
 70
     0
  9
$USERI2
 70
     0
  9
$USERI3
 70
     0
  9
$USERI4
 70
     0
  9
$USERI5
 70
     0
  9
$USERR1
 40
0.0
  9
$USERR2
 40
0.0
  9
$USERR3
 40
0.0
  9
$USERR4
 40
0.0
  9
$USERR5
 40
0.0
  9
$WORLDVIEW
 70
     1
  9
$SHADEDGE
 70
     3
  9
$SHADEDIF
 70
    70
  9
$TILEMODE
 70
     1
  9
$MAXACTVP
 70
    64
  9
$PLIMCHECK
 70
     0
  9
$PEXTMIN
 10
1.0000000000000000E+20
 20
1.0000000000000000E+20
 30
1.0000000000000000E+20
  9
$PEXTMAX
 10
-1.0000000000000000E+20
 20
-1.0000000000000000E+20
 30
-1.0000000000000000E+20
  9
$PLIMMIN
 10
0.0
 20
0.0
  9
$PLIMMAX
 10
12.0
 20
9.0
  9
$UNITMODE
 70
     0
  9
$VISRETAIN
 70
     1
  9
$PLINEGEN
 70
     0
  9
$PSLTSCALE
 70
     1
  0
ENDSEC
  0
SECTION
  2
TABLES
  0
TABLE
  2
VPORT
 70
     1
  0
VPORT
  2
*ACTIVE
 70
     0
 10
0.0
 20
0.0
 11
1.0
 21
1.0
 12
6.2914321301393841
 22
-24.4931235508029488
 13
0.0
 23
0.0
 14
1.0
 24
1.0
 15
0.0
 25
0.0
 16
0.0
 26
0.0
 36
30.6214257250603907
 17
124.6111586000725993
 27
5.3122741703778242
 37
0.0
 40
45.583458584610689
 41
2.005224660397074
 42
50.0
 43
0.0
 44
0.0
 50
0.0
 51
0.0
 71
     0
 72
   100
 73
     1
 74
     1
 75
     0
 76
     0
 77
     0
 78
     1
  0
ENDTAB
  0
TABLE
  2
LTYPE
 70
     2
  0
LTYPE
  2
CONTINUOUS
 70
     0
  3
Solid line
 72
    65
 73
     0
 40
0.0
  0
LTYPE
  2
PHANTOM2
 70
     0
  3
___ _ _ ___ _ _ ___ _ _ ___ _ _
 72
    65
 73
     6
 40
1.25
 49
0.625
 49
-0.125
 49
0.125
 49
-0.125
 49
0.125
 49
-0.125
  0
ENDTAB
  0
TABLE
  2
LAYER
 70
     2
  0
LAYER
  2
0
 70
     0
 62
   255
  6
CONTINUOUS
  0
LAYER
  2
DEFPOINTS
 70
     0
 62
     7
  6
CONTINUOUS
  0
ENDTAB
  0
TABLE
  2
STYLE
 70
     1
  0
STYLE
  2
STANDARD
 70
     0
 40
0.0
 41
0.8
 50
0.0
 71
     0
 42
0.2
  3
txt
  4

  0
ENDTAB
  0
TABLE
  2
VIEW
 70
     0
  0
ENDTAB
  0
TABLE
  2
UCS
 70
     0
  0
ENDTAB
  0
TABLE
  2
APPID
 70
     9
  0
APPID
  2
ACAD
 70
     0
  0
APPID
  2
ACAD_MLEADERVER
 70
     0
  0
APPID
  2
ACAD_EXEMPT_FROM_CAD_STANDARDS
 70
     0
  0
APPID
  2
ACAD_DSTYLE_DIMJAG
 70
     0
  0
APPID
  2
ACAD_DSTYLE_DIMTALN
 70
     0
  0
APPID
  2
ACAD_NAV_VCDISPLAY
 70
     0
  0
APPID
  2
ACAECLAYERSTANDARD
 70
     0
  0
APPID
  2
ACCMTRANSPARENCY
 70
     0
  0
APPID
  2
ACDBATTR
 70
     0
  0
ENDTAB
  0
TABLE
  2
DIMSTYLE
 70
     1
  0
DIMSTYLE
  2
STANDARD
 70
     0
  3

  4

  5

  6

  7

 40
1.0
 41
0.1875
 42
0.0625
 43
0.38
 44
0.125
 45
0.0
 46
0.0
 47
0.01
 48
0.01
140
0.15625
141
0.09
142
0.0
143
25.3999999999999986
144
1.0
145
0.0
146
1.0
147
0.09
 71
     1
 72
     0
 73
     1
 74
     1
 75
     0
 76
     0
 77
     0
 78
     4
170
     0
171
     2
172
     0
173
     0
174
     0
175
     0
176
     0
177
     0
178
     0
  0
ENDTAB
  0
ENDSEC
  0
SECTION
  2
BLOCKS
  0
BLOCK
  8
0
  2
$MODEL_SPACE
 70
     0
 10
0.0
 20
0.0
 30
0.0
  3
$MODEL_SPACE
  1

  0
ENDBLK
  5
21
  8
0
  0
BLOCK
 67
     1
  8
0
  2
$PAPER_SPACE
 70
     0
 10
0.0
 20
0.0
 30
0.0
  3
$PAPER_SPACE
  1

  0
ENDBLK
  5
1D
 67
     1
  8
0
  0
BLOCK
  8
0
  2
_FILLED
 70
     0
 10
0.0
 20
0.0
 30
0.0
  3
_FILLED
  1

  0
SOLID
  5
ADD3
  8
0
  6
BYBLOCK
 62
     0
 10
0.0
 20
0.0
 30
0.0
 11
-1.0
 21
0.1666666667
 31
0.0
 12
-1.0
 22
-0.1666666667
 32
0.0
 13
-1.0
 23
-0.1666666667
 33
0.0
  0
ENDBLK
  5
ADD4
  8
0
  6
BYBLOCK
 62
     0
  0
ENDSEC
  0
SECTION
  2
ENTITIES
  0
ATTDEF
  5
CC49
  8
DEFPOINTS
 10
131.3820734187644064
 20
-14.1618707963269603
 30
0.0
 40
0.001
  1
K-98951T-L
  3

  2
MODELNUMBER
 70
     0
1001
ACDBATTR
1070
     0
1070
     1
  0
ATTDEF
  5
CC4A
  8
DEFPOINTS
 10
131.3820734187644064
 20
-14.1635374629936202
 30
0.0
 40
0.001
  1
RAINDUET
  3

  2
TRADENAME
 70
     0
1001
ACDBATTR
1070
     0
1070
     1
  0
ATTDEF
  5
CC4B
  8
DEFPOINTS
 10
131.3820734187644064
 20
-14.1652041296602906
 30
0.0
 40
0.001
  1
HAND SHOWER
  3

  2
PRODUCT
 70
     0
1001
ACDBATTR
1070
     0
1070
     1
  0
ARC
  5
11ACD
  8
0
 10
14.54212754449334
 20
-15.0132269006747201
 30
0.0
 40
116.3580821221694066
 50
0.6304376778998455
 51
2.824058957987845
  0
ARC
  5
11ACE
  8
0
 10
129.8550267952157924
 20
-5.3347062572571096
 30
0.0
 40
0.773063209643389
 50
90.0747745866044909
 51
106.3527624312266937
  0
ARC
  5
11ACF
  8
0
 10
129.8484594840718103
 20
-4.6647632495583116
 30
0.0
 40
0.1032692415788267
 50
47.4582663928723321
 51
86.914592229378357
  0
ARC
  5
11AD0
  8
0
 10
125.0866087710726049
 20
-8.4785540348892994
 30
0.0
 40
6.2029205302494548
 50
14.1443790239149703
 51
38.8368032886054309
  0
ARC
  5
11AD1
  8
0
 10
110.6711365336282
 20
-13.0273434023699206
 30
0.0
 40
21.3114476489844584
 50
13.0488900176706597
 51
16.53307590215449
  0
ARC
  5
11AD2
  8
0
 10
114.3822883141309035
 20
-11.6041474403021798
 30
0.0
 40
17.3834501348218389
 50
2.2499183980746058
 51
11.2406269560233305
  0
ARC
  5
11AD3
  8
0
 10
-7.232020187561246
 20
-17.9494674650212112
 30
0.0
 40
139.1619242347265981
 50
1.736725987746214
 51
2.8947048666903412
  0
ARC
  5
11AD4
  8
0
 10
129.8836604800710006
 20
-5.4431784326339994
 30
0.0
 40
0.8852144310586623
 50
106.1543763523345945
 51
120.377305531247103
  0
ARC
  5
11AD5
  8
0
 10
129.4767726736588997
 20
-4.7490251516083708
 30
0.0
 40
0.0805987062772547
 50
120.3773055312461935
 51
172.2626963612034956
  0
LINE
  5
11AD6
  8
0
 10
129.3969077577403937
 20
-4.7381740383522191
 30
0.0
 11
129.3834808573894861
 21
-4.8476317934642728
 31
0.0
  0
ARC
  5
11AD7
  8
0
 10
129.3991281498402941
 20
-4.8494100453522
 30
0.0
 40
0.0157480314999591
 50
173.6000315476343872
 51
193.8455961491168864
  0
ARC
  5
11AD8
  8
0
 10
130.7190109234404076
 20
-9.2834178165522072
 30
0.0
 40
0.0400031436999985
 50
4.3831900778029249
 51
77.6145011466006025
  0
ARC
  5
11AD9
  8
0
 10
130.7447850977412998
 20
-9.1660485182398546
 30
0.0
 40
0.0801628258888624
 50
219.6100589147391986
 51
257.6145011465998209
  0
LINE
  5
11ADA
  8
0
 10
130.6830275505415102
 20
-9.2171570695629796
 30
0.0
 11
130.6108757360404127
 21
-9.1281007109522179
 31
0.0
  0
ARC
  5
11ADB
  8
0
 10
130.6232161783902939
 20
-9.1183212975745747
 30
0.0
 40
0.015745556032824
 50
195.998632860380809
 51
218.4823469246412913
  0
LINE
  5
11ADC
  8
0
 10
130.6081567146945872
 20
-9.1229470718083032
 30
0.0
 11
129.3839139305860897
 21
-4.85346471909613
 31
0.0
  0
LINE
  5
11ADD
  8
0
 10
129.3922035763596057
 20
-4.8823744229549311
 30
0.0
 11
129.3846757764023891
 21
-4.8845762507340851
 31
0.0
  0
ARC
  5
11ADE
  8
0
 10
129.387991787152913
 20
-4.8959133161586124
 30
0.0
 40
0.0118120692403003
 50
106.3038214347700006
 51
180.2936818055109995
  0
LINE
  5
11ADF
  8
0
 10
129.3761798730812131
 20
-4.8959738611875991
 30
0.0
 11
129.381604453554786
 21
-5.1818507332407933
 31
0.0
  0
LINE
  5
11AE0
  8
0
 10
129.3803926239399118
 20
-5.1180499172404899
 30
0.0
 11
129.3291506771386139
 21
-5.1408644949110558
 31
0.0
  0
ARC
  5
11AE1
  8
0
 10
129.3387592039856031
 20
-5.1624454169267358
 30
0.0
 40
0.0236232932339083
 50
114.0001801594613937
 51
195.9656882310192998
  0
LINE
  5
11AE2
  8
0
 10
129.3160471417292001
 20
-5.1689432789810246
 30
0.0
 11
129.3574572366534881
 21
-5.3136845255799576
 31
0.0
  0
ARC
  5
11AE3
  8
0
 10
129.3801330251745867
 20
-5.3071970413471874
 30
0.0
 40
0.0235855641595388
 50
195.9656882310104038
 51
274.3549279477359732
  0
LINE
  5
11AE4
  8
0
 10
129.3819239871403965
 20
-5.330714509152215
 30
0.0
 11
129.4038119595404055
 21
-5.329159100952217
 31
0.0
  0
ARC
  5
11AE5
  8
0
 10
129.403782942886096
 20
-5.3287975073218163
 30
0.0
 40
0.0003636475115623
 50
274.5833264319340969
 51
311.6718293723160969
  0
ARC
  5
11AE6
  8
0
 10
129.3850453296525131
 20
-5.3221083603466894
 30
0.0
 40
0.0202155794830901
 50
339.8592535740776839
 51
358.5426841511073235
  0
ARC
  5
11AE7
  8
0
 10
128.5808319150112879
 20
-5.2966851869761049
 30
0.0
 40
0.8248303634521391
 50
358.19800175355482
 51
8.4362980371375631
  0
ARC
  5
11AE8
  8
0
 10
129.3962524032010037
 20
-5.1758911719156231
 30
0.0
 40
0.0005310589661018
 50
24.0730261178477782
 51
115.2123459201525009
  0
LINE
  5
11AE9
  8
0
 10
129.396026185755602
 20
-5.1754107041301287
 30
0.0
 11
129.3454997311100101
 21
-5.1979785688382441
 31
0.0
  0
ARC
  5
11AEA
  8
0
 10
129.3552708916035954
 20
-5.2196893490786058
 30
0.0
 40
0.0238082665483258
 50
114.2306188748871989
 51
192.0418772108990879
  0
ARC
  5
11AEB
  8
0
 10
-30968.795257545021741
 20
-8922.8973777076171245
 30
0.0
 40
32352.2211409195515444
 50
15.9934601238658303
 51
16.0015255747368705
  0
ARC
  5
11AEC
  8
0
 10
131.3495144594571116
 20
-8.9159650038058587
 30
0.0
 40
0.1832436956082987
 50
195.993460123866214
 51
220.7940095806349063
  0
ARC
  5
11AED
  8
0
 10
131.0211587407698062
 20
-9.199334153439608
 30
0.0
 40
0.2504792032094022
 50
3.8907585268219012
 51
40.7940095806348566
  0
ARC
  5
11AEE
  8
0
 10
129.6693609437583063
 20
-9.2912714338903655
 30
0.0
 40
1.6053997719298929
 50
358.8055663707207259
 51
3.8907585268219012
  0
ARC
  5
11AEF
  8
0
 10
63.3165607680136873
 20
-14.5239079354591993
 30
0.0
 40
68.1564443932425377
 50
0.6487332215485444
 51
4.3749384632889488
  0
LINE
  5
11AF0
  8
0
 10
130.5998669088629924
 20
-9.0940368097549324
 30
0.0
 11
130.5243602251404127
 21
-9.1152607814522142
 31
0.0
  0
ARC
  5
11AF1
  8
0
 10
127.5668278553156938
 20
-9.9848847740318405
 30
0.0
 40
3.082733139120398
 50
13.6441355459028202
 51
16.385288238899431
  0
ARC
  5
11AF2
  8
0
 10
130.1427401764078979
 20
-9.3739526687744288
 30
0.0
 40
0.43562409008121
 50
4.2539982686537776
 51
15.47825399697326
  0
ARC
  5
11AF3
  8
0
 10
130.2905142340709119
 20
-9.3675911224361315
 30
0.0
 40
0.2878223036051024
 50
337.8877061297012006
 51
5.1732423484293406
  0
ARC
  5
11AF4
  8
0
 10
130.4332440925790024
 20
-9.424016483147561
 30
0.0
 40
0.1343585637075929
 50
304.8808092423872154
 51
337.2686517545737956
  0
ARC
  5
11AF5
  8
0
 10
130.4356879865796941
 20
-9.3612222061994643
 30
0.0
 40
0.1883299025164113
 50
236.3329443244141999
 51
293.2664970476515123
  0
ARC
  5
11AF6
  8
0
 10
130.4590079804063123
 20
-9.2604162622940436
 30
0.0
 40
0.2874790928819728
 50
182.7114072535374021
 51
243.62216746938401
  0
ARC
  5
11AF7
  8
0
 10
130.805135087758714
 20
-9.2912322872500184
 30
0.0
 40
0.6335183480832867
 50
148.5098457295746925
 51
178.4427165490290008
  0
ARC
  5
11AF8
  8
0
 10
128.6662968589529044
 20
-8.1719228783056295
 30
0.0
 40
1.782452954079222
 50
333.7488880204502948
 51
337.4216437499371182
  0
ARC
  5
11AF9
  8
0
 10
152.3659108352084957
 20
-16.4596380332820402
 30
0.0
 40
23.3276653095006914
 50
160.7272647745409131
 51
160.9776494445646051
  0
LINE
  5
11AFA
  8
0
 10
129.4425519693403999
 20
-5.3436256684522121
 30
0.0
 11
129.3935171135474036
 21
-5.365719454355748
 31
0.0
  0
ARC
  5
11AFB
  8
0
 10
129.4032237243370957
 20
-5.38726226564141
 30
0.0
 40
0.0236286057800747
 50
114.2550450332169021
 51
197.2800139148484959
  0
LINE
  5
11AFC
  8
0
 10
129.3806616081404002
 20
-5.3942809495522184
 30
0.0
 11
129.4049577805510864
 21
-5.479011998035765
 31
0.0
  0
ARC
  5
11AFD
  8
0
 10
129.4285755731297911
 20
-5.4743883450226463
 30
0.0
 40
0.0240661233578888
 50
191.0766992407968132
 51
273.5976458329644743
  0
LINE
  5
11AFE
  8
0
 10
129.4300857106404123
 20
-5.498407041452217
 30
0.0
 11
129.4525129042586968
 21
-5.4967420688805291
 31
0.0
  0
ARC
  5
11AFF
  8
0
 10
129.4520558196321929
 20
-5.4842615269997088
 30
0.0
 40
0.012488909159518
 50
272.0974506173100735
 51
276.7341051177539271
  0
ARC
  5
11B00
  8
0
 10
129.4532739386455944
 20
-5.4954210637072762
 30
0.0
 40
0.0012673854712654
 50
281.2084974645107991
 51
313.416354777408003
  0
ARC
  5
11B01
  8
0
 10
129.4101032831547116
 20
-5.4781989792899557
 30
0.0
 40
0.0476322414240848
 50
337.6111237314758
 51
0.4019325219773357
  0
ARC
  5
11B02
  8
0
 10
128.8858178659326086
 20
-5.4586200924512047
 30
0.0
 40
0.5722401838258684
 50
358.0727485046169818
 51
9.6617129721893917
  0
ARC
  5
11B03
  8
0
 10
129.3843684654956121
 20
-5.3725901562916709
 30
0.0
 40
0.0663324005626309
 50
8.6790451781855005
 51
24.84857804107234
  0
ARC
  5
11B04
  8
0
 10
129.4429298730073867
 20
-5.3453236356369578
 30
0.0
 40
0.0017396652781199
 50
20.4487572911052702
 51
102.5164051731719042
  0
LINE
  5
11B05
  8
0
 10
129.4234362425648897
 20
-5.5134256872234237
 30
0.0
 11
129.3744013867718934
 21
-5.5355194731269526
 31
0.0
  0
ARC
  5
11B06
  8
0
 10
129.3841079975615003
 20
-5.5570622844126163
 30
0.0
 40
0.0236286057800747
 50
114.2550450332169021
 51
197.2800139148484959
  0
LINE
  5
11B07
  8
0
 10
129.36154588136489
 20
-5.5640809683234229
 30
0.0
 11
129.385842053775491
 21
-5.6488120168069713
 31
0.0
  0
ARC
  5
11B08
  8
0
 10
129.4094598463543093
 20
-5.6441883637938508
 30
0.0
 40
0.0240661233578888
 50
191.0766992407968132
 51
273.5976458329644743
  0
LINE
  5
11B09
  8
0
 10
129.4109699838649021
 20
-5.6682070602234234
 30
0.0
 11
129.4333971774831866
 21
-5.6665420876517407
 31
0.0
  0
ARC
  5
11B0A
  8
0
 10
129.4329400928565974
 20
-5.6540615457709222
 30
0.0
 40
0.012488909159518
 50
272.0974506173100735
 51
276.7341051177539271
  0
ARC
  5
11B0B
  8
0
 10
129.4341582118699989
 20
-5.6652210824784879
 30
0.0
 40
0.0012673854712654
 50
281.2084974645107991
 51
313.416354777408003
  0
ARC
  5
11B0C
  8
0
 10
129.3909875563792014
 20
-5.6479989980611691
 30
0.0
 40
0.0476322414240848
 50
337.6111237314758
 51
0.4019325219773357
  0
ARC
  5
11B0D
  8
0
 10
128.8667021391570984
 20
-5.6284201112224181
 30
0.0
 40
0.5722401838258684
 50
358.0727485046169818
 51
9.6617129721893917
  0
ARC
  5
11B0E
  8
0
 10
129.3652527387201019
 20
-5.5423901750628772
 30
0.0
 40
0.0663324005626309
 50
8.6790451781855005
 51
24.84857804107234
  0
ARC
  5
11B0F
  8
0
 10
129.4238141462319049
 20
-5.5151236544081712
 30
0.0
 40
0.0017396652781199
 50
20.4487572911052702
 51
102.5164051731719042
  0
LINE
  5
11B10
  8
0
 10
129.5196047951442893
 20
-5.6123401154924224
 30
0.0
 11
129.4705699393514067
 21
-5.6344339013959441
 31
0.0
  0
ARC
  5
11B11
  8
0
 10
129.4802765501410136
 20
-5.6559767126816141
 30
0.0
 40
0.0236286057800747
 50
114.2550450332169021
 51
197.2800139148484959
  0
LINE
  5
11B12
  8
0
 10
129.4577144339444033
 20
-5.6629953965924136
 30
0.0
 11
129.4820106063550043
 21
-5.7477264450759611
 31
0.0
  0
ARC
  5
11B13
  8
0
 10
129.5056283989337089
 20
-5.7431027920628486
 30
0.0
 40
0.0240661233578888
 50
191.0766992407968132
 51
273.5976458329644743
  0
LINE
  5
11B14
  8
0
 10
129.5071385364443017
 20
-5.767121488492414
 30
0.0
 11
129.5311978319946036
 21
-5.7650561123251398
 31
0.0
  0
ARC
  5
11B15
  8
0
 10
129.5165515095775106
 20
-5.7484368502794041
 30
0.0
 40
0.0221520796154532
 50
311.3892749023555098
 51
3.8154125317152019
  0
ARC
  5
11B16
  8
0
 10
129.1685490041537037
 20
-5.7258512267944113
 30
0.0
 40
0.3707071218948299
 50
356.7352695496905994
 51
14.7777122177338995
  0
ARC
  5
11B17
  8
0
 10
129.4614212912995015
 20
-5.641304603331867
 30
0.0
 40
0.0663324005626309
 50
8.6790451781855005
 51
24.84857804107234
  0
ARC
  5
11B18
  8
0
 10
129.5199826988113045
 20
-5.614038082677161
 30
0.0
 40
0.0017396652781199
 50
20.4487572911052702
 51
102.5164051731719042
  0
LINE
  5
11B19
  8
0
 10
129.4692574984514977
 20
-5.7032509594188587
 30
0.0
 11
129.4302963494513961
 21
-5.7208058042459484
 31
0.0
  0
ARC
  5
11B1A
  8
0
 10
129.4400029602410029
 20
-5.7423486155316112
 30
0.0
 40
0.0236286057800747
 50
114.2550450332169021
 51
197.2800139148484959
  0
LINE
  5
11B1B
  8
0
 10
129.4174408440443926
 20
-5.7493672994424179
 30
0.0
 11
129.4417370164549936
 21
-5.8340983479259663
 31
0.0
  0
ARC
  5
11B1C
  8
0
 10
129.465354809033812
 20
-5.8294746949128458
 30
0.0
 40
0.0240661233578888
 50
191.0766992407968132
 51
273.5976458329644743
  0
LINE
  5
11B1D
  8
0
 10
129.4668649465444048
 20
-5.8534933913424183
 30
0.0
 11
129.489292140162604
 21
-5.8518284187707286
 31
0.0
  0
ARC
  5
11B1E
  8
0
 10
129.4888350555361001
 20
-5.8393478768899101
 30
0.0
 40
0.012488909159518
 50
272.0974506173100735
 51
276.7341051177539271
  0
ARC
  5
11B1F
  8
0
 10
129.4900531745495869
 20
-5.8505074135974757
 30
0.0
 40
0.0012673854712654
 50
281.2084974645107991
 51
313.416354777408003
  0
ARC
  5
11B20
  8
0
 10
129.446882519058704
 20
-5.8332853291801561
 30
0.0
 40
0.0476322414240848
 50
337.6111237314758
 51
0.4019325219773357
  0
ARC
  5
11B21
  8
0
 10
128.922597101836601
 20
-5.8137064423414051
 30
0.0
 40
0.5722401838258684
 50
358.0727485046169818
 51
5.0486448499777179
  0
LINE
  5
11B22
  8
0
 10
129.4685551294552965
 20
-5.8532611833424459
 30
0.0
 11
129.4195202736623003
 21
-5.8753549692459819
 31
0.0
  0
ARC
  5
11B23
  8
0
 10
129.4292268844519072
 20
-5.8968977805316447
 30
0.0
 40
0.0236286057800747
 50
114.2550450332169021
 51
197.2800139148484959
  0
LINE
  5
11B24
  8
0
 10
129.4066647682552968
 20
-5.9039164644424531
 30
0.0
 11
129.4309609406660115
 21
-5.9886475129259997
 31
0.0
  0
ARC
  5
11B25
  8
0
 10
129.4545787332446878
 20
-5.9840238599128801
 30
0.0
 40
0.0240661233578888
 50
191.0766992407968132
 51
273.5976458329644743
  0
LINE
  5
11B26
  8
0
 10
129.456088870755309
 20
-6.0080425563424518
 30
0.0
 11
129.4785160643735935
 21
-6.0063775837707629
 31
0.0
  0
ARC
  5
11B27
  8
0
 10
129.4780589797470043
 20
-5.9938970418899444
 30
0.0
 40
0.012488909159518
 50
272.0974506173100735
 51
276.7341051177539271
  0
ARC
  5
11B28
  8
0
 10
129.4792770987604911
 20
-6.0050565785975101
 30
0.0
 40
0.0012673854712654
 50
281.2084974645107991
 51
313.416354777408003
  0
ARC
  5
11B29
  8
0
 10
129.4361064432696082
 20
-5.9878344941801913
 30
0.0
 40
0.0476322414240848
 50
337.6111237314758
 51
0.4019325219773357
  0
ARC
  5
11B2A
  8
0
 10
128.9118210260475053
 20
-5.9682556073414403
 30
0.0
 40
0.5722401838258684
 50
358.0727485046169818
 51
9.6617129721893917
  0
ARC
  5
11B2B
  8
0
 10
129.4103716256105088
 20
-5.8822256711819056
 30
0.0
 40
0.0663324005626309
 50
8.6790451781855005
 51
24.84857804107234
  0
ARC
  5
11B2C
  8
0
 10
129.4689330331223118
 20
-5.8549591505271934
 30
0.0
 40
0.0017396652781199
 50
20.4487572911052702
 51
102.5164051731719042
  0
LINE
  5
11B2D
  8
0
 10
129.6197658900910881
 20
-5.9637094959720889
 30
0.0
 11
129.5707310342982055
 21
-5.9858032818756248
 31
0.0
  0
ARC
  5
11B2E
  8
0
 10
129.5804376450878124
 20
-6.0073460931612876
 30
0.0
 40
0.0236286057800747
 50
114.2550450332169021
 51
197.2800139148484959
  0
LINE
  5
11B2F
  8
0
 10
129.5578755288912021
 20
-6.014364777072096
 30
0.0
 11
129.5821717013018883
 21
-6.0990958255556427
 31
0.0
  0
ARC
  5
11B30
  8
0
 10
129.605789493880593
 20
-6.094472172542523
 30
0.0
 40
0.0240661233578888
 50
191.0766992407968132
 51
273.5976458329644743
  0
LINE
  5
11B31
  8
0
 10
129.6072996313911858
 20
-6.1184908689720947
 30
0.0
 11
129.6297268250094987
 21
-6.1168258964004059
 31
0.0
  0
ARC
  5
11B32
  8
0
 10
129.6292697403829095
 20
-6.1043453545195874
 30
0.0
 40
0.012488909159518
 50
272.0974506173100735
 51
276.7341051177539271
  0
ARC
  5
11B33
  8
0
 10
129.6304878593963963
 20
-6.115504891227153
 30
0.0
 40
0.0012673854712654
 50
281.2084974645107991
 51
313.416354777408003
  0
ARC
  5
11B34
  8
0
 10
129.5873172039055135
 20
-6.0982828068098343
 30
0.0
 40
0.0476322414240848
 50
337.6111237314758
 51
0.4019325219773357
  0
ARC
  5
11B35
  8
0
 10
129.0630317866834105
 20
-6.0787039199710833
 30
0.0
 40
0.5722401838258684
 50
358.0727485046169818
 51
9.6617129721893917
  0
ARC
  5
11B36
  8
0
 10
129.5615823862463003
 20
-5.9926739838115486
 30
0.0
 40
0.0663324005626309
 50
8.6790451781855005
 51
24.84857804107234
  0
ARC
  5
11B37
  8
0
 10
129.6201437937581886
 20
-5.9654074631568363
 30
0.0
 40
0.0017396652781199
 50
20.4487572911052702
 51
102.5164051731719042
  0
LINE
  5
11B38
  8
0
 10
129.5085249536471963
 20
-6.0670154516327202
 30
0.0
 11
129.4807537975837022
 21
-6.0795283868996393
 31
0.0
  0
ARC
  5
11B39
  8
0
 10
129.4904604083733091
 20
-6.1010711981853021
 30
0.0
 40
0.0236286057800747
 50
114.2550450332169021
 51
197.2800139148484959
  0
LINE
  5
11B3A
  8
0
 10
129.4678982921766988
 20
-6.1080898820961087
 30
0.0
 11
129.4905458322496941
 21
-6.1947244462841899
 31
0.0
  0
ARC
  5
11B3B
  8
0
 10
129.5132659860030913
 20
-6.1882072724546111
 30
0.0
 40
0.0236363901918618
 50
196.0053000964900889
 51
277.9697757451045845
  0
LINE
  5
11B3C
  8
0
 10
129.5165431881096083
 20
-6.2116153669446561
 30
0.0
 11
129.5394467894599018
 21
-6.2083964757923482
 31
0.0
  0
ARC
  5
11B3D
  8
0
 10
127.8089504653299002
 20
6.1191404969523608
 30
0.0
 40
12.4484049316454808
 50
277.9907657063131978
 51
278.025925031905274
  0
ARC
  5
11B3E
  8
0
 10
129.5228442449779038
 20
-6.1951302844054013
 30
0.0
 40
0.027072676852361
 50
333.2106779667282126
 51
4.3679064263806611
  0
ARC
  5
11B3F
  8
0
 10
128.6954052080176893
 20
-6.2366154161060541
 30
0.0
 40
0.855542070728681
 50
2.9176098778351021
 51
7.9457164908980094
  0
LINE
  5
11B40
  8
0
 10
129.727938431261407
 20
-6.3783414821315878
 30
0.0
 11
129.6883469279227086
 21
-6.397134680944716
 31
0.0
  0
ARC
  5
11B41
  8
0
 10
129.6988677523526974
 20
-6.4182876807804021
 30
0.0
 40
0.0236249264281485
 50
116.4442804964586031
 51
192.8148954159188975
  0
LINE
  5
11B42
  8
0
 10
129.6758312821008872
 20
-6.4235277367984329
 30
0.0
 11
129.7015081234256115
 21
-6.5138873673704358
 31
0.0
  0
ARC
  5
11B43
  8
0
 10
129.7241309884904013
 20
-6.5052305279935823
 30
0.0
 40
0.0242226111668291
 50
200.939791576169597
 51
275.0586050020631887
  0
LINE
  5
11B44
  8
0
 10
129.7262668088725093
 20
-6.529358792809659
 30
0.0
 11
129.7588230945214036
 21
-6.5262949792269112
 31
0.0
  0
ARC
  5
11B45
  8
0
 10
129.7517047479610994
 20
-6.5143484839348602
 30
0.0
 40
0.0139064592012163
 50
300.7960845173619191
 51
358.5424953180099124
  0
ARC
  5
11B46
  8
0
 10
129.5004194123008006
 20
-6.5000915136756907
 30
0.0
 40
0.2655894839321432
 50
356.846435431685677
 51
22.6352500621013313
  0
ARC
  5
11B47
  8
0
 10
129.6972207599957017
 20
-6.4163217484423001
 30
0.0
 40
0.0517311325433281
 50
20.8898071646978494
 51
45.7382314327550574
  0
ARC
  5
11B48
  8
0
 10
129.729877595686105
 20
-6.3831359857529071
 30
0.0
 40
0.0051773603378235
 50
48.2387832353339405
 51
111.1021996897290052
  0
LINE
  5
11B49
  8
0
 10
129.6417249825497038
 20
-6.2965599012841897
 30
0.0
 11
129.6008619952013987
 21
-6.3156389007959461
 31
0.0
  0
ARC
  5
11B4A
  8
0
 10
129.6105686059910056
 20
-6.3371817120816081
 30
0.0
 40
0.0236286057800747
 50
114.2550450332169021
 51
197.2800139148484959
  0
LINE
  5
11B4B
  8
0
 10
129.5880064897943953
 20
-6.3442003959924156
 30
0.0
 11
129.61230266220511
 21
-6.4289314444759631
 31
0.0
  0
ARC
  5
11B4C
  8
0
 10
129.6352416501723042
 20
-6.4232608698646549
 30
0.0
 40
0.0236294855082089
 50
193.8852867135865949
 51
276.6539033746420841
  0
LINE
  5
11B4D
  8
0
 10
129.6379796377887885
 20
-6.4467311917455774
 30
0.0
 11
129.6702843939496859
 21
-6.4430220215841914
 31
0.0
  0
ARC
  5
11B4E
  8
0
 10
129.6590776627097057
 20
-6.4309812030482973
 30
0.0
 40
0.0164490770591919
 50
312.9451945663274159
 51
3.1862303338329521
  0
ARC
  5
11B4F
  8
0
 10
129.56933198614351
 20
-6.4211658464880719
 30
0.0
 40
0.1065418001268559
 50
355.2076075436773976
 51
358.7010890971232016
  0
ARC
  5
11B50
  8
0
 10
129.3282008841335937
 20
-6.4333949140042028
 30
0.0
 40
0.3480472176190101
 50
3.2430141850550531
 51
20.1472690038821405
  0
ARC
  5
11B51
  8
0
 10
129.6113373099427974
 20
-6.3285837498390896
 30
0.0
 40
0.0461435436329537
 50
19.0596021924086507
 51
42.6267995214102484
  0
ARC
  5
11B52
  8
0
 10
129.6428948324465011
 20
-6.2997635550632856
 30
0.0
 40
0.0034105639295139
 50
45.4175788333251589
 51
110.060229434311097
  0
LINE
  5
11B53
  8
0
 10
129.7760771575404135
 20
-6.9750158374522178
 30
0.0
 11
129.7412351880986989
 21
-6.9905284816228379
 31
0.0
  0
ARC
  5
11B54
  8
0
 10
129.7514698717417048
 20
-7.0135159575689201
 30
0.0
 40
0.0251629251010809
 50
113.9999998937242935
 51
192.9370879547022923
  0
LINE
  5
11B55
  8
0
 10
129.7269456702873924
 20
-7.0191494593814019
 30
0.0
 11
129.7514017782471001
 21
-7.1044380436979893
 31
0.0
  0
ARC
  5
11B56
  8
0
 10
129.7741437337404022
 20
-7.0980489369522237
 30
0.0
 40
0.0236220472000039
 50
195.9999999999772911
 51
269.9999999999828901
  0
ARC
  5
11B57
  8
0
 10
129.6093477485852077
 20
-5.7571450408745761
 30
0.0
 40
1.3744412561477499
 50
276.8863514264022001
 51
278.3768476390513911
  0
ARC
  5
11B58
  8
0
 10
129.7769878262085115
 20
-6.977414970982827
 30
0.0
 40
0.0025650286230612
 50
61.2972627885442307
 51
110.7928711014359067
  0
ARC
  5
11B59
  8
0
 10
129.6694613891228869
 20
-7.060988921661326
 30
0.0
 40
0.1385427688276366
 50
14.7776587143295401
 51
38.2778142895310722
  0
ARC
  5
11B5A
  8
0
 10
129.4116910498322
 20
-7.1556003112067748
 30
0.0
 40
0.4127222122109688
 50
11.3330306921382107
 51
18.3523044298020785
  0
LINE
  5
11B5B
  8
0
 10
129.8521706353403999
 20
-7.0576823922522181
 30
0.0
 11
129.8179436257472901
 21
-7.0737364529636286
 31
0.0
  0
ARC
  5
11B5C
  8
0
 10
129.8280093993207913
 20
-7.0951965268260864
 30
0.0
 40
0.0237034716405323
 50
115.1287634463159009
 51
195.7629064676007999
  0
LINE
  5
11B5D
  8
0
 10
129.8051973188404133
 20
-7.1016357466522129
 30
0.0
 11
129.8296204271738077
 21
-7.1881589478980947
 31
0.0
  0
ARC
  5
11B5E
  8
0
 10
129.8521307385134094
 20
-7.1818049091599496
 30
0.0
 40
0.0233899107499436
 50
195.7629064675963093
 51
278.5111375670591087
  0
LINE
  5
11B5F
  8
0
 10
129.8555924841404021
 20
-7.204937229452212
 30
0.0
 11
129.8948516933666895
 21
-7.2001377639731308
 31
0.0
  0
ARC
  5
11B60
  8
0
 10
129.8937957013810092
 20
-7.1953951538354266
 30
0.0
 40
0.0048587518965045
 50
282.5527357081472815
 51
347.5096575633870088
  0
ARC
  5
11B61
  8
0
 10
129.7510472551803957
 20
-7.1823597833943316
 30
0.0
 40
0.1481633255455278
 50
354.5445308654846031
 51
17.6279552051494193
  0
ARC
  5
11B62
  8
0
 10
129.624689378220296
 20
-7.2027248185998678
 30
0.0
 40
0.2754013876353667
 50
13.7018225088449501
 51
29.2153859641971891
  0
ARC
  5
11B63
  8
0
 10
129.8389185265370998
 20
-7.0829007301519118
 30
0.0
 40
0.0299386870670495
 50
29.1820530288056688
 51
57.4419816016872531
  0
ARC
  5
11B64
  8
0
 10
129.8536194915081126
 20
-7.0612243639024044
 30
0.0
 40
0.0038268456155674
 50
68.3696546647162506
 51
112.2471912354232018
  0
LINE
  5
11B65
  8
0
 10
129.9845008814482128
 20
-7.2868014508611187
 30
0.0
 11
129.9502738718551882
 21
-7.3028555115725382
 31
0.0
  0
ARC
  5
11B66
  8
0
 10
129.9603396454286042
 20
-7.3243155854349871
 30
0.0
 40
0.0237034716405323
 50
115.1287634463159009
 51
195.7629064676007999
  0
LINE
  5
11B67
  8
0
 10
129.9375275649481978
 20
-7.3307548052611224
 30
0.0
 11
129.9619506732815921
 21
-7.4172780065069972
 31
0.0
  0
ARC
  5
11B68
  8
0
 10
129.9844609846211938
 20
-7.4109239677688592
 30
0.0
 40
0.0233899107499436
 50
195.7629064675963093
 51
278.5111375670591087
  0
LINE
  5
11B69
  8
0
 10
129.9879227302481866
 20
-7.4340562880611207
 30
0.0
 11
130.0271819394745023
 21
-7.4292568225820332
 31
0.0
  0
ARC
  5
11B6A
  8
0
 10
130.0261259474889073
 20
-7.4245142124443291
 30
0.0
 40
0.0048587518965045
 50
282.5527357081472815
 51
347.5096575633870088
  0
ARC
  5
11B6B
  8
0
 10
129.8833775012882938
 20
-7.4114788420032411
 30
0.0
 40
0.1481633255455278
 50
354.5445308654846031
 51
17.6279552051494193
  0
ARC
  5
11B6C
  8
0
 10
129.7570196243281089
 20
-7.4318438772087703
 30
0.0
 40
0.2754013876353667
 50
13.7018225088449501
 51
29.2153859641971891
  0
ARC
  5
11B6D
  8
0
 10
129.9712487726449126
 20
-7.3120197887608143
 30
0.0
 40
0.0299386870670495
 50
29.1820530288056688
 51
57.4419816016872531
  0
ARC
  5
11B6E
  8
0
 10
129.985949737615897
 20
-7.2903434225113131
 30
0.0
 40
0.0038268456155674
 50
68.3696546647162506
 51
112.2471912354232018
  0
LINE
  5
11B6F
  8
0
 10
129.8663654005889043
 20
-7.3073235301855703
 30
0.0
 11
129.8321383909957945
 21
-7.323377590896988
 31
0.0
  0
ARC
  5
11B70
  8
0
 10
129.8422041645692957
 20
-7.3448376647594378
 30
0.0
 40
0.0237034716405323
 50
115.1287634463159009
 51
195.7629064676007999
  0
LINE
  5
11B71
  8
0
 10
129.8193920840888893
 20
-7.3512768845855732
 30
0.0
 11
129.8438151924221984
 21
-7.437800085831447
 31
0.0
  0
ARC
  5
11B72
  8
0
 10
129.8663255037618001
 20
-7.431446047093309
 30
0.0
 40
0.0233899107499436
 50
195.7629064675963093
 51
278.5111375670591087
  0
LINE
  5
11B73
  8
0
 10
129.8697872493889065
 20
-7.4545783673855723
 30
0.0
 11
129.9090464586151938
 21
-7.4497789019064831
 31
0.0
  0
ARC
  5
11B74
  8
0
 10
129.9079904666295135
 20
-7.4450362917687789
 30
0.0
 40
0.0048587518965045
 50
282.5527357081472815
 51
347.5096575633870088
  0
ARC
  5
11B75
  8
0
 10
129.7652420204289001
 20
-7.432000921327691
 30
0.0
 40
0.1481633255455278
 50
354.5445308654846031
 51
17.6279552051494193
  0
ARC
  5
11B76
  8
0
 10
129.6388841434688004
 20
-7.4523659565332201
 30
0.0
 40
0.2754013876353667
 50
13.7018225088449501
 51
29.2153859641971891
  0
ARC
  5
11B77
  8
0
 10
129.8531132917854904
 20
-7.3325418680852641
 30
0.0
 40
0.0299386870670495
 50
29.1820530288056688
 51
57.4419816016872531
  0
ARC
  5
11B78
  8
0
 10
129.8678142567565885
 20
-7.3108655018357629
 30
0.0
 40
0.0038268456155674
 50
68.3696546647162506
 51
112.2471912354232018
  0
LINE
  5
11B79
  8
0
 10
129.9615235782846128
 20
-7.4427771716508104
 30
0.0
 11
129.9272965686915882
 21
-7.458831232362221
 31
0.0
  0
ARC
  5
11B7A
  8
0
 10
129.9373623422650041
 20
-7.4802913062246779
 30
0.0
 40
0.0237034716405323
 50
115.1287634463159009
 51
195.7629064676007999
  0
LINE
  5
11B7B
  8
0
 10
129.9145502617845978
 20
-7.4867305260508061
 30
0.0
 11
129.9389733701179921
 21
-7.5732537272966871
 31
0.0
  0
ARC
  5
11B7C
  8
0
 10
129.9614836814575938
 20
-7.566899688558542
 30
0.0
 40
0.0233899107499436
 50
195.7629064675963093
 51
278.5111375670591087
  0
LINE
  5
11B7D
  8
0
 10
129.9649454270845865
 20
-7.5900320088508053
 30
0.0
 11
130.0042046363109023
 21
-7.585232543371724
 31
0.0
  0
ARC
  5
11B7E
  8
0
 10
130.0031486443251936
 20
-7.580489933234019
 30
0.0
 40
0.0048587518965045
 50
282.5527357081472815
 51
347.5096575633870088
  0
ARC
  5
11B7F
  8
0
 10
129.8604001981246938
 20
-7.5674545627929239
 30
0.0
 40
0.1481633255455278
 50
354.5445308654846031
 51
17.6279552051494193
  0
ARC
  5
11B80
  8
0
 10
129.7340423211645088
 20
-7.5878195979984611
 30
0.0
 40
0.2754013876353667
 50
13.7018225088449501
 51
29.2153859641971891
  0
ARC
  5
11B81
  8
0
 10
129.9482714694813126
 20
-7.4679955095505051
 30
0.0
 40
0.0299386870670495
 50
29.1820530288056688
 51
57.4419816016872531
  0
ARC
  5
11B82
  8
0
 10
129.962972434452297
 20
-7.4463191433009959
 30
0.0
 40
0.0038268456155674
 50
68.3696546647162506
 51
112.2471912354232018
  0
ARC
  5
11B83
  8
0
 10
130.1431155390218919
 20
-8.3848057367095414
 30
0.0
 40
0.0236220470797417
 50
195.9999997626547952
 51
278.000000176921219
  0
LINE
  5
11B84
  8
0
 10
130.1464030926373141
 20
-8.4081978956407646
 30
0.0
 11
130.1785525499496998
 21
-8.4036795840841911
 31
0.0
  0
LINE
  5
11B85
  8
0
 10
130.2922687839497087
 20
-8.4178839400841916
 30
0.0
 11
130.2705474220497024
 21
-8.4292488119841913
 31
0.0
  0
ARC
  5
11B86
  8
0
 10
130.2826447145143902
 20
-8.4511152616825456
 30
0.0
 40
0.0249897200342185
 50
118.9529183818412008
 51
205.3821388027479884
  0
LINE
  5
11B87
  8
0
 10
130.2600672780496893
 20
-8.4618271928841935
 30
0.0
 11
130.2839069114496908
 21
-8.5442710888841944
 31
0.0
  0
ARC
  5
11B88
  8
0
 10
130.3072753200546003
 20
-8.5372782836967662
 30
0.0
 40
0.0243922496935684
 50
196.6593823881549099
 51
281.4506174474228146
  0
LINE
  5
11B89
  8
0
 10
130.3121177493482037
 20
-8.5611850342841862
 30
0.0
 11
130.361815232149695
 21
-8.5542214062841921
 31
0.0
  0
LINE
  5
11B8A
  8
0
 10
130.2430151332497132
 20
-8.4689010100841902
 30
0.0
 11
130.2206917943497047
 21
-8.4797737257841881
 31
0.0
  0
ARC
  5
11B8B
  8
0
 10
130.2310409479464113
 20
-8.5010128019419611
 30
0.0
 40
0.023626327183952
 50
115.9785609774599067
 51
195.9955466317715889
  0
LINE
  5
11B8C
  8
0
 10
130.2083293585027945
 20
-8.5075233350346693
 30
0.0
 11
130.2471063268625926
 21
-8.6427548080419108
 31
0.0
  0
ARC
  5
11B8D
  8
0
 10
130.2558304925750008
 20
-8.5874668647316739
 30
0.0
 40
0.0236255611521095
 50
196.0039042932689881
 51
277.2487363625588159
  0
LINE
  5
11B8E
  8
0
 10
130.3533397775497065
 20
-8.6382110710841928
 30
0.0
 11
130.3333926616554095
 21
-8.6487627465602444
 31
0.0
  0
ARC
  5
11B8F
  8
0
 10
130.3442538155582895
 20
-8.6694754651264745
 30
0.0
 40
0.0233876329393731
 50
117.6712241778408981
 51
191.3954739069185109
  0
LINE
  5
11B90
  8
0
 10
130.3213272280426054
 20
-8.6740963913744835
 30
0.0
 11
130.345750336375886
 21
-8.7606195926203583
 31
0.0
  0
ARC
  5
11B91
  8
0
 10
130.3698412821676982
 20
-8.7563481594728572
 30
0.0
 40
0.0244666877667782
 50
190.0543099089250063
 51
276.8937123750696969
  0
LINE
  5
11B92
  8
0
 10
130.3727779671530129
 20
-8.7806379658033702
 30
0.0
 11
130.4270418357496908
 21
-8.7731550365841926
 31
0.0
  0
LINE
  5
11B93
  8
0
 10
129.3901334778192052
 20
-5.3301314597156511
 30
0.0
 11
129.3923549774980017
 21
-5.3662817662846223
 31
0.0
  0
LINE
  5
11B94
  8
0
 10
129.4051456277852878
 20
-5.4798852491177987
 30
0.0
 11
129.4084080758890138
 21
-5.520196974539167
 31
0.0
  0
LINE
  5
11B95
  8
0
 10
129.4309948840781885
 20
-5.6667204315273301
 30
0.0
 11
129.4366148686899862
 21
-5.7179588495842628
 31
0.0
  0
LINE
  5
11B96
  8
0
 10
129.3877138449304027
 20
-5.4188752478826032
 30
0.0
 11
129.3487949694188899
 21
-5.4362094823846396
 31
0.0
  0
ARC
  5
11B97
  8
0
 10
129.3584060606542891
 20
-5.4577883333732577
 30
0.0
 40
0.0236224445120433
 50
114.0079054380376959
 51
196.0594193020089051
  0
LINE
  5
11B98
  8
0
 10
129.3357054743403864
 20
-5.4643231069522136
 30
0.0
 11
129.3610146128814051
 21
-5.5522423404254146
 31
0.0
  0
LINE
  5
11B99
  8
0
 10
129.4189619196199885
 20
-5.6830112621528102
 30
0.0
 11
129.3710738643945035
 21
-5.7043335834250044
 31
0.0
  0
ARC
  5
11B9A
  8
0
 10
129.3806892497578929
 20
-5.7259100863916279
 30
0.0
 40
0.0236220472431485
 50
114.0197370408005071
 51
195.9999997968888863
  0
LINE
  5
11B9B
  8
0
 10
129.3579822805403978
 20
-5.7324212049522174
 30
0.0
 11
129.3705544030109138
 21
-5.7762654070320281
 31
0.0
  0
LINE
  5
11B9C
  8
0
 10
129.4184222676803984
 20
-5.732726520140381
 30
0.0
 11
129.3836534201404049
 21
-5.7481744744522132
 31
0.0
  0
ARC
  5
11B9D
  8
0
 10
129.3932613725681051
 20
-5.7697542889555669
 30
0.0
 40
0.0236220478335929
 50
113.9999999716013974
 51
196.0122167594265079
  0
LINE
  5
11B9E
  8
0
 10
129.3705557916404132
 20
-5.7762702492522129
 30
0.0
 11
129.3950637074210874
 21
-5.861670779610975
 31
0.0
  0
ARC
  5
11B9F
  8
0
 10
129.4177895513448107
 20
-5.8551490043176813
 30
0.0
 40
0.0236431287062091
 50
196.0122167594117002
 51
261.6348081576879849
  0
ARC
  5
11BA0
  8
0
 10
129.473413050444691
 20
-6.0144404732342087
 30
0.0
 40
0.0931334732684238
 50
14.6669646297618499
 51
29.0697954140053696
  0
ARC
  5
11BA1
  8
0
 10
129.5507700865653931
 20
-5.9714374974280906
 30
0.0
 40
0.0046271629534667
 50
29.0697954139725887
 51
91.7227949254572934
  0
LINE
  5
11BA2
  8
0
 10
129.5506309759404076
 20
-5.966812426052214
 30
0.0
 11
129.5065191387404013
 21
-5.9867882019522147
 31
0.0
  0
ARC
  5
11BA3
  8
0
 10
129.5162634267186093
 20
-6.0083077893860164
 30
0.0
 40
0.0236209487298125
 50
114.361217272480701
 51
195.9938795024299907
  0
LINE
  5
11BA4
  8
0
 10
129.4935568181086012
 20
-6.014816179688637
 30
0.0
 11
129.5183533446497108
 21
-6.101291124384189
 31
0.0
  0
LINE
  5
11BA5
  8
0
 10
129.4595183221140076
 20
-6.0077879572809101
 30
0.0
 11
129.4801647450422024
 21
-6.0798036095189039
 31
0.0
  0
LINE
  5
11BA6
  8
0
 10
129.5165431881096083
 20
-6.2116153669446561
 30
0.0
 11
129.556803484440394
 21
-6.3473386942522154
 31
0.0
  0
LINE
  5
11BA7
  8
0
 10
129.5871215927562901
 20
-6.3342579163498476
 30
0.0
 11
129.5555629923605068
 21
-6.3476943995432569
 31
0.0
  0
ARC
  5
11BA8
  8
0
 10
129.5646468477713995
 20
-6.3690298754142267
 30
0.0
 40
0.0231887679656734
 50
113.062508432820195
 51
196.9468355215485076
  0
LINE
  5
11BA9
  8
0
 10
129.5424650373404063
 20
-6.3757890355522164
 30
0.0
 11
129.5669353208404004
 21
-6.4611270557522138
 31
0.0
  0
ARC
  5
11BAA
  8
0
 10
129.5896620389403893
 20
-6.4546848097522149
 30
0.0
 40
0.0236220471999922
 50
196.0000000000032117
 51
278.0000000000205205
  0
LINE
  5
11BAB
  8
0
 10
129.5929495925001902
 20
-6.4780769688126787
 30
0.0
 11
129.6259046153894872
 21
-6.4734454423881749
 31
0.0
  0
ARC
  5
11BAC
  8
0
 10
129.6230203020579097
 20
-6.4686503645954971
 30
0.0
 40
0.0055957157212276
 50
301.0275582285415226
 51
357.0747116976011739
  0
ARC
  5
11BAD
  8
0
 10
129.4929350503624903
 20
-6.4554117478955026
 30
0.0
 40
0.1363460668307401
 50
354.3074623051466006
 51
3.9520819215722081
  0
LINE
  5
11BAE
  8
0
 10
129.5900401788940997
 20
-6.4783038301403328
 30
0.0
 11
129.6418277707059872
 21
-6.6589082569970506
 31
0.0
  0
LINE
  5
11BAF
  8
0
 10
129.6787342289435969
 20
-6.7891693795023036
 30
0.0
 11
129.7374841732952859
 21
-6.992597711021709
 31
0.0
  0
LINE
  5
11BB0
  8
0
 10
129.7745219914868073
 20
-7.1216679554541846
 30
0.0
 11
129.8321383909957945
 21
-7.3233775908969809
 31
0.0
  0
LINE
  5
11BB1
  8
0
 10
129.869954251376214
 20
-7.4545579512771161
 30
0.0
 11
129.9219389760287129
 21
-7.63577193775631
 31
0.0
  0
LINE
  5
11BB2
  8
0
 10
129.954927020040401
 20
-7.6208881893522138
 30
0.0
 11
129.9219389760287129
 21
-7.63577193775631
 31
0.0
  0
ARC
  5
11BB3
  8
0
 10
129.9304053706588888
 20
-7.6545366864672806
 30
0.0
 40
0.0205862971954535
 50
114.2842367268217032
 51
202.7981555046316089
  0
LINE
  5
11BB4
  8
0
 10
129.9114273650403959
 20
-7.6625135865522154
 30
0.0
 11
129.9357462703765123
 21
-7.7473236882241627
 31
0.0
  0
ARC
  5
11BB5
  8
0
 10
129.9586297549691949
 20
-7.7413963634284988
 30
0.0
 40
0.0236386769159605
 50
194.5217138673012869
 51
270.9068225024860794
  0
LINE
  5
11BB6
  8
0
 10
129.9590038695970122
 20
-7.7650320797193677
 30
0.0
 11
130.0068591099417858
 21
-7.7584884569108956
 31
0.0
  0
ARC
  5
11BB7
  8
0
 10
129.9976534411150055
 20
-7.7504710596622743
 30
0.0
 40
0.0122074975806387
 50
318.946755337919285
 51
24.9548296401859702
  0
ARC
  5
11BB8
  8
0
 10
129.6700128401651
 20
-7.8120304438541481
 30
0.0
 40
0.3452152719320099
 50
11.1419906109788798
 51
33.4015190719910677
  0
ARC
  5
11BB9
  8
0
 10
129.955565761627895
 20
-7.6244304341990476
 30
0.0
 40
0.0035993734691628
 50
42.7225258871002822
 51
100.2217945904317986
  0
LINE
  5
11BBA
  8
0
 10
129.9589892798404094
 20
-7.764981199252218
 30
0.0
 11
129.9983685495404018
 21
-7.9023128689522153
 31
0.0
  0
LINE
  5
11BBB
  8
0
 10
130.0309055555246118
 20
-7.888773107795493
 30
0.0
 11
129.9983685495404018
 21
-7.9023128689522153
 31
0.0
  0
ARC
  5
11BBC
  8
0
 10
130.0104060475769074
 20
-7.922481365605889
 30
0.0
 40
0.0234876481634366
 50
120.8307200204959031
 51
196.1328267672695915
  0
LINE
  5
11BBD
  8
0
 10
129.9878433403403903
 20
-7.9290077626522111
 30
0.0
 11
130.0116054383194921
 21
-8.0118760462283944
 31
0.0
  0
ARC
  5
11BBE
  8
0
 10
130.0358953648836007
 20
-8.0071710316868163
 30
0.0
 40
0.0247414165787765
 50
190.9625623066488913
 51
226.5336918056640059
  0
ARC
  5
11BBF
  8
0
 10
130.0350355071556976
 20
-8.008078200429658
 30
0.0
 40
0.023491492404998
 50
226.5336918056731008
 51
281.4295844907541095
  0
LINE
  5
11BC0
  8
0
 10
130.039690662896902
 20
-8.0311038326780775
 30
0.0
 11
130.0863271702363022
 21
-8.024547294951752
 31
0.0
  0
ARC
  5
11BC1
  8
0
 10
130.0860871294815979
 20
-8.0234305351643211
 30
0.0
 40
0.0011422661628202
 50
282.1308103395410853
 51
330.4305580640593121
  0
ARC
  5
11BC2
  8
0
 10
130.0721268462216926
 20
-8.0199192255975031
 30
0.0
 40
0.015499066532141
 50
344.756687784425992
 51
14.6413157202934006
  0
ARC
  5
11BC3
  8
0
 10
129.5735248891195965
 20
-8.1512087621243339
 30
0.0
 40
0.5310966082991243
 50
14.7487683458396592
 51
23.5875734347993991
  0
LINE
  5
11BC4
  8
0
 10
130.0608323787404004
 20
-8.1048386654522133
 30
0.0
 11
130.0396906629200942
 21
-8.0311038326748161
 31
0.0
  0
LINE
  5
11BC5
  8
0
 10
130.0859401517008962
 20
-8.0936599646414749
 30
0.0
 11
130.0595763557020916
 21
-8.1053978829580782
 31
0.0
  0
ARC
  5
11BC6
  8
0
 10
130.0692141559212018
 20
-8.1270447365142982
 30
0.0
 40
0.0236954312463012
 50
114.0000001529165985
 51
200.184661588676903
  0
LINE
  5
11BC7
  8
0
 10
130.0469739694561895
 20
-8.1352207727147317
 30
0.0
 11
130.0709684331959863
 21
-8.2188994117117176
 31
0.0
  0
ARC
  5
11BC8
  8
0
 10
130.0936754023942967
 20
-8.2123882930123315
 30
0.0
 40
0.0236220472628135
 50
196.0000001334213948
 51
277.9999996999590053
  0
LINE
  5
11BC9
  8
0
 10
130.0969629558404108
 20
-8.2357804521522127
 30
0.0
 11
130.1315499724080951
 21
-8.2309077702137952
 31
0.0
  0
ARC
  5
11BCA
  8
0
 10
130.1060439064403909
 20
-8.2555223930522033
 30
0.0
 40
0.023622047199985
 50
124.2317717228069966
 51
196.0000000000329123
  0
LINE
  5
11BCB
  8
0
 10
130.0833369372874131
 20
-8.2620335116814072
 30
0.0
 11
130.1204085699496886
 21
-8.3913168551841935
 31
0.0
  0
LINE
  5
11BCC
  8
0
 10
130.1672614494405025
 20
-8.3643026518984982
 30
0.0
 11
130.192043682782213
 21
-8.4507291573075065
 31
0.0
  0
ARC
  5
11BCD
  8
0
 10
130.214752127083301
 20
-8.4442175842628302
 30
0.0
 40
0.023623590457207
 50
196.0000732612191996
 51
277.8716986325794096
  0
LINE
  5
11BCE
  8
0
 10
130.2179875021772943
 20
-8.4676185751412305
 30
0.0
 11
130.2600672780496893
 21
-8.4618271928841882
 31
0.0
  0
ARC
  5
11BCF
  8
0
 10
129.7824638853348915
 20
-8.6202132469882145
 30
0.0
 40
0.515366025090548
 50
21.0479503472635194
 51
34.706356374110193
  0
ARC
  5
11BD0
  8
0
 10
130.2034192640842889
 20
-8.3285596529945281
 30
0.0
 40
0.0032487023987422
 50
33.2393195751589374
 51
108.6377982419326003
  0
LINE
  5
11BD1
  8
0
 10
130.202381029197312
 20
-8.3254813197450446
 30
0.0
 11
130.1773964987476973
 21
-8.3377018161100906
 31
0.0
  0
ARC
  5
11BD2
  8
0
 10
130.2697686951622131
 20
-8.6362564839538116
 30
0.0
 40
0.0235756474545414
 50
195.9999872628972923
 51
278.0973765997998157
  0
LINE
  5
11BD3
  8
0
 10
130.2730894642403996
 20
-8.6595970847522121
 30
0.0
 11
130.3266656783025894
 21
-8.6520674389769567
 31
0.0
  0
LINE
  5
11BD4
  8
0
 10
130.3273281074546901
 20
-8.6533353976019285
 30
0.0
 11
130.3019882021187072
 21
-8.6048321706106137
 31
0.0
  0
LINE
  5
11BD5
  8
0
 10
130.2588114971497077
 20
-8.6109036040841929
 30
0.0
 11
130.3121750840404047
 21
-8.6034062077522151
 31
0.0
  0
ARC
  5
11BD6
  8
0
 10
130.3111471961838959
 20
-8.6026707918659113
 30
0.0
 40
0.001263878938507
 50
324.4176761322643756
 51
20.0089541817182486
  0
LINE
  5
11BD7
  8
0
 10
130.3123347863260904
 20
-8.6022383342084012
 30
0.0
 11
130.2918905644110907
 21
-8.5562031778467311
 31
0.0
  0
ARC
  5
11BD8
  8
0
 10
130.3782066806525108
 20
-8.7830126484195752
 30
0.0
 40
0.0248727854327869
 50
162.2350851965148024
 51
191.1511581195406109
  0
LINE
  5
11BD9
  8
0
 10
130.3538034840989042
 20
-8.7878229969668382
 30
0.0
 11
130.3792947739316901
 21
-8.8769289020736561
 31
0.0
  0
ARC
  5
11BDA
  8
0
 10
130.4020326711539042
 20
-8.8705061846640163
 30
0.0
 40
0.0236275954978673
 50
195.7732624470494045
 51
277.9715009614366181
  0
LINE
  5
11BDB
  8
0
 10
130.4053093584404053
 20
-8.893905470752216
 30
0.0
 11
130.4607128493651942
 21
-8.8861471180548364
 31
0.0
  0
LINE
  5
11BDC
  8
0
 10
130.4607128493651942
 20
-8.8861471180548364
 30
0.0
 11
130.4010320131305889
 21
-8.7769932529382402
 31
0.0
  0
LINE
  5
11BDD
  8
0
 10
130.4370361049898008
 20
-8.8895257002590711
 30
0.0
 11
130.5640622486153859
 21
-9.1019092106980466
 31
0.0
  0
ARC
  5
11BDE
  8
0
 10
129.4678959494524122
 20
-6.0243727856921856
 30
0.0
 40
0.007874015596134
 50
132.8694885238728034
 51
184.2027949838530958
  0
LINE
  5
11BDF
  8
0
 10
129.4600431078451948
 20
-6.0249498474740193
 30
0.0
 11
129.4658407679339973
 21
-6.0970493001644783
 31
0.0
  0
ARC
  5
11BE0
  8
0
 10
129.4885001350135099
 20
-6.1025552739693794
 30
0.0
 40
0.0232805254521727
 50
132.2819780772288141
 51
166.6229952760197079
  0
ARC
  5
11BE1
  8
0
 10
129.4915775839450873
 20
-6.1032871206320252
 30
0.0
 40
0.0264437977237574
 50
166.6229952760207027
 51
203.546264553573593
  0
LINE
  5
11BE2
  8
0
 10
129.4673355550482938
 20
-6.1138511384766607
 30
0.0
 11
129.4701434510403999
 21
-6.1438868270522127
 31
0.0
  0
ARC
  5
11BE3
  8
0
 10
129.4662261996290908
 20
-6.1442839622727368
 30
0.0
 40
0.0039373309490733
 50
288.5017058603726241
 51
5.7889295716341822
  0
LINE
  5
11BE4
  8
0
 10
129.4674756442404089
 20
-6.1480177891522132
 30
0.0
 11
129.4264481800404099
 21
-6.161744700752215
 31
0.0
  0
ARC
  5
11BE5
  8
0
 10
129.4314451127785048
 20
-6.1766789299337068
 30
0.0
 40
0.0157480328337694
 50
108.4976866311433952
 51
196.018243642104693
  0
LINE
  5
11BE6
  8
0
 10
129.4163085149403969
 20
-6.1810244959522151
 30
0.0
 11
129.5298049763146082
 21
-6.5763585639549609
 31
0.0
  0
ARC
  5
11BE7
  8
0
 10
129.5449530211807883
 20
-6.5720097116090619
 30
0.0
 40
0.0157599422585956
 50
196.0182436421139869
 51
282.9818329697424133
  0
LINE
  5
11BE8
  8
0
 10
129.5484933676291064
 20
-6.5873668508940924
 30
0.0
 11
129.5550448992026134
 21
-6.585856498535704
 31
0.0
  0
ARC
  5
11BE9
  8
0
 10
129.5509562909487897
 20
-6.5807787950234049
 30
0.0
 40
0.0065191863304762
 50
308.8413008456276998
 51
353.0600633534352824
  0
ARC
  5
11BEA
  8
0
 10
129.275670636796292
 20
-6.5558676593798486
 30
0.0
 40
0.2829266349034961
 50
354.7885168155273732
 51
7.1128327696640614
  0
ARC
  5
11BEB
  8
0
 10
128.4608763346550973
 20
-6.626452557654523
 30
0.0
 40
1.100622970619199
 50
5.506688618466673
 51
12.9594563427227492
  0
ARC
  5
11BEC
  8
0
 10
129.3462274810835879
 20
-6.4185454806277908
 30
0.0
 40
0.1912401754891543
 50
11.7425984032739201
 51
24.856771042429429
  0
ARC
  5
11BED
  8
0
 10
129.5157530449685908
 20
-6.3398308864681558
 30
0.0
 40
0.0043344727702268
 50
22.7110428087411513
 51
85.049708515342715
  0
LINE
  5
11BEE
  8
0
 10
129.5161270728403906
 20
-6.3355125815522149
 30
0.0
 11
129.4797831551456113
 21
-6.347673086363911
 31
0.0
  0
ARC
  5
11BEF
  8
0
 10
129.4847779653117072
 20
-6.3626403847568289
 30
0.0
 40
0.0157787245929043
 50
108.4546214104669986
 51
190.1251818303252037
  0
LINE
  5
11BF0
  8
0
 10
129.4979601226906141
 20
-6.4654356737107639
 30
0.0
 11
129.4782371045932052
 21
-6.472267428538764
 31
0.0
  0
ARC
  5
11BF1
  8
0
 10
129.4808143132032967
 20
-6.4797077324339289
 30
0.0
 40
0.0078740158923089
 50
109.1053109032675934
 51
154.8070825442486012
  0
LINE
  5
11BF2
  8
0
 10
129.4736892762404068
 20
-6.4763560202522177
 30
0.0
 11
129.4582108491341046
 21
-6.5092599091548626
 31
0.0
  0
ARC
  5
11BF3
  8
0
 10
129.4760547551724983
 20
-6.5176539199578007
 30
0.0
 40
0.0197196450289507
 50
154.8070825442468106
 51
190.8940577696943137
  0
LINE
  5
11BF4
  8
0
 10
129.456690491299895
 20
-6.5213808066936627
 30
0.0
 11
129.4574189705163008
 21
-6.5251658596804134
 31
0.0
  0
LINE
  5
11BF5
  8
0
 10
129.4577995035515983
 20
-6.5250257042683577
 30
0.0
 11
129.4511435331403959
 21
-6.5272214911522113
 31
0.0
  0
ARC
  5
11BF6
  8
0
 10
129.4529938594176883
 20
-6.5328302854495908
 30
0.0
 40
0.0059061223152415
 50
108.257585050768995
 51
189.7119443823007998
  0
LINE
  5
11BF7
  8
0
 10
129.447172381740387
 20
-6.5338266179522151
 30
0.0
 11
129.480924751154987
 21
-6.709277930486734
 31
0.0
  0
LINE
  5
11BF8
  8
0
 10
129.4612217879175944
 20
-6.6116991673522634
 30
0.0
 11
129.4330456677139978
 21
-6.6221342532852878
 31
0.0
  0
ARC
  5
11BF9
  8
0
 10
129.4371476280404067
 20
-6.6332100918522121
 30
0.0
 40
0.0118110235999955
 50
110.3222174383198961
 51
196.0000000000243006
  0
LINE
  5
11BFA
  8
0
 10
129.4257941434638894
 20
-6.6364656511668079
 30
0.0
 11
129.490070133625693
 21
-6.860622667649074
 31
0.0
  0
ARC
  5
11BFB
  8
0
 10
129.5014236182566094
 20
-6.8573671083189041
 30
0.0
 40
0.0118110236565034
 50
196.0000000000358114
 51
281.9996924424966096
  0
LINE
  5
11BFC
  8
0
 10
129.5038792061403967
 20
-6.8689200459522146
 30
0.0
 11
129.5184756069637046
 21
-6.865817567072205
 31
0.0
  0
LINE
  5
11BFD
  8
0
 10
129.4736892762404068
 20
-6.4763560202522177
 30
0.0
 11
129.8242998617403998
 21
-7.6990804402522173
 31
0.0
  0
LINE
  5
11BFE
  8
0
 10
130.0107375501403908
 20
-8.0088422424522179
 30
0.0
 11
129.9739043420767075
 21
-7.934182044689293
 31
0.0
  0
LINE
  5
11BFF
  8
0
 10
129.9780499578403976
 20
-7.9331867357522148
 30
0.0
 11
129.9372123497633993
 21
-7.9429910126466998
 31
0.0
  0
ARC
  5
11C00
  8
0
 10
129.9335360356249964
 20
-7.9276781162890373
 30
0.0
 40
0.015748018304024
 50
195.9999542044627958
 51
283.5000459300487137
  0
LINE
  5
11C01
  8
0
 10
129.9183980653729975
 20
-7.9320188463142003
 30
0.0
 11
129.8583422071795894
 21
-7.7225785472112127
 31
0.0
  0
ARC
  5
11C02
  8
0
 10
129.8734814032135034
 20
-7.7182374656998363
 30
0.0
 40
0.0157492934838549
 50
109.4742509314424979
 51
195.9999542044772909
  0
ARC
  5
11C03
  8
0
 10
129.8979481174162913
 20
-7.7874281394412526
 30
0.0
 40
0.0891384577840235
 50
107.2994934071484039
 51
109.4742509314391015
  0
ARC
  5
11C04
  8
0
 10
129.8704608808162959
 20
-7.6991740347102251
 30
0.0
 40
0.0032971153346884
 50
287.299493407192017
 51
342.7176361513191978
  0
ARC
  5
11C05
  8
0
 10
129.879881640283088
 20
-7.6985655035485721
 30
0.0
 40
0.0064704055973307
 50
168.4836698397043051
 51
194.2073359406682016
  0
ARC
  5
11C06
  8
0
 10
129.873965977049096
 20
-7.6974901736835397
 30
0.0
 40
0.0004764884056148
 50
56.3910848220747027
 51
152.9801041125097072
  0
ARC
  5
11C07
  8
0
 10
129.8350424033293962
 20
-7.7339786048616466
 30
0.0
 40
0.0538160665063634
 50
27.7558508844436993
 51
43.2666862417435496
  0
ARC
  5
11C08
  8
0
 10
129.1725368517670915
 20
-8.1111875359947945
 30
0.0
 40
0.8161532946383292
 50
25.9361569350574399
 51
29.5305119827867202
  0
ARC
  5
11C09
  8
0
 10
128.204259381192287
 20
-8.6001810221452075
 30
0.0
 40
1.900847968397025
 50
21.004812381513279
 51
26.4259168968057701
  0
ARC
  5
11C0A
  8
0
 10
129.9035428508242944
 20
-7.9475139942847974
 30
0.0
 40
0.0805354521046878
 50
9.6399674649825222
 51
20.8656995758010204
  0
ARC
  5
11C0B
  8
0
 10
129.9812249405636067
 20
-7.9342382881204614
 30
0.0
 40
0.0017290176741689
 50
325.2602441537410982
 51
6.9921417179135092
  0
ARC
  5
11C0C
  8
0
 10
129.9823659576171906
 20
-7.9348072502695137
 30
0.0
 40
0.0005016070686655
 50
246.4323942015743114
 51
303.9044479149628728
  0
ARC
  5
11C0D
  8
0
 10
129.9787885906200984
 20
-7.9368364413839601
 30
0.0
 40
0.0037236983741564
 50
24.9273697089384392
 51
101.4410721921944969
  0
ARC
  5
11C0E
  8
0
 10
129.8468557888587895
 20
-7.710257042129669
 30
0.0
 40
0.0224513049079065
 50
17.8123742169572488
 51
41.880307340936703
  0
ARC
  5
11C0F
  8
0
 10
129.8589144882797086
 20
-7.7016181246872071
 30
0.0
 40
0.0078740158447604
 50
53.7388387446320621
 51
102.999997496872993
  0
LINE
  5
11C10
  8
0
 10
129.8571432204487053
 20
-7.6939459192810409
 30
0.0
 11
129.8309094581098861
 21
-7.7000024605222057
 31
0.0
  0
ARC
  5
11C11
  8
0
 10
129.8286066417481948
 20
-7.6923586414670311
 30
0.0
 40
0.0079831655966697
 50
237.3515667026103131
 51
286.7657240471011733
  0
LINE
  5
11C12
  8
0
 10
129.8242998617403998
 20
-7.6990804402522173
 30
0.0
 11
129.7937368683072066
 21
-7.6793786339330623
 31
0.0
  0
ARC
  5
11C13
  8
0
 10
129.8046832324380091
 20
-7.6624686186835467
 30
0.0
 40
0.0201437703053035
 50
198.1140101372766082
 51
237.0845894769308018
  0
LINE
  5
11C14
  8
0
 10
129.7855377927135976
 20
-7.6687314950093111
 30
0.0
 11
129.7789633085372998
 21
-7.6703706980414728
 31
0.0
  0
ARC
  5
11C15
  8
0
 10
129.7775559609681011
 20
-7.6644500503186697
 30
0.0
 40
0.006085613919236
 50
192.716983742725688
 51
283.3711532460640115
  0
LINE
  5
11C16
  8
0
 10
129.7716196312125874
 20
-7.6657897091588998
 30
0.0
 11
129.76593509625161
 21
-7.6519729345970262
 31
0.0
  0
ARC
  5
11C17
  8
0
 10
129.7622008566725071
 20
-7.6564925541440161
 30
0.0
 40
0.005862721729902
 50
50.4355037297985973
 51
102.1800291979117929
  0
LINE
  5
11C18
  8
0
 10
129.760963915609409
 20
-7.6507618052497861
 30
0.0
 11
129.7299578442502082
 21
-7.657349953834454
 31
0.0
  0
ARC
  5
11C19
  8
0
 10
129.7274991862840068
 20
-7.6458021263721738
 30
0.0
 40
0.0118066641390946
 50
195.9916663265618126
 51
282.0194213216454955
  0
LINE
  5
11C1A
  8
0
 10
129.7161494190638962
 20
-7.6490548332668089
 30
0.0
 11
129.6550557170652951
 21
-7.435878755999048
 31
0.0
  0
ARC
  5
11C1B
  8
0
 10
129.6669682659828027
 20
-7.434392437008924
 30
0.0
 40
0.0120049142375981
 50
110.3279444028024017
 51
187.1119945710611887
  0
ARC
  5
11C1C
  8
0
 10
129.7309910531506034
 20
-7.3968285140812924
 30
0.0
 40
0.0584072397685491
 50
178.8410685535652931
 51
201.3702920344678091
  0
ARC
  5
11C1D
  8
0
 10
129.6804385625391944
 20
-7.3972732756866071
 30
0.0
 40
0.0080096013408094
 50
100.7378278051374991
 51
168.2864939091506926
  0
LINE
  5
11C1E
  8
0
 10
129.6789461147182863
 20
-7.3894039667784313
 30
0.0
 11
129.6225318562030111
 21
-7.2083642875604781
 31
0.0
  0
LINE
  5
11C1F
  8
0
 10
129.6244103504403995
 20
-7.2079559750522151
 30
0.0
 11
129.6024379894776075
 21
-7.2126353708164137
 31
0.0
  0
ARC
  5
11C20
  8
0
 10
129.5999788497229872
 20
-7.2010883444331446
 30
0.0
 40
0.0118059809685094
 50
195.9771749360249942
 51
282.0225178296118997
  0
LINE
  5
11C21
  8
0
 10
129.5886289169638985
 20
-7.2043379925668134
 30
0.0
 11
129.5545984251978098
 21
-7.0854808802223204
 31
0.0
  0
ARC
  5
11C22
  8
0
 10
129.5659705817211034
 20
-7.082224869107022
 30
0.0
 40
0.0118290976989699
 50
110.3211437846253062
 51
195.9771749360419051
  0
LINE
  5
11C23
  8
0
 10
129.5618625521387912
 20
-7.0711320044940029
 30
0.0
 11
129.5819339756521913
 21
-7.0638266037077448
 31
0.0
  0
ARC
  5
11C24
  8
0
 10
129.5814751480743894
 20
-7.0607300274168088
 30
0.0
 40
0.003130384556517
 50
278.4283366139807754
 51
11.0286061408507905
  0
ARC
  5
11C25
  8
0
 10
129.588590052253295
 20
-7.05934334329931
 30
0.0
 40
0.0041183914999408
 50
146.1383529344724082
 51
191.0286061408710054
  0
ARC
  5
11C26
  8
0
 10
129.5859585524970043
 20
-7.0575776045781211
 30
0.0
 40
0.0009493815284798
 50
29.7946779306574214
 51
146.1383529345935131
  0
ARC
  5
11C27
  8
0
 10
129.395883015322795
 20
-7.1664114457869132
 30
0.0
 40
0.2199779523230794
 50
16.0304667506003504
 51
29.7946779306574214
  0
ARC
  5
11C28
  8
0
 10
127.684427826570797
 20
-7.6581483599261873
 30
0.0
 40
2.0006755841048509
 50
13.3138904448251001
 51
16.0304667506003504
  0
ARC
  5
11C29
  8
0
 10
129.6029089402921954
 20
-7.2041475187013191
 30
0.0
 40
0.0292074642665514
 50
344.3881321974648131
 51
13.3138904448251001
  0
ARC
  5
11C2A
  8
0
 10
129.6324584084019023
 20
-7.2080446264882658
 30
0.0
 40
0.0042097487459807
 50
207.7808333794023099
 51
250.2931615186716101
  0
ARC
  5
11C2B
  8
0
 10
129.6256362148450023
 20
-7.2109544786276913
 30
0.0
 40
0.0032394084692387
 50
17.011393573773681
 51
112.2359904967793938
  0
LINE
  5
11C2C
  8
0
 10
129.5156911099404056
 20
-6.8551630530522161
 30
0.0
 11
129.5190641973404126
 21
-6.8680237809522131
 31
0.0
  0
LINE
  5
11C2D
  8
0
 10
129.5295072919435029
 20
-6.8642207377234916
 30
0.0
 11
129.5050807620056901
 21
-6.8731133351980631
 31
0.0
  0
ARC
  5
11C2E
  8
0
 10
129.509121200642312
 20
-6.8842117679789254
 30
0.0
 40
0.0118110268210463
 50
110.0042825048683
 51
196.0412393543618919
  0
LINE
  5
11C2F
  8
0
 10
129.4977700591404073
 20
-6.8874754991522158
 30
0.0
 11
129.5432551595060886
 21
-7.0456710682923074
 31
0.0
  0
ARC
  5
11C30
  8
0
 10
129.5540623456921878
 20
-7.0409951584894577
 30
0.0
 40
0.0117753728495616
 50
203.3965290480242913
 51
282.0618008394121716
  0
LINE
  5
11C31
  8
0
 10
129.5565230056404005
 20
-7.0525105637522136
 30
0.0
 11
129.6081232540593078
 21
-7.0415425924084039
 31
0.0
  0
LINE
  5
11C32
  8
0
 10
129.4566062291110029
 20
-6.5208753947725171
 30
0.0
 11
129.7937371024544007
 21
-7.6793787848712682
 31
0.0
  0
ARC
  5
11C33
  8
0
 10
129.4643992683957947
 20
-6.7279930851166654
 30
0.0
 40
0.0119872152824748
 50
110.2779362742357989
 51
188.375968615303691
  0
LINE
  5
11C34
  8
0
 10
129.4602448057418087
 20
-6.7167488078929187
 30
0.0
 11
129.4859636978331139
 21
-6.7074575507837997
 31
0.0
  0
ARC
  5
11C35
  8
0
 10
129.4846480425667039
 20
-6.7034432511679682
 30
0.0
 40
0.004224399387568
 50
288.1461517864934194
 51
9.4768627433666115
  0
ARC
  5
11C36
  8
0
 10
129.4906066169019141
 20
-6.7024486012066973
 30
0.0
 40
0.0018166217722856
 50
114.7894255711870954
 51
189.4768627435242081
  0
ARC
  5
11C37
  8
0
 10
129.4877663923267903
 20
-6.7035651556222566
 30
0.0
 40
0.0034597542099515
 50
27.9719170266131414
 51
53.0743837942552474
  0
ARC
  5
11C38
  8
0
 10
129.3964900184944042
 20
-6.746129527902994
 30
0.0
 40
0.1041682272652865
 50
15.4316194585160904
 51
25.0994103224695309
  0
ARC
  5
11C39
  8
0
 10
128.9451150336340106
 20
-6.8840617209244988
 30
0.0
 40
0.5761160934157599
 50
13.1389638479995305
 51
16.7100824073472793
  0
ARC
  5
11C3A
  8
0
 10
128.8335876421512012
 20
-6.9313415664366778
 30
0.0
 40
0.6957789341143399
 50
6.6657641890634451
 51
14.8430248958628006
  0
ARC
  5
11C3B
  8
0
 10
129.4908471985565939
 20
-6.8545294361393232
 30
0.0
 40
0.0340461875716027
 50
353.63308679048248
 51
6.665764189062636
  0
ARC
  5
11C3C
  8
0
 10
129.5234411573771922
 20
-6.858166376675463
 30
0.0
 40
0.0012499455908728
 50
304.3147224857311244
 51
353.6330867904484876
  0
ARC
  5
11C3D
  8
0
 10
129.5240550366422099
 20
-6.8586332848960927
 30
0.0
 40
0.0005727262431794
 50
225.1965372995373116
 51
279.118405788634675
  0
ARC
  5
11C3E
  8
0
 10
129.5175494527524052
 20
-6.861260622108837
 30
0.0
 40
0.0064936184901871
 50
20.00022060164547
 51
93.4175768487574061
  0
LINE
  5
11C3F
  8
0
 10
129.5171623512403869
 20
-6.8547785519522151
 30
0.0
 11
129.5008202430744859
 21
-6.8582521742170712
 31
0.0
  0
ARC
  5
11C40
  8
0
 10
129.4983713000511898
 20
-6.8466379752455993
 30
0.0
 40
0.0118695804353161
 50
200.4188912238975036
 51
281.9071423984868261
  0
LINE
  5
11C41
  8
0
 10
129.5397304976403916
 20
-6.5869962061522136
 30
0.0
 11
129.607552681340394
 21
-6.8235202691522181
 31
0.0
  0
LINE
  5
11C42
  8
0
 10
129.6383773759403937
 20
-6.8104915456522122
 30
0.0
 11
129.6147134260097005
 21
-6.8185000755528398
 31
0.0
  0
ARC
  5
11C43
  8
0
 10
129.6196969533968968
 20
-6.8332256174480293
 30
0.0
 40
0.0155459682659683
 50
108.6972296871530972
 51
141.3691708104626059
  0
ARC
  5
11C44
  8
0
 10
129.6200558434609036
 20
-6.8335124319276721
 30
0.0
 40
0.0160053859666962
 50
141.369170810466386
 51
195.3814451015097973
  0
LINE
  5
11C45
  8
0
 10
129.6046237487730082
 20
-6.8377577627141974
 30
0.0
 11
129.6646762746185004
 21
-7.0471858087438326
 31
0.0
  0
ARC
  5
11C46
  8
0
 10
129.6798177613513019
 20
-7.0428572531410154
 30
0.0
 40
0.0157480479452264
 50
195.9538496467374102
 51
251.1088432184915007
  0
ARC
  5
11C47
  8
0
 10
129.6798177536074945
 20
-7.0428572757702241
 30
0.0
 40
0.0157480240277058
 50
251.1088432184932913
 51
283.5000076094751194
  0
LINE
  5
11C48
  8
0
 10
129.6834940588404095
 20
-7.0581701801522172
 30
0.0
 11
129.7018580933375063
 21
-7.0537613629589302
 31
0.0
  0
ARC
  5
11C49
  8
0
 10
129.695395077915407
 20
-7.0445207882910088
 30
0.0
 40
0.0112764705710752
 50
304.9695973475859887
 51
358.5233613190106894
  0
ARC
  5
11C4A
  8
0
 10
129.2428992936698933
 20
-7.0468704417266181
 30
0.0
 40
0.463773081027845
 50
0.2543834220224479
 51
17.4365897557622098
  0
ARC
  5
11C4B
  8
0
 10
129.2676533181719947
 20
-7.0175581638084452
 30
0.0
 40
0.4318622017243444
 50
14.7094529233491897
 51
26.5905401886977515
  0
ARC
  5
11C4C
  8
0
 10
129.6210673790743044
 20
-6.8400451955173551
 30
0.0
 40
0.0363766431759486
 50
25.7322325818788116
 51
54.5135595455256379
  0
ARC
  5
11C4D
  8
0
 10
129.640359943780112
 20
-6.8150092220906719
 30
0.0
 40
0.0049335560847859
 50
68.2964507667323062
 51
113.6941143963609022
  0
LINE
  5
11C4E
  8
0
 10
129.6747189823794031
 20
-7.0577570339139148
 30
0.0
 11
129.7610697936403881
 21
-7.358898063852215
 31
0.0
  0
LINE
  5
11C4F
  8
0
 10
129.7794349442403927
 20
-7.3501056138522136
 30
0.0
 11
129.7682540208118098
 21
-7.3538699436191228
 31
0.0
  0
ARC
  5
11C50
  8
0
 10
129.7732147116414865
 20
-7.3686043340031366
 30
0.0
 40
0.0155470483853508
 50
108.6070576756591066
 51
141.3680030228842952
  0
ARC
  5
11C51
  8
0
 10
129.7735722520694139
 20
-7.3688900818346781
 30
0.0
 40
0.0160047458627493
 50
141.3680030228738929
 51
195.3826127301645954
  0
ARC
  5
11C52
  8
0
 10
139.5056444937513049
 20
-4.6914079237722097
 30
0.0
 40
10.1096730990462795
 50
195.3826127301649933
 51
196.6173872797473052
  0
ARC
  5
11C53
  8
0
 10
129.8334691978515991
 20
-7.5780049217742649
 30
0.0
 40
0.015941520314496
 50
196.6173872797573097
 51
282.8374250740639013
  0
LINE
  5
11C54
  8
0
 10
129.8370111710605954
 20
-7.5935479747473593
 30
0.0
 11
129.8688821889404039
 21
-7.5858964203522126
 31
0.0
  0
ARC
  5
11C55
  8
0
 10
129.8633050257348884
 20
-7.5787702995343471
 30
0.0
 40
0.0090491075433278
 50
308.0480352210059891
 51
10.6783885172088198
  0
ARC
  5
11C56
  8
0
 10
129.5138135078479991
 20
-7.616886039938457
 30
0.0
 40
0.3605862966697416
 50
6.3357806064682398
 51
20.4985732652639001
  0
ARC
  5
11C57
  8
0
 10
129.3883653923516874
 20
-7.6248012537363996
 30
0.0
 40
0.4822474173846718
 50
16.1559653545236195
 51
33.9941469019341227
  0
ARC
  5
11C58
  8
0
 10
129.7786099938577138
 20
-7.361635945531332
 30
0.0
 40
0.0115598050054611
 50
33.99414690194439
 51
85.9076829772024269
  0
LINE
  5
11C59
  8
0
 10
129.8281713305291021
 20
-7.5930403689498709
 30
0.0
 11
129.8571432204404061
 21
-7.693945919252215
 31
0.0
  0
ARC
  5
11C5A
  8
0
 10
129.6856157104147087
 20
-7.4997212712504711
 30
0.0
 40
0.0118110235752964
 50
109.9999999910674973
 51
192.4858349769843926
  0
LINE
  5
11C5B
  8
0
 10
129.6815761024404026
 20
-7.4886225395522166
 30
0.0
 11
129.6954634049617994
 21
-7.48356797480261
 31
0.0
  0
ARC
  5
11C5C
  8
0
 10
129.693524921165789
 20
-7.4782420343424496
 30
0.0
 40
0.0056677474549111
 50
289.9999999910468205
 51
6.0156967598593774
  0
ARC
  5
11C5D
  8
0
 10
129.7039532534741113
 20
-7.4758016845175703
 30
0.0
 40
0.0051352088896023
 50
185.1724226831404962
 51
201.0725664877419092
  0
ARC
  5
11C5E
  8
0
 10
129.6989688319702907
 20
-7.476216779626589
 30
0.0
 40
0.0001384142251728
 50
60.6776292186516102
 51
200.2292924109420937
  0
ARC
  5
11C5F
  8
0
 10
129.691777147758188
 20
-7.4811256372433661
 30
0.0
 40
0.0088315423169088
 50
28.0499654842759902
 51
34.7151661425327234
  0
ARC
  5
11C60
  8
0
 10
128.2406868879407966
 20
-8.1154087015771097
 30
0.0
 40
1.5924648609539309
 50
20.6941281553737113
 51
23.6351159667798107
  0
ARC
  5
11C61
  8
0
 10
127.6985130932353059
 20
-8.3434287564584437
 30
0.0
 40
2.1803433734575091
 50
19.4256741283372989
 51
21.2647830163670513
  0
ARC
  5
11C62
  8
0
 10
129.6520746006156912
 20
-7.6547230193949778
 30
0.0
 40
0.1089387379013332
 50
14.7869212695871202
 51
19.5427170299604498
  0
ARC
  5
11C63
  8
0
 10
129.7562444637705994
 20
-7.6272646950206351
 30
0.0
 40
0.0012113440867552
 50
342.9906796547501244
 51
16.5755383428361789
  0
ARC
  5
11C64
  8
0
 10
129.7574262431558907
 20
-7.6274916409445188
 30
0.0
 40
0.0001295404543052
 50
225.1261624215001973
 51
259.5827453481700786
  0
ARC
  5
11C65
  8
0
 10
129.4360988867560138
 20
-7.830708186643796
 30
0.0
 40
0.3800686829395183
 50
32.3060910948333131
 51
32.6296596497275573
  0
ARC
  5
11C66
  8
0
 10
129.751930060655809
 20
-7.6297567725684408
 30
0.0
 40
0.0058273627567068
 50
43.1340236512101569
 51
102.0141118835455956
  0
LINE
  5
11C67
  8
0
 10
129.7507170799403866
 20
-7.6240570502522109
 30
0.0
 11
129.7221515422403968
 21
-7.630125914452214
 31
0.0
  0
ARC
  5
11C68
  8
0
 10
129.7197111642603886
 20
-7.6182498112179138
 30
0.0
 40
0.0121242431812028
 50
206.6656459829908954
 51
281.6118696818271019
  0
LINE
  5
11C69
  8
0
 10
129.7548558048414975
 20
-7.6247171120979038
 30
0.0
 11
129.7659350962516953
 21
-7.6519729345972394
 31
0.0
  0
LINE
  5
11C6A
  8
0
 10
129.5641394992645132
 20
-7.0508916280616063
 30
0.0
 11
129.5703782786831937
 21
-7.0680325334798013
 31
0.0
  0
LINE
  5
11C6B
  8
0
 10
129.6789462511403883
 20
-7.3894039224522174
 30
0.0
 11
129.7069788964751922
 21
-7.3812462681159161
 31
0.0
  0
ARC
  5
11C6C
  8
0
 10
130.0155549247236024
 20
-8.1577228118162637
 30
0.0
 40
0.095173903774526
 50
25.2380848279142391
 51
42.3077793071989205
  0
LINE
  5
11C6D
  8
0
 10
130.4578344323718966
 20
-8.886538373988067
 30
0.0
 11
130.5916838997403886
 21
-9.0939138142522182
 31
0.0
  0
ARC
  5
11C6E
  8
0
 10
130.9794953720627859
 20
-13.8776466802841902
 30
0.0
 40
0.00911561221306
 50
116.6432518819841988
 51
244.0921256118458018
  0
ARC
  5
11C6F
  8
0
 10
130.9796766069212026
 20
-13.9490151666041395
 30
0.0
 40
0.0091267078566395
 50
117.1852247196238039
 51
237.7529874493542081
  0
ARC
  5
11C70
  8
0
 10
130.9794905906605038
 20
-14.0204068127686092
 30
0.0
 40
0.0091110829565134
 50
115.8876438659496984
 51
242.8714120591492929
  0
ARC
  5
11C71
  8
0
 10
131.780912670943593
 20
-13.8418970154454701
 30
0.0
 40
0.0090906033003154
 50
296.8102429018856014
 51
59.0685482791772571
  0
ARC
  5
11C72
  8
0
 10
131.7810440243924006
 20
-13.9132916444379102
 30
0.0
 40
0.0091287865634466
 50
297.6708320965612984
 51
62.0415292408621468
  0
ARC
  5
11C73
  8
0
 10
131.7810495647441087
 20
-13.9847729187320908
 30
0.0
 40
0.0091287181066651
 50
295.819477867727926
 51
62.1745744982645689
  0
ARC
  5
11C74
  8
0
 10
121.1722827729750946
 20
197.0138267944620054
 30
0.0
 40
211.0929849986517866
 50
272.6719725465727038
 51
272.8715361441392133
  0
ARC
  5
11C75
  8
0
 10
145.0382220551043986
 20
-293.9827675130035232
 30
0.0
 40
280.4282487506544044
 50
92.7165436095644111
 51
92.866740803973002
  0
ARC
  5
11C76
  8
0
 10
118.9039491980717997
 20
241.6441712242379083
 30
0.0
 40
255.8521618880733115
 50
272.7127505542534891
 51
272.8773755510176215
  0
ARC
  5
11C77
  8
0
 10
145.2588249135318108
 20
-299.9950643132600021
 30
0.0
 40
286.3728304780938743
 50
92.704297418254157
 51
92.8513750651369634
  0
ARC
  5
11C78
  8
0
 10
119.775673651608102
 20
224.7147784595017015
 30
0.0
 40
238.9717380928829016
 50
272.6952777392019129
 51
272.8715297353530218
  0
ARC
  5
11C79
  8
0
 10
143.2015072078125968
 20
-257.8807773414474127
 30
0.0
 40
244.1369918803451924
 50
92.6891261924950527
 51
92.8616480161781368
  0
LINE
  5
11C7A
  8
0
 10
131.0129768735496896
 20
-13.8496576101640496
 30
0.0
 11
130.9754076221053083
 21
-13.8694990004730592
 31
0.0
  0
LINE
  5
11C7B
  8
0
 10
130.9755125294221045
 20
-13.8858461528598305
 30
0.0
 11
131.0131100682222041
 21
-13.9054586657598502
 31
0.0
  0
LINE
  5
11C7C
  8
0
 10
131.0131100682222041
 20
-13.9054586657598502
 30
0.0
 11
131.0131100682220904
 21
-13.9212743387756994
 31
0.0
  0
LINE
  5
11C7D
  8
0
 10
131.0131100682220904
 20
-13.9212743387756994
 30
0.0
 11
130.9755069011220883
 21
-13.9408966476598302
 31
0.0
  0
LINE
  5
11C7E
  8
0
 10
130.9748068655929956
 20
-13.9567341312819
 30
0.0
 11
131.0131100682220904
 21
-13.9767823021598296
 31
0.0
  0
LINE
  5
11C7F
  8
0
 10
131.0131100682220904
 20
-13.9767823021598296
 30
0.0
 11
131.0131100682220051
 21
-13.9925981125598202
 31
0.0
  0
LINE
  5
11C80
  8
0
 10
131.0131100682220051
 20
-13.9925981125598202
 30
0.0
 11
130.9755126209221032
 21
-14.0122100091598298
 31
0.0
  0
LINE
  5
11C81
  8
0
 10
130.9753360368221138
 20
-14.0285155435598305
 30
0.0
 11
131.0131100682220904
 21
-14.04822459355983
 31
0.0
  0
LINE
  5
11C82
  8
0
 10
131.7473620367223077
 20
-13.8141030777598193
 30
0.0
 11
131.7855853519220943
 21
-13.83409925160983
 31
0.0
  0
LINE
  5
11C83
  8
0
 10
131.7853238867220966
 20
-13.9052283000598305
 30
0.0
 11
131.7473620367223077
 21
-13.8854268450598397
 31
0.0
  0
LINE
  5
11C84
  8
0
 10
131.7473620367223077
 20
-13.8854268450598397
 30
0.0
 11
131.7473620367221088
 21
-13.8696551149390892
 31
0.0
  0
LINE
  5
11C85
  8
0
 10
131.7473620367221088
 20
-13.8696551149390892
 30
0.0
 11
131.785012870322106
 21
-13.8500104261598302
 31
0.0
  0
LINE
  5
11C86
  8
0
 10
131.7852833530220948
 20
-13.9213763730598306
 30
0.0
 11
131.747362036722194
 21
-13.9411560949597995
 31
0.0
  0
LINE
  5
11C87
  8
0
 10
131.747362036722194
 20
-13.9411560949597995
 30
0.0
 11
131.7473620367221088
 21
-13.9569003889598093
 31
0.0
  0
LINE
  5
11C88
  8
0
 10
131.7473620367221088
 20
-13.9569003889598093
 30
0.0
 11
131.7853106598849138
 21
-13.9766997184699999
 31
0.0
  0
LINE
  5
11C89
  8
0
 10
131.7850254605220925
 20
-13.9929903238598303
 30
0.0
 11
131.7473620367221088
 21
-14.0126298461598306
 31
0.0
  0
LINE
  5
11C8A
  8
0
 10
130.9703800419422066
 20
-14.0203081482289296
 30
0.0
 11
131.7901768842214096
 21
-13.9849327105652907
 31
0.0
  0
LINE
  5
11C8B
  8
0
 10
130.9705588016500997
 20
-13.9486121488148491
 30
0.0
 11
131.7901727821970042
 21
-13.91331455877142
 31
0.0
  0
LINE
  5
11C8C
  8
0
 10
130.9703799475520896
 20
-13.8777051782233993
 30
0.0
 11
131.7899973958336943
 21
-13.8422238824422692
 31
0.0
  0
ARC
  5
11C8D
  8
0
 10
130.9791809675380989
 20
-14.0908426592929708
 30
0.0
 40
0.0091110829565134
 50
115.8876438659496984
 51
242.8714120591492929
  0
ARC
  5
11C8E
  8
0
 10
131.7807401417238111
 20
-14.0552086469936999
 30
0.0
 40
0.0091285201155007
 50
295.8083879150415214
 51
62.1753387488001295
  0
ARC
  5
11C8F
  8
0
 10
119.7753640284855976
 20
224.6443426129773115
 30
0.0
 40
238.9717380928829016
 50
272.6952777392019129
 51
272.8715297353530218
  0
ARC
  5
11C90
  8
0
 10
136.0576012794664109
 20
-108.262632864116398
 30
0.0
 40
94.278161331897735
 50
92.6205685830925489
 51
93.0672404328136622
  0
LINE
  5
11C91
  8
0
 10
131.0128004450996002
 20
-14.0630339590841693
 30
0.0
 11
130.9752029977996983
 21
-14.0826458556841896
 31
0.0
  0
LINE
  5
11C92
  8
0
 10
130.9750264136997089
 20
-14.0989513900841903
 30
0.0
 11
131.0129768735496896
 21
-14.1195318490841597
 31
0.0
  0
LINE
  5
11C93
  8
0
 10
131.7470524135997039
 20
-14.0273362354841709
 30
0.0
 11
131.7850010367625089
 21
-14.0471355649943597
 31
0.0
  0
LINE
  5
11C94
  8
0
 10
131.7847143606996951
 20
-14.0634266432841901
 30
0.0
 11
131.7470524135997039
 21
-14.0830656926841904
 31
0.0
  0
LINE
  5
11C95
  8
0
 10
130.9700704188198017
 20
-14.0907439947532893
 30
0.0
 11
131.7898672488049101
 21
-14.0553692577940605
 31
0.0
  0
LINE
  5
11C96
  8
0
 10
131.0131100682220051
 20
-14.0482245935598709
 30
0.0
 11
131.0128004450996002
 21
-14.0630339590841693
 31
0.0
  0
LINE
  5
11C97
  8
0
 10
131.7473620367223077
 20
-14.0126298461598608
 30
0.0
 11
131.7470524135995049
 21
-14.0273362354841993
 31
0.0
  0
LINE
  5
11C98
  8
0
 10
131.7470524135999028
 20
-14.0830656926842206
 30
0.0
 11
131.7472288421496955
 21
-14.1459503236841897
 31
0.0
  0
LINE
  5
11C99
  8
0
 10
131.0129768735496896
 20
-14.1195318490841899
 30
0.0
 11
131.0129768735496896
 21
-14.1459503236841897
 31
0.0
  0
LINE
  5
11C9A
  8
0
 10
131.0129768735496896
 20
-13.77193457568419
 30
0.0
 11
131.0129768735496896
 21
-13.8496576101640496
 31
0.0
  0
LINE
  5
11C9B
  8
0
 10
131.7473748076087929
 20
-13.8141097587310409
 30
0.0
 11
131.747228842049708
 21
-13.77193457568419
 31
0.0
  0
ARC
  5
11C9C
  8
0
 10
131.7669138814497103
 20
-13.77193457568419
 30
0.0
 40
0.0196850393999988
 50
90.0011326686970961
 51
180.0000000000003979
  0
ARC
  5
11C9D
  8
0
 10
131.8463030715780917
 20
-13.7325627767034604
 30
0.0
 40
0.0196867596611794
 50
270.0051797961700117
 51
1.9448723053884309
  0
LINE
  5
11C9E
  8
0
 10
130.9128474189496956
 20
-13.7522495362841894
 30
0.0
 11
131.8463048513420119
 21
-13.7522495362841894
 31
0.0
  0
ARC
  5
11C9F
  8
0
 10
130.9128479811911063
 20
-13.7325639238942099
 30
0.0
 40
0.0196856123980084
 50
181.0945035412923119
 51
269.9983635733491951
  0
ARC
  5
11CA0
  8
0
 10
131.0326613491986052
 20
-14.1459508874481301
 30
0.0
 40
0.0196844756569648
 50
179.9983590472398021
 51
270.0026408813354237
  0
ARC
  5
11CA1
  8
0
 10
131.7275438027446057
 20
-14.1459503236820705
 30
0.0
 40
0.0196850394051195
 50
269.998999923948702
 51
359.9999999934702828
  0
LINE
  5
11CA2
  8
0
 10
131.0326622564969057
 20
-14.1656353630841902
 30
0.0
 11
131.7275434591497003
 21
-14.1656353630841902
 31
0.0
  0
ARC
  5
11CA3
  8
0
 10
130.9914434312412084
 20
-13.7738536926249697
 30
0.0
 40
0.021618791536155
 50
5.092894791587228
 51
87.8916352527165685
  0
ARC
  5
11CA5
  8
0
 10
129.551522203289295
 20
-7.9280188527821132
 30
0.0
 40
0.4227548930880167
 50
14.7949625558160793
 51
37.2112219079645996
  0
ARC
  5
11CA6
  8
0
 10
130.2922154929129874
 20
-7.566709111694812
 30
0.0
 40
0.417591183313632
 50
194.6545392383777937
 51
217.3516452254027058
  0
ARC
  5
11CA7
  8
0
 10
129.6592027275439989
 20
-7.2586707384210811
 30
0.0
 40
0.1365412235207859
 50
350.7216099083869949
 51
47.4249406921751415
  0
ARC
  5
11CA8
  8
0
 10
129.8954734914296125
 20
-7.17697805035393
 30
0.0
 40
0.1451231402644597
 50
172.5347391851292116
 51
225.6118114154328111
  0
ARC
  5
11CA9
  8
0
 10
129.3804800628583962
 20
-6.6550487089647836
 30
0.0
 40
0.2365640591486956
 50
356.7681018872714276
 51
26.7908772658430507
  0
ARC
  5
11CAA
  8
0
 10
129.5965440330924991
 20
-6.678913016183273
 30
0.0
 40
0.0195241898802829
 50
318.6770316886784258
 51
2.9616183873504651
  0
ARC
  5
11CAB
  8
0
 10
129.80967628354
 20
-6.5917103352381403
 30
0.0
 40
0.2222815784106568
 50
168.7698570896644128
 51
206.7632690010036072
  0
ARC
  5
11CAC
  8
0
 10
128.4095989930036978
 20
-6.3392489090899531
 30
0.0
 40
1.089143845931841
 50
1.1010625242236189
 51
8.2499904972861309
  0
ARC
  5
11CAD
  8
0
 10
130.6332332482820107
 20
-6.105624175683892
 30
0.0
 40
1.154454121189038
 50
182.3774709296137928
 51
190.6167823442368103
  0
LINE
  5
11CAE
  8
0
 10
129.4903492581553905
 20
-6.3441377177343758
 30
0.0
 11
129.4674756442404089
 21
-6.1480177891522132
 31
0.0
  0
ARC
  5
11CAF
  8
0
 10
130.3533438379450899
 20
-8.6411316468783959
 30
0.0
 40
0.0029205786167292
 50
39.8354936942391475
 51
90.0796566804113468
  0
ARC
  5
11CB0
  8
0
 10
129.9631239076018971
 20
-8.9347207019305124
 30
0.0
 40
0.4912468515461741
 50
19.2013621404028108
 51
36.9737464013349424
  0
ARC
  5
11CB1
  8
0
 10
129.5410620831927986
 20
-6.0947871339520097
 30
0.0
 40
0.0236217843898549
 50
195.9821970244107945
 51
276.3618435170258181
  0
ARC
  5
11CB2
  8
0
 10
129.5675596183137941
 20
-6.1072195494775121
 30
0.0
 40
0.0094907160180459
 50
304.9775593803320817
 51
6.059410927952845
  0
ARC
  5
11CB3
  8
0
 10
129.4517193769868015
 20
-6.0902184741739438
 30
0.0
 40
0.1262954314355462
 50
352.7221549397632998
 51
2.7867677592318278
  0
LINE
  5
11CB4
  8
0
 10
129.5436795446549922
 20
-6.1182634537925358
 30
0.0
 11
129.5730002240497072
 21
-6.1149960203841891
 31
0.0
  0
LINE
  5
11CB5
  8
0
 10
129.8516021551903918
 20
-6.8288772643522222
 30
0.0
 11
129.8173751455973104
 21
-6.8449313250636328
 31
0.0
  0
ARC
  5
11CB6
  8
0
 10
129.8274409191708116
 20
-6.8663913989260896
 30
0.0
 40
0.0237034716405323
 50
115.1287634463159009
 51
195.7629064676007999
  0
LINE
  5
11CB7
  8
0
 10
129.8046288386904052
 20
-6.872830618752217
 30
0.0
 11
129.8290519470237996
 21
-6.9593538199980989
 31
0.0
  0
ARC
  5
11CB8
  8
0
 10
129.8515622583634013
 20
-6.9529997812599538
 30
0.0
 40
0.0233899107499436
 50
195.7629064675963093
 51
278.5111375670591087
  0
LINE
  5
11CB9
  8
0
 10
129.855024003990394
 20
-6.9761321015522171
 30
0.0
 11
129.8942832132165961
 21
-6.9713326360731349
 31
0.0
  0
ARC
  5
11CBA
  8
0
 10
129.8932272212310011
 20
-6.9665900259354308
 30
0.0
 40
0.0048587518965045
 50
282.5527357081472815
 51
347.5096575633870088
  0
ARC
  5
11CBB
  8
0
 10
129.7504787750303876
 20
-6.9535546554943357
 30
0.0
 40
0.1481633255455278
 50
354.5445308654846031
 51
17.6279552051494193
  0
ARC
  5
11CBC
  8
0
 10
129.6241208980702879
 20
-6.9739196906998719
 30
0.0
 40
0.2754013876353667
 50
13.7018225088449501
 51
29.2153859641971891
  0
ARC
  5
11CBD
  8
0
 10
129.8383500463870917
 20
-6.8540956022519159
 30
0.0
 40
0.0299386870670495
 50
29.1820530288056688
 51
57.4419816016872531
  0
ARC
  5
11CBE
  8
0
 10
129.8530510113581045
 20
-6.8324192360024076
 30
0.0
 40
0.0038268456155674
 50
68.3696546647162506
 51
112.2471912354232018
  0
LINE
  5
11CBF
  8
0
 10
129.7408294324903864
 20
-6.6693896435022211
 30
0.0
 11
129.7066024228973902
 21
-6.6854437042136317
 31
0.0
  0
ARC
  5
11CC0
  8
0
 10
129.7166681964708062
 20
-6.7069037780760894
 30
0.0
 40
0.0237034716405323
 50
115.1287634463159009
 51
195.7629064676007999
  0
LINE
  5
11CC1
  8
0
 10
129.6938561159903998
 20
-6.7133429979022159
 30
0.0
 11
129.7182792243237941
 21
-6.7998661991480978
 31
0.0
  0
ARC
  5
11CC2
  8
0
 10
129.7407895356633105
 20
-6.7935121604099526
 30
0.0
 40
0.0233899107499436
 50
195.7629064675963093
 51
278.5111375670591087
  0
LINE
  5
11CC3
  8
0
 10
129.7442512812903885
 20
-6.8166444807022151
 30
0.0
 11
129.7835104905167043
 21
-6.8118450152231338
 31
0.0
  0
ARC
  5
11CC4
  8
0
 10
129.7824544985309956
 20
-6.8071024050854296
 30
0.0
 40
0.0048587518965045
 50
282.5527357081472815
 51
347.5096575633870088
  0
ARC
  5
11CC5
  8
0
 10
129.6397060523304106
 20
-6.7940670346443346
 30
0.0
 40
0.1481633255455278
 50
354.5445308654846031
 51
17.6279552051494193
  0
ARC
  5
11CC6
  8
0
 10
129.5133481753703109
 20
-6.8144320698498708
 30
0.0
 40
0.2754013876353667
 50
13.7018225088449501
 51
29.2153859641971891
  0
ARC
  5
11CC7
  8
0
 10
129.7275773236870862
 20
-6.6946079814019148
 30
0.0
 40
0.0299386870670495
 50
29.1820530288056688
 51
57.4419816016872531
  0
ARC
  5
11CC8
  8
0
 10
129.742278288658099
 20
-6.6729316151524074
 30
0.0
 40
0.0038268456155674
 50
68.3696546647162506
 51
112.2471912354232018
  0
LINE
  5
11CC9
  8
0
 10
129.6782796723904028
 20
-6.6416621787022194
 30
0.0
 11
129.6440526627972929
 21
-6.65771623941363
 31
0.0
  0
ARC
  5
11CCA
  8
0
 10
129.6541184363707941
 20
-6.6791763132760869
 30
0.0
 40
0.0237034716405323
 50
115.1287634463159009
 51
195.7629064676007999
  0
LINE
  5
11CCB
  8
0
 10
129.6313063558903877
 20
-6.6856155331022151
 30
0.0
 11
129.6557294642238105
 21
-6.7721387343480961
 31
0.0
  0
ARC
  5
11CCC
  8
0
 10
129.6782397755634122
 20
-6.765784695609951
 30
0.0
 40
0.0233899107499436
 50
195.7629064675963093
 51
278.5111375670591087
  0
LINE
  5
11CCD
  8
0
 10
129.6817015211904049
 20
-6.7889170159022143
 30
0.0
 11
129.7140845040146075
 21
-6.7850056570530048
 31
0.0
  0
ARC
  5
11CCE
  8
0
 10
129.4507984152702988
 20
-6.7867046050498701
 30
0.0
 40
0.2754013876353667
 50
21.5999573622841616
 51
29.2153859641971891
  0
ARC
  5
11CCF
  8
0
 10
129.6650275635871026
 20
-6.6668805166019141
 30
0.0
 40
0.0299386870670495
 50
29.1820530288056688
 51
57.4419816016872531
  0
ARC
  5
11CD0
  8
0
 10
129.679728528558087
 20
-6.6452041503524049
 30
0.0
 40
0.0038268456155674
 50
68.3696546647162506
 51
112.2471912354232018
  0
LINE
  5
11CD1
  8
0
 10
130.1028810354904124
 20
-7.7196329157022134
 30
0.0
 11
130.0698929914786959
 21
-7.734516664106315
 31
0.0
  0
ARC
  5
11CD2
  8
0
 10
130.0783593861087866
 20
-7.7532814128172802
 30
0.0
 40
0.0205862971954535
 50
114.2842367268217032
 51
202.7981555046316089
  0
LINE
  5
11CD3
  8
0
 10
130.0593813804904073
 20
-7.7612583129022212
 30
0.0
 11
130.0837002858264952
 21
-7.846068414574165
 31
0.0
  0
ARC
  5
11CD4
  8
0
 10
130.1065837704192063
 20
-7.8401410897785011
 30
0.0
 40
0.0236386769159605
 50
194.5217138673012869
 51
270.9068225024860794
  0
LINE
  5
11CD5
  8
0
 10
130.1069578850469952
 20
-7.86377680606937
 30
0.0
 11
130.1548131253917973
 21
-7.8572331832608979
 31
0.0
  0
ARC
  5
11CD6
  8
0
 10
130.1456074565649885
 20
-7.8492157860122758
 30
0.0
 40
0.0122074975806387
 50
318.946755337919285
 51
24.9548296401859702
  0
ARC
  5
11CD7
  8
0
 10
129.8179668556149977
 20
-7.9107751702041504
 30
0.0
 40
0.3452152719320099
 50
11.1419906109788798
 51
33.4015190719910677
  0
ARC
  5
11CD8
  8
0
 10
130.1035197770777927
 20
-7.7231751605490544
 30
0.0
 40
0.0035993734691628
 50
42.7225258871002822
 51
100.2217945904317986
  0
LINE
  5
11CD9
  8
0
 10
130.0593694997403986
 20
-7.7947127592022163
 30
0.0
 11
130.0263814557287105
 21
-7.8095965076063107
 31
0.0
  0
ARC
  5
11CDA
  8
0
 10
130.0348478503588012
 20
-7.8283612563172831
 30
0.0
 40
0.0205862971954535
 50
114.2842367268217032
 51
202.7981555046316089
  0
LINE
  5
11CDB
  8
0
 10
130.0158698447403935
 20
-7.8363381564022161
 30
0.0
 11
130.0401887500765099
 21
-7.9211482580741652
 31
0.0
  0
ARC
  5
11CDC
  8
0
 10
130.0630722346691925
 20
-7.9152209332785013
 30
0.0
 40
0.0236386769159605
 50
194.5217138673012869
 51
270.9068225024860794
  0
LINE
  5
11CDD
  8
0
 10
130.0634463492970099
 20
-7.9388566495693702
 30
0.0
 11
130.1113015896418119
 21
-7.9323130267608981
 31
0.0
  0
ARC
  5
11CDE
  8
0
 10
130.1020959208150884
 20
-7.9242956295122751
 30
0.0
 40
0.0122074975806387
 50
318.946755337919285
 51
24.9548296401859702
  0
ARC
  5
11CDF
  8
0
 10
129.7744553198650124
 20
-7.9858550137041489
 30
0.0
 40
0.3452152719320099
 50
11.1419906109788798
 51
21.1099334703370403
  0
ARC
  5
11CE0
  8
0
 10
129.7744553198650124
 20
-7.9858550137041489
 30
0.0
 40
0.3452152719320099
 50
29.4151163408762386
 51
33.4015190719910677
  0
ARC
  5
11CE1
  8
0
 10
130.0600082413278074
 20
-7.7982550040490501
 30
0.0
 40
0.0035993734691628
 50
42.7225258871002822
 51
100.2217945904317986
  0
LINE
  5
11CE2
  8
0
 10
130.145328564390411
 20
-8.0944876429022141
 30
0.0
 11
130.1123405203786945
 21
-8.1093713913063112
 31
0.0
  0
ARC
  5
11CE3
  8
0
 10
130.1208069150088136
 20
-8.1281361400172827
 30
0.0
 40
0.0205862971954535
 50
114.2842367268217032
 51
202.7981555046316089
  0
LINE
  5
11CE4
  8
0
 10
130.1018289093904059
 20
-8.1361130401022166
 30
0.0
 11
130.1261478147264938
 21
-8.2209231417741648
 31
0.0
  0
ARC
  5
11CE5
  8
0
 10
130.1490312993192049
 20
-8.2149958169784991
 30
0.0
 40
0.0236386769159605
 50
194.5217138673012869
 51
270.9068225024860794
  0
LINE
  5
11CE6
  8
0
 10
130.1494054139469938
 20
-8.2386315332693698
 30
0.0
 11
130.1945215753125069
 21
-8.2324624462391007
 31
0.0
  0
ARC
  5
11CE7
  8
0
 10
129.8604143845149963
 20
-8.2856298974041493
 30
0.0
 40
0.3452152719320099
 50
26.5658661588486709
 51
33.4015190719910677
  0
ARC
  5
11CE8
  8
0
 10
130.1459673059777913
 20
-8.0980298877490497
 30
0.0
 40
0.0035993734691628
 50
42.7225258871002822
 51
100.2217945904317986
  0
LINE
  5
11CE9
  8
0
 10
130.2131752611904005
 20
-8.1042745915022181
 30
0.0
 11
130.1801872171787124
 21
-8.1191583399063134
 31
0.0
  0
ARC
  5
11CEA
  8
0
 10
130.1886536118088884
 20
-8.1379230886172849
 30
0.0
 40
0.0205862971954535
 50
114.2842367268217032
 51
202.7981555046316089
  0
LINE
  5
11CEB
  8
0
 10
130.1696756061903955
 20
-8.1458999887022188
 30
0.0
 11
130.1939945115265118
 21
-8.230710090374167
 31
0.0
  0
ARC
  5
11CEC
  8
0
 10
130.2168779961191944
 20
-8.2247827655785031
 30
0.0
 40
0.0236386769159605
 50
194.5217138673012869
 51
270.9068225024860794
  0
LINE
  5
11CED
  8
0
 10
130.2172521107470118
 20
-8.2484184818693702
 30
0.0
 11
130.2651073510918138
 21
-8.2418748590608981
 31
0.0
  0
ARC
  5
11CEE
  8
0
 10
130.2559016822650051
 20
-8.2338574618122777
 30
0.0
 40
0.0122074975806387
 50
318.946755337919285
 51
24.9548296401859702
  0
ARC
  5
11CEF
  8
0
 10
129.9282610813149859
 20
-8.2954168460041515
 30
0.0
 40
0.3452152719320099
 50
11.1419906109788798
 51
33.4015190719910677
  0
ARC
  5
11CF0
  8
0
 10
130.2138140027778093
 20
-8.1078168363490501
 30
0.0
 40
0.0035993734691628
 50
42.7225258871002822
 51
100.2217945904317986
  0
ARC
  5
11CF1
  8
0
 10
130.1901899625551948
 20
-8.3578073103735484
 30
0.0
 40
0.0238307283936308
 50
122.4692822829261019
 51
195.8548191161775094
  0
ARC
  5
11CF2
  8
0
 10
130.1306287104372075
 20
-8.3405767981700691
 30
0.0
 40
0.0239915656018515
 50
203.0517657728732104
 51
277.6704104295662887
  0
LINE
  5
11CF3
  8
0
 10
130.133830970003288
 20
-8.3643536935907115
 30
0.0
 11
130.1664296028461933
 21
-8.3597722545262627
 31
0.0
  0
LINE
  5
11CF4
  8
0
 10
130.1276203509075913
 20
-8.2314613824535954
 30
0.0
 11
130.1782203494865939
 21
-8.3372983800932943
 31
0.0
  0
ARC
  5
11CF5
  8
0
 10
130.086211121867791
 20
-8.6094512080809871
 30
0.0
 40
0.2813499213975747
 50
11.3339297155402505
 51
42.9129296915162968
  0
LINE
  5
11CF6
  8
0
 10
130.2430156131497085
 20
-8.4689022753841918
 30
0.0
 11
130.2447066110497076
 21
-8.4703276646841914
 31
0.0
  0
LINE
  5
11CF7
  8
0
 10
130.2447066110497076
 20
-8.4703276646841914
 30
0.0
 11
130.2812648973558112
 21
-8.5351342900278002
 31
0.0
  0
LINE
  5
11CF8
  8
0
 10
130.2303411785871106
 20
-8.4659393428445071
 30
0.0
 11
130.2340241102043024
 21
-8.4732801416228121
 31
0.0
  0
LINE
  5
11CF9
  8
0
 10
129.4172360853567909
 20
-5.6677418710743481
 30
0.0
 11
129.4237320075501998
 21
-5.7252148153213218
 31
0.0
  0
ARC
  5
11CFA
  8
0
 10
130.3237963742654983
 20
-7.2423935195567131
 30
0.0
 40
0.67062574427292
 50
195.1899961773663961
 51
200.9566619538321959
  0
LINE
  5
11CFB
  8
0
 10
129.6627978423404102
 20
-7.4231351934522181
 30
0.0
 11
129.6765382798496944
 21
-7.4181656913841891
 31
0.0
  0
ARC
  5
11CFC
  8
0
 10
129.5283294345861123
 20
-6.8592566259980421
 30
0.0
 40
0.0051019362184504
 50
283.3479900047453839
 51
329.9431272471296097
  0
ARC
  5
11CFD
  8
0
 10
129.5411826400944051
 20
-6.8608299984342551
 30
0.0
 40
0.0084942851830521
 50
157.2529076180761081
 51
186.6385106145432076
  0
ARC
  5
11CFE
  8
0
 10
129.5340898532028007
 20
-6.8579470069711368
 30
0.0
 40
0.0008425962982321
 50
51.7608408650952683
 51
151.5470343186966033
  0
ARC
  5
11CFF
  8
0
 10
129.092370694073594
 20
-7.0527509363322869
 30
0.0
 40
0.4836303117376904
 50
4.7335483155895917
 51
17.5415972382548198
  0
ARC
  5
11D00
  8
0
 10
129.5738863336441966
 20
-7.0120888929327023
 30
0.0
 40
0.0025375820319676
 50
212.9345530474523969
 51
243.4349488248863054
  0
ARC
  5
11D01
  8
0
 10
129.5716810010725055
 20
-7.0125276452206791
 30
0.0
 40
0.0026887521762674
 50
319.6893510806455083
 51
353.3123239243063836
  0
ARC
  5
11D02
  8
0
 10
129.5731873634248927
 20
-7.0137341542906242
 30
0.0
 40
0.0007615018693522
 50
235.0834106027836867
 51
315.5858329095971726
  0
ARC
  5
11D03
  8
0
 10
129.5674723482291029
 20
-7.0155493376173856
 30
0.0
 40
0.0054166706318716
 50
61.8064429990695672
 51
100.9836289808456939
  0
ARC
  5
11D04
  8
0
 10
129.5862382511652129
 20
-7.0022933798325431
 30
0.0
 40
0.0182921642076869
 50
207.6256360223077024
 51
217.6564444600143986
  0
ARC
  5
11D05
  8
0
 10
129.5432097971497001
 20
-7.003092028884196
 30
0.0
 40
0.0118110235999994
 50
203.0710984583330116
 51
281.9996927541179161
  0
LINE
  5
11D06
  8
0
 10
129.5456653850845896
 20
-7.0146449664488841
 30
0.0
 11
129.5664403180497004
 21
-7.0102318913841941
 31
0.0
  0
ARC
  5
11D07
  8
0
 10
129.3385580655983063
 20
-6.9602840280930769
 30
0.0
 40
0.2214625426106322
 50
13.9258135947044899
 51
27.71569937013372
  0
LINE
  5
11D08
  8
0
 10
130.051944497149691
 20
-8.0891544983841932
 30
0.0
 11
130.0188837743775139
 21
-8.0251566642021643
 31
0.0
  0
ARC
  5
11D09
  8
0
 10
130.0589098810445137
 20
-8.0854825019404721
 30
0.0
 40
0.0078740161724915
 50
207.7972072679636995
 51
259.1305113205926887
  0
ENDSEC
  0
EOF
