  0
SECTION
  2
HEADER
  9
$ACADVER
  1
AC1009
  9
$INSBASE
 10
123.0283973094673939
 20
-17.1832425016423507
 30
0.0
  9
$EXTMIN
 10
111.3804191223105988
 20
-18.6818277367611216
 30
0.0
  9
$EXTMAX
 10
125.4320081286943065
 20
-7.101313335186779
 30
0.0
  9
$LIMMIN
 10
0.0
 20
0.0
  9
$LIMMAX
 10
11.6929133858000007
 20
8.2677165353999982
  9
$ORTHOMODE
 70
     0
  9
$REGENMODE
 70
     1
  9
$FILLMODE
 70
     1
  9
$QTEXTMODE
 70
     0
  9
$MIRRTEXT
 70
     0
  9
$DRAGMODE
 70
     2
  9
$LTSCALE
 40
0.6431102362
  9
$OSMODE
 70
  4095
  9
$ATTMODE
 70
     1
  9
$TEXTSIZE
 40
0.2
  9
$TRACEWID
 40
0.05
  9
$TEXTSTYLE
  7
STANDARD
  9
$CLAYER
  8
0
  9
$CELTYPE
  6
BYLAYER
  9
$CECOLOR
 62
   256
  9
$DIMSCALE
 40
1.0
  9
$DIMASZ
 40
0.1875
  9
$DIMEXO
 40
0.0625
  9
$DIMDLI
 40
0.4443307087
  9
$DIMRND
 40
0.0
  9
$DIMDLE
 40
0.0
  9
$DIMEXE
 40
0.125
  9
$DIMTP
 40
0.01
  9
$DIMTM
 40
0.01
  9
$DIMTXT
 40
1.0
  9
$DIMCEN
 40
0.1052362205
  9
$DIMTSZ
 40
0.0
  9
$DIMTOL
 70
     1
  9
$DIMLIM
 70
     0
  9
$DIMTIH
 70
     1
  9
$DIMTOH
 70
     1
  9
$DIMSE1
 70
     0
  9
$DIMSE2
 70
     0
  9
$DIMTAD
 70
     0
  9
$DIMZIN
 70
     0
  9
$DIMBLK
  1

  9
$DIMASO
 70
     1
  9
$DIMSHO
 70
     1
  9
$DIMPOST
  1
\X
  9
$DIMAPOST
  1

  9
$DIMALT
 70
     1
  9
$DIMALTD
 70
     2
  9
$DIMALTF
 40
25.3999999999999986
  9
$DIMLFAC
 40
1.0
  9
$DIMTOFL
 70
     0
  9
$DIMTVP
 40
0.0
  9
$DIMTIX
 70
     0
  9
$DIMSOXD
 70
     0
  9
$DIMSAH
 70
     0
  9
$DIMBLK1
  1

  9
$DIMBLK2
  1

  9
$DIMSTYLE
  2
STANDARD
  9
$DIMCLRD
 70
     0
  9
$DIMCLRE
 70
     0
  9
$DIMCLRT
 70
     0
  9
$DIMTFAC
 40
1.0
  9
$DIMGAP
 40
0.09
  9
$LUNITS
 70
     2
  9
$LUPREC
 70
     4
  9
$SKETCHINC
 40
0.1
  9
$FILLETRAD
 40
0.0
  9
$AUNITS
 70
     0
  9
$AUPREC
 70
     0
  9
$MENU
  1
.
  9
$ELEVATION
 40
0.0
  9
$PELEVATION
 40
0.0
  9
$THICKNESS
 40
0.0
  9
$LIMCHECK
 70
     0
  9
$BLIPMODE
 70
     0
  9
$CHAMFERA
 40
0.0
  9
$CHAMFERB
 40
0.0
  9
$SKPOLY
 70
     0
  9
$TDCREATE
 40
2458172.4620254631154239
  9
$TDUPDATE
 40
2459118.0882638888433576
  9
$TDINDWG
 40
0.1057235301
  9
$TDUSRTIMER
 40
0.1057235301
  9
$USRTIMER
 70
     1
  9
$ANGBASE
 50
0.0
  9
$ANGDIR
 70
     0
  9
$PDMODE
 70
     0
  9
$PDSIZE
 40
0.3125
  9
$PLINEWID
 40
0.0
  9
$COORDS
 70
     1
  9
$SPLFRAME
 70
     0
  9
$SPLINETYPE
 70
     6
  9
$SPLINESEGS
 70
     8
  9
$ATTDIA
 70
     1
  9
$ATTREQ
 70
     1
  9
$HANDLING
 70
     1
  9
$HANDSEED
  5
14AC4
  9
$SURFTAB1
 70
     6
  9
$SURFTAB2
 70
     6
  9
$SURFTYPE
 70
     6
  9
$SURFU
 70
     6
  9
$SURFV
 70
     6
  9
$UCSNAME
  2

  9
$UCSORG
 10
0.0
 20
0.0
 30
0.0
  9
$UCSXDIR
 10
1.0
 20
0.0
 30
0.0
  9
$UCSYDIR
 10
0.0
 20
1.0
 30
0.0
  9
$PUCSNAME
  2

  9
$PUCSORG
 10
0.0
 20
0.0
 30
0.0
  9
$PUCSXDIR
 10
1.0
 20
0.0
 30
0.0
  9
$PUCSYDIR
 10
0.0
 20
1.0
 30
0.0
  9
$USERI1
 70
     0
  9
$USERI2
 70
     0
  9
$USERI3
 70
     0
  9
$USERI4
 70
     0
  9
$USERI5
 70
     0
  9
$USERR1
 40
0.0
  9
$USERR2
 40
0.0
  9
$USERR3
 40
0.0
  9
$USERR4
 40
0.0
  9
$USERR5
 40
0.0
  9
$WORLDVIEW
 70
     1
  9
$SHADEDGE
 70
     3
  9
$SHADEDIF
 70
    70
  9
$TILEMODE
 70
     1
  9
$MAXACTVP
 70
    64
  9
$PLIMCHECK
 70
     0
  9
$PEXTMIN
 10
1.0000000000000000E+20
 20
1.0000000000000000E+20
 30
1.0000000000000000E+20
  9
$PEXTMAX
 10
-1.0000000000000000E+20
 20
-1.0000000000000000E+20
 30
-1.0000000000000000E+20
  9
$PLIMMIN
 10
0.0
 20
0.0
  9
$PLIMMAX
 10
12.0
 20
9.0
  9
$UNITMODE
 70
     0
  9
$VISRETAIN
 70
     1
  9
$PLINEGEN
 70
     0
  9
$PSLTSCALE
 70
     1
  0
ENDSEC
  0
SECTION
  2
TABLES
  0
TABLE
  2
VPORT
 70
     1
  0
VPORT
  2
*ACTIVE
 70
     0
 10
0.0
 20
0.0
 11
1.0
 21
1.0
 12
12.8448339154248607
 22
-29.169627961398259
 13
0.0
 23
0.0
 14
1.0
 24
1.0
 15
0.0
 25
0.0
 16
0.0
 26
0.0
 36
30.6214257250603907
 17
124.6111586000725993
 27
5.3122741703778242
 37
0.0
 40
74.8913406917900062
 41
2.005224660397074
 42
50.0
 43
0.0
 44
0.0
 50
0.0
 51
0.0
 71
     0
 72
   100
 73
     1
 74
     1
 75
     0
 76
     0
 77
     0
 78
     1
  0
ENDTAB
  0
TABLE
  2
LTYPE
 70
     2
  0
LTYPE
  2
CONTINUOUS
 70
     0
  3
Solid line
 72
    65
 73
     0
 40
0.0
  0
LTYPE
  2
PHANTOM2
 70
     0
  3
___ _ _ ___ _ _ ___ _ _ ___ _ _
 72
    65
 73
     6
 40
1.25
 49
0.625
 49
-0.125
 49
0.125
 49
-0.125
 49
0.125
 49
-0.125
  0
ENDTAB
  0
TABLE
  2
LAYER
 70
     2
  0
LAYER
  2
0
 70
     0
 62
   255
  6
CONTINUOUS
  0
LAYER
  2
DEFPOINTS
 70
     0
 62
     7
  6
CONTINUOUS
  0
ENDTAB
  0
TABLE
  2
STYLE
 70
     1
  0
STYLE
  2
STANDARD
 70
     0
 40
0.0
 41
0.8
 50
0.0
 71
     0
 42
0.2
  3
txt
  4

  0
ENDTAB
  0
TABLE
  2
VIEW
 70
     0
  0
ENDTAB
  0
TABLE
  2
UCS
 70
     0
  0
ENDTAB
  0
TABLE
  2
APPID
 70
     9
  0
APPID
  2
ACAD
 70
     0
  0
APPID
  2
ACAD_MLEADERVER
 70
     0
  0
APPID
  2
ACAD_EXEMPT_FROM_CAD_STANDARDS
 70
     0
  0
APPID
  2
ACAD_DSTYLE_DIMJAG
 70
     0
  0
APPID
  2
ACAD_DSTYLE_DIMTALN
 70
     0
  0
APPID
  2
ACAD_NAV_VCDISPLAY
 70
     0
  0
APPID
  2
ACAECLAYERSTANDARD
 70
     0
  0
APPID
  2
ACCMTRANSPARENCY
 70
     0
  0
APPID
  2
ACDBATTR
 70
     0
  0
ENDTAB
  0
TABLE
  2
DIMSTYLE
 70
     1
  0
DIMSTYLE
  2
STANDARD
 70
     0
  3

  4

  5

  6

  7

 40
1.0
 41
0.1875
 42
0.0625
 43
0.38
 44
0.125
 45
0.0
 46
0.0
 47
0.01
 48
0.01
140
0.15625
141
0.09
142
0.0
143
25.3999999999999986
144
1.0
145
0.0
146
1.0
147
0.09
 71
     1
 72
     0
 73
     1
 74
     1
 75
     0
 76
     0
 77
     0
 78
     4
170
     0
171
     2
172
     0
173
     0
174
     0
175
     0
176
     0
177
     0
178
     0
  0
ENDTAB
  0
ENDSEC
  0
SECTION
  2
BLOCKS
  0
BLOCK
  8
0
  2
$MODEL_SPACE
 70
     0
 10
0.0
 20
0.0
 30
0.0
  3
$MODEL_SPACE
  1

  0
ENDBLK
  5
21
  8
0
  0
BLOCK
 67
     1
  8
0
  2
$PAPER_SPACE
 70
     0
 10
0.0
 20
0.0
 30
0.0
  3
$PAPER_SPACE
  1

  0
ENDBLK
  5
1D
 67
     1
  8
0
  0
BLOCK
  8
0
  2
_FILLED
 70
     0
 10
0.0
 20
0.0
 30
0.0
  3
_FILLED
  1

  0
SOLID
  5
ADD3
  8
0
  6
BYBLOCK
 62
     0
 10
0.0
 20
0.0
 30
0.0
 11
-1.0
 21
0.1666666667
 31
0.0
 12
-1.0
 22
-0.1666666667
 32
0.0
 13
-1.0
 23
-0.1666666667
 33
0.0
  0
ENDBLK
  5
ADD4
  8
0
  6
BYBLOCK
 62
     0
  0
ENDSEC
  0
SECTION
  2
ENTITIES
  0
ATTDEF
  5
CC49
  8
DEFPOINTS
 10
123.0307852311254067
 20
-17.1796721163466515
 30
0.0
 40
0.001
  1
K-98952T-L
  3

  2
MODELNUMBER
 70
     0
1001
ACDBATTR
1070
     0
1070
     1
  0
ATTDEF
  5
CC4A
  8
DEFPOINTS
 10
123.0307852311254067
 20
-17.1813387830133202
 30
0.0
 40
0.001
  1
RAINDUET
  3

  2
TRADENAME
 70
     0
1001
ACDBATTR
1070
     0
1070
     1
  0
ATTDEF
  5
CC4B
  8
DEFPOINTS
 10
123.0307852311254067
 20
-17.1830054496799782
 30
0.0
 40
0.001
  1
HANDSHOWER
  3

  2
PRODUCT
 70
     0
1001
ACDBATTR
1070
     0
1070
     1
  0
ARC
  5
14135
  8
0
 10
123.053424746705403
 20
-9.6256210109873308
 30
0.0
 40
2.4738375589797061
 50
90.5822361696593674
 51
117.6362710525094002
  0
ARC
  5
14136
  8
0
 10
123.0088804150841071
 20
-9.4778357170312262
 30
0.0
 40
2.3224330544918779
 50
118.3539315024138006
 51
145.8371601333120964
  0
ARC
  5
14137
  8
0
 10
122.8930803448162976
 20
-9.5477044432579792
 30
0.0
 40
2.2691767771894651
 50
142.7339916709894112
 51
174.5069274511783135
  0
ARC
  5
14138
  8
0
 10
122.8905159364231992
 20
-9.5393477616614781
 30
0.0
 40
2.2658385795756071
 50
174.7110637431042051
 51
212.8017327990193053
  0
ARC
  5
14139
  8
0
 10
122.990686795125697
 20
-9.4547707374915042
 30
0.0
 40
2.3959145139688869
 50
213.2040958033705067
 51
243.6947228803861947
  0
ARC
  5
1413A
  8
0
 10
123.0260832974350933
 20
-9.3845282627612079
 30
0.0
 40
2.474569239111831
 50
243.6807652190927058
 51
268.1909938619090781
  0
ARC
  5
1413B
  8
0
 10
123.1494692174231034
 20
-10.1425917781923296
 30
0.0
 40
2.9219946612811492
 50
92.3768926601996156
 51
118.4484917167427938
  0
ARC
  5
1413C
  8
0
 10
122.9539299258127016
 20
-9.5829738907196607
 30
0.0
 40
2.3387206286619602
 50
120.7681117992241013
 51
158.3593005420443944
  0
ARC
  5
1413D
  8
0
 10
123.024533346593401
 20
-9.729354598686875
 30
0.0
 40
2.2402775575329561
 50
89.887101189147387
 51
125.2529211642117986
  0
ARC
  5
1413E
  8
0
 10
122.9516970206764057
 20
-9.6266421757495912
 30
0.0
 40
2.114361188445125
 50
125.2476432138659987
 51
155.7876134161718085
  0
ARC
  5
1413F
  8
0
 10
122.8908438554055067
 20
-9.5918299871428712
 30
0.0
 40
2.044595287801354
 50
155.9779658455699973
 51
179.9367156049704874
  0
ARC
  5
14140
  8
0
 10
122.8964982445454979
 20
-9.5826473128664915
 30
0.0
 40
2.0502601227087212
 50
180.193506317049696
 51
220.8884749970351038
  0
ARC
  5
14141
  8
0
 10
123.0066843166863038
 20
-9.48665571817547
 30
0.0
 40
2.1963942209305198
 50
220.8999961664939917
 51
257.5223612646523179
  0
ARC
  5
14142
  8
0
 10
123.0334518374577044
 20
-9.3913350250830234
 30
0.0
 40
2.2952535170089359
 50
257.3840569060799908
 51
267.3440204517929146
  0
LINE
  5
14143
  8
0
 10
122.9270921123426064
 20
-11.6841229167588594
 30
0.0
 11
122.9286598728105986
 21
-11.3726119736786906
 31
0.0
  0
ARC
  5
14144
  8
0
 10
122.9923914111313934
 20
-11.3664913442612203
 30
0.0
 40
0.0640247692787835
 50
94.7860970785841346
 51
185.4857299247871936
  0
LINE
  5
14145
  8
0
 10
122.9870494379125034
 20
-11.3026898207423496
 30
0.0
 11
123.0695177199901025
 21
-11.3026889925531204
 31
0.0
  0
ARC
  5
14146
  8
0
 10
122.9288354731543933
 20
-11.7082654149958394
 30
0.0
 40
0.0242053615557151
 50
49.3455558852376512
 51
94.1302328067430949
  0
ARC
  5
14147
  8
0
 10
122.9398924172311069
 20
-11.694607095197
 30
0.0
 40
0.0066554375864982
 50
4.3804337517201377
 51
44.3929804055270978
  0
ARC
  5
14148
  8
0
 10
127.0620175190678935
 20
-11.9860766637597393
 30
0.0
 40
4.1137392149867926
 50
179.8408097989691896
 51
181.7047392692950893
  0
ARC
  5
14149
  8
0
 10
109.9853905637099984
 20
-11.9386309584036798
 30
0.0
 40
12.9629536518246908
 50
359.8408097989691896
 51
0.4374350824142958
  0
ARC
  5
1414A
  8
0
 10
131.824414024368906
 20
-11.7718937095957497
 30
0.0
 40
8.8767063048996597
 50
179.6883175833202984
 51
180.4374350824137991
  0
ARC
  5
1414B
  8
0
 10
130.6799536144810077
 20
-11.3416496877383803
 30
0.0
 40
7.7415428608393233
 50
182.622627715587214
 51
182.8280351813492928
  0
ARC
  5
1414C
  8
0
 10
-21087.8606918277801014
 20
95.1314039035578958
 30
0.0
 40
21211.0762249882682227
 50
359.7114347942816721
 51
359.7122836190728776
  0
ARC
  5
1414D
  8
0
 10
123.0349165901546939
 20
-11.3790181397877994
 30
0.0
 40
0.0868567452272356
 50
152.819007725178011
 51
181.736244105654805
  0
ARC
  5
1414E
  8
0
 10
122.9896595229431995
 20
-11.3535805425044192
 30
0.0
 40
0.0350321293949683
 50
94.4104518958973102
 51
156.0179734869988977
  0
LINE
  5
1414F
  8
0
 10
122.9869655203412009
 20
-11.3186521523335806
 30
0.0
 11
123.0696238246125063
 21
-11.3186531936423407
 31
0.0
  0
ARC
  5
14150
  8
0
 10
122.9938207964696062
 20
-12.1072018049265697
 30
0.0
 40
0.0437397475046523
 50
181.643095870626297
 51
212.1868863982930975
  0
ARC
  5
14151
  8
0
 10
122.9871801958352933
 20
-12.1098456032409292
 30
0.0
 40
0.0367344062490695
 50
214.2147192007103058
 51
254.8266545908821001
  0
ARC
  5
14152
  8
0
 10
123.2094823971700066
 20
-10.3795481424948193
 30
0.0
 40
2.9584671514722132
 50
93.5121051842739064
 51
110.3321063297355948
  0
ARC
  5
14153
  8
0
 10
123.004434532986906
 20
-9.6926203639373352
 30
0.0
 40
2.2435727010098572
 50
111.5173588523970949
 51
128.860541471960488
  0
ARC
  5
14154
  8
0
 10
122.9470930518881033
 20
-9.6214560592168468
 30
0.0
 40
2.1521812149678801
 50
128.860541471960488
 51
163.4532464626342971
  0
ARC
  5
14155
  8
0
 10
122.8273313928161059
 20
-9.5858747132963344
 30
0.0
 40
2.0272456829475769
 50
163.4532464626342971
 51
199.7219874852339103
  0
ARC
  5
14156
  8
0
 10
122.9581085050103013
 20
-9.5389931000286126
 30
0.0
 40
2.1661720617834539
 50
199.7219874852339103
 51
232.5683158401882906
  0
ARC
  5
14157
  8
0
 10
123.1134218309877042
 20
-9.2837018374509235
 30
0.0
 40
2.4635009290843439
 50
233.3088409238916938
 51
266.1364153302382078
  0
CIRCLE
  5
14158
  8
0
 10
122.558355704694506
 20
-7.8672305609768003
 30
0.0
 40
0.0241558043965635
  0
ARC
  5
14159
  8
0
 10
122.5572677104119066
 20
-7.8631737138141906
 30
0.0
 40
0.0682971401041462
 50
89.1253186585231845
 51
169.0443075716196972
  0
ARC
  5
1415A
  8
0
 10
122.551412089368398
 20
-7.8620401950013843
 30
0.0
 40
0.0623328159426635
 50
169.044307571622312
 51
220.6927228503691083
  0
ARC
  5
1415B
  8
0
 10
122.5585938954723986
 20
-7.8558644540579294
 30
0.0
 40
0.0718047806340931
 50
220.6927228503701031
 51
269.0819106221161974
  0
ARC
  5
1415C
  8
0
 10
122.5585759613286996
 20
-7.8569835856204691
 30
0.0
 40
0.0706855053829712
 50
269.0819106221171069
 51
319.7397272231734178
  0
ARC
  5
1415D
  8
0
 10
122.5644629693396013
 20
-7.8619691180025342
 30
0.0
 40
0.062971077571794
 50
319.7397272231706893
 51
30.2254073791988915
  0
ARC
  5
1415E
  8
0
 10
122.5572930549609936
 20
-7.8661463653688202
 30
0.0
 40
0.0712690934645025
 50
30.2254073791990692
 51
89.1821734439018456
  0
ARC
  5
1415F
  8
0
 10
122.5566750685244983
 20
-7.8460197191625118
 30
0.0
 40
0.0737895492597202
 50
88.2068426578304354
 51
142.8071991524753059
  0
ARC
  5
14160
  8
0
 10
122.5593246928567055
 20
-7.8480303688112221
 30
0.0
 40
0.0771156913360524
 50
142.8071991524739133
 51
176.258695062607103
  0
ARC
  5
14161
  8
0
 10
122.5608476090556991
 20
-7.848129953908014
 30
0.0
 40
0.0786418600490471
 50
176.2586950626075009
 51
223.4163745611784861
  0
ARC
  5
14162
  8
0
 10
122.5563524166744003
 20
-7.8483172788791364
 30
0.0
 40
0.0760964927344279
 50
31.1836488042250402
 51
88.0181565785875506
  0
ARC
  5
14163
  8
0
 10
122.5529675103991991
 20
-7.8503659309182856
 30
0.0
 40
0.0800530778364234
 50
349.2585854523006788
 51
31.1836488042268591
  0
ARC
  5
14164
  8
0
 10
122.5578496510971007
 20
-7.8512920763818883
 30
0.0
 40
0.075083868320412
 50
315.7977219022811823
 51
349.2585854523006788
  0
ARC
  5
14165
  8
0
 10
122.5600274639275966
 20
-7.8144289414332766
 30
0.0
 40
0.0415584713821026
 50
241.8282962561075919
 51
294.5448164352076788
  0
CIRCLE
  5
14166
  8
0
 10
122.8232090119687001
 20
-8.0963714242185745
 30
0.0
 40
0.0241558043965635
  0
ARC
  5
14167
  8
0
 10
122.8221210176860012
 20
-8.0923145770559728
 30
0.0
 40
0.0682971401041462
 50
89.1253186585231845
 51
169.0443075716196972
  0
ARC
  5
14168
  8
0
 10
122.8162653966426063
 20
-8.0911810582431585
 30
0.0
 40
0.0623328159426635
 50
169.044307571622312
 51
220.6927228503691083
  0
ARC
  5
14169
  8
0
 10
122.8234472027466069
 20
-8.0850053172997036
 30
0.0
 40
0.0718047806340931
 50
220.6927228503701031
 51
269.0819106221161974
  0
ARC
  5
1416A
  8
0
 10
122.8234292686027942
 20
-8.0861244488622432
 30
0.0
 40
0.0706855053829712
 50
269.0819106221171069
 51
319.7397272231734178
  0
ARC
  5
1416B
  8
0
 10
122.8293162766137954
 20
-8.0911099812443084
 30
0.0
 40
0.062971077571794
 50
319.7397272231706893
 51
30.2254073791988915
  0
ARC
  5
1416C
  8
0
 10
122.8221463622352019
 20
-8.0952872286105944
 30
0.0
 40
0.0712690934645025
 50
30.2254073791990692
 51
89.1821734439018456
  0
ARC
  5
1416D
  8
0
 10
122.8215283757985929
 20
-8.0751605824042851
 30
0.0
 40
0.0737895492597202
 50
88.2068426578304354
 51
142.8071991524753059
  0
ARC
  5
1416E
  8
0
 10
122.8241780001308996
 20
-8.0771712320529971
 30
0.0
 40
0.0771156913360524
 50
142.8071991524739133
 51
176.258695062607103
  0
ARC
  5
1416F
  8
0
 10
122.8257009163297937
 20
-8.0772708171497953
 30
0.0
 40
0.0786418600490471
 50
176.2586950626075009
 51
223.4163745611784861
  0
ARC
  5
14170
  8
0
 10
122.8212057239485944
 20
-8.0774581421209177
 30
0.0
 40
0.0760964927344279
 50
31.1836488042250402
 51
88.0181565785875506
  0
ARC
  5
14171
  8
0
 10
122.8178208176733932
 20
-8.0795067941600607
 30
0.0
 40
0.0800530778364234
 50
349.2585854523006788
 51
31.1836488042268591
  0
ARC
  5
14172
  8
0
 10
122.8227029583712948
 20
-8.0804329396236625
 30
0.0
 40
0.075083868320412
 50
315.7977219022811823
 51
349.2585854523006788
  0
ARC
  5
14173
  8
0
 10
122.8248807712018049
 20
-8.0435698046750517
 30
0.0
 40
0.0415584713821026
 50
241.8282962561075919
 51
294.5448164352076788
  0
CIRCLE
  5
14174
  8
0
 10
123.0288727480994027
 20
-7.804395390141031
 30
0.0
 40
0.0241558043965635
  0
ARC
  5
14175
  8
0
 10
123.0277847538168032
 20
-7.8003385429784231
 30
0.0
 40
0.0682971401041462
 50
89.1253186585231845
 51
169.0443075716196972
  0
ARC
  5
14176
  8
0
 10
123.0219291327732947
 20
-7.799205024165615
 30
0.0
 40
0.0623328159426635
 50
169.044307571622312
 51
220.6927228503691083
  0
ARC
  5
14177
  8
0
 10
123.0291109388772952
 20
-7.793029283222161
 30
0.0
 40
0.0718047806340931
 50
220.6927228503701031
 51
269.0819106221161974
  0
ARC
  5
14178
  8
0
 10
123.0290930047335962
 20
-7.7941484147846998
 30
0.0
 40
0.0706855053829712
 50
269.0819106221171069
 51
319.7397272231734178
  0
ARC
  5
14179
  8
0
 10
123.0349800127444979
 20
-7.7991339471667649
 30
0.0
 40
0.062971077571794
 50
319.7397272231706893
 51
30.2254073791988915
  0
ARC
  5
1417A
  8
0
 10
123.0278100983659044
 20
-7.8033111945330509
 30
0.0
 40
0.0712690934645025
 50
30.2254073791990692
 51
89.1821734439018456
  0
ARC
  5
1417B
  8
0
 10
123.027192111929395
 20
-7.7831845483267443
 30
0.0
 40
0.0737895492597202
 50
88.2068426578304354
 51
142.8071991524753059
  0
ARC
  5
1417C
  8
0
 10
123.0298417362616021
 20
-7.7851951979754537
 30
0.0
 40
0.0771156913360524
 50
142.8071991524739133
 51
176.258695062607103
  0
ARC
  5
1417D
  8
0
 10
123.0313646524605957
 20
-7.7852947830722448
 30
0.0
 40
0.0786418600490471
 50
176.2586950626075009
 51
223.4163745611784861
  0
ARC
  5
1417E
  8
0
 10
123.0268694600792969
 20
-7.785482108043368
 30
0.0
 40
0.0760964927344279
 50
31.1836488042250402
 51
88.0181565785875506
  0
ARC
  5
1417F
  8
0
 10
123.0234845538040958
 20
-7.7875307600825181
 30
0.0
 40
0.0800530778364234
 50
349.2585854523006788
 51
31.1836488042268591
  0
ARC
  5
14180
  8
0
 10
123.0283666945020968
 20
-7.788456905546119
 30
0.0
 40
0.075083868320412
 50
315.7977219022811823
 51
349.2585854523006788
  0
ARC
  5
14181
  8
0
 10
123.0305445073324933
 20
-7.7515937705975091
 30
0.0
 40
0.0415584713821026
 50
241.8282962561075919
 51
294.5448164352076788
  0
CIRCLE
  5
14182
  8
0
 10
122.1122600419654987
 20
-8.031468159852956
 30
0.0
 40
0.0241558043965635
  0
ARC
  5
14183
  8
0
 10
122.1111720476828992
 20
-8.0274113126903472
 30
0.0
 40
0.0682971401041462
 50
89.1253186585231845
 51
169.0443075716196972
  0
ARC
  5
14184
  8
0
 10
122.1053164266394049
 20
-8.02627779387754
 30
0.0
 40
0.0623328159426635
 50
169.044307571622312
 51
220.6927228503691083
  0
ARC
  5
14185
  8
0
 10
122.1124982327434054
 20
-8.0201020529340852
 30
0.0
 40
0.0718047806340931
 50
220.6927228503701031
 51
269.0819106221161974
  0
ARC
  5
14186
  8
0
 10
122.1124802985997064
 20
-8.0212211844966248
 30
0.0
 40
0.0706855053829712
 50
269.0819106221171069
 51
319.7397272231734178
  0
ARC
  5
14187
  8
0
 10
122.1183673066105939
 20
-8.0262067168786881
 30
0.0
 40
0.062971077571794
 50
319.7397272231706893
 51
30.2254073791988915
  0
ARC
  5
14188
  8
0
 10
122.1111973922320004
 20
-8.0303839642449741
 30
0.0
 40
0.0712690934645025
 50
30.2254073791990692
 51
89.1821734439018456
  0
ARC
  5
14189
  8
0
 10
122.1105794057955052
 20
-8.0102573180386685
 30
0.0
 40
0.0737895492597202
 50
88.2068426578304354
 51
142.8071991524753059
  0
ARC
  5
1418A
  8
0
 10
122.1132290301277976
 20
-8.0122679676873787
 30
0.0
 40
0.0771156913360524
 50
142.8071991524739133
 51
176.258695062607103
  0
ARC
  5
1418B
  8
0
 10
122.1147519463267059
 20
-8.0123675527841698
 30
0.0
 40
0.0786418600490471
 50
176.2586950626075009
 51
223.4163745611784861
  0
ARC
  5
1418C
  8
0
 10
122.1102567539453929
 20
-8.0125548777552922
 30
0.0
 40
0.0760964927344279
 50
31.1836488042250402
 51
88.0181565785875506
  0
ARC
  5
1418D
  8
0
 10
122.106871847670206
 20
-8.0146035297944422
 30
0.0
 40
0.0800530778364234
 50
349.2585854523006788
 51
31.1836488042268591
  0
ARC
  5
1418E
  8
0
 10
122.1117539883680934
 20
-8.0155296752580441
 30
0.0
 40
0.075083868320412
 50
315.7977219022811823
 51
349.2585854523006788
  0
ARC
  5
1418F
  8
0
 10
122.1139318011986035
 20
-7.9786665403094332
 30
0.0
 40
0.0415584713821026
 50
241.8282962561075919
 51
294.5448164352076788
  0
CIRCLE
  5
14190
  8
0
 10
122.4317999449454959
 20
-8.2029042836090866
 30
0.0
 40
0.0241558043965635
  0
ARC
  5
14191
  8
0
 10
122.4307119506628965
 20
-8.1988474364464832
 30
0.0
 40
0.0682971401041462
 50
89.1253186585231845
 51
169.0443075716196972
  0
ARC
  5
14192
  8
0
 10
122.4248563296195016
 20
-8.1977139176336706
 30
0.0
 40
0.0623328159426635
 50
169.044307571622312
 51
220.6927228503691083
  0
ARC
  5
14193
  8
0
 10
122.4320381357234027
 20
-8.1915381766902158
 30
0.0
 40
0.0718047806340931
 50
220.6927228503701031
 51
269.0819106221161974
  0
ARC
  5
14194
  8
0
 10
122.4320202015797037
 20
-8.1926573082527554
 30
0.0
 40
0.0706855053829712
 50
269.0819106221171069
 51
319.7397272231734178
  0
ARC
  5
14195
  8
0
 10
122.4379072095906054
 20
-8.1976428406348205
 30
0.0
 40
0.062971077571794
 50
319.7397272231706893
 51
30.2254073791988915
  0
ARC
  5
14196
  8
0
 10
122.4307372952119977
 20
-8.2018200880011065
 30
0.0
 40
0.0712690934645025
 50
30.2254073791990692
 51
89.1821734439018456
  0
ARC
  5
14197
  8
0
 10
122.4301193087755024
 20
-8.1816934417947991
 30
0.0
 40
0.0737895492597202
 50
88.2068426578304354
 51
142.8071991524753059
  0
ARC
  5
14198
  8
0
 10
122.4327689331077949
 20
-8.1837040914435093
 30
0.0
 40
0.0771156913360524
 50
142.8071991524739133
 51
176.258695062607103
  0
ARC
  5
14199
  8
0
 10
122.4342918493067032
 20
-8.1838036765403075
 30
0.0
 40
0.0786418600490471
 50
176.2586950626075009
 51
223.4163745611784861
  0
ARC
  5
1419A
  8
0
 10
122.4297966569254044
 20
-8.1839910015114299
 30
0.0
 40
0.0760964927344279
 50
31.1836488042250402
 51
88.0181565785875506
  0
ARC
  5
1419B
  8
0
 10
122.4264117506502032
 20
-8.1860396535505728
 30
0.0
 40
0.0800530778364234
 50
349.2585854523006788
 51
31.1836488042268591
  0
ARC
  5
1419C
  8
0
 10
122.4312938913481048
 20
-8.1869657990141746
 30
0.0
 40
0.075083868320412
 50
315.7977219022811823
 51
349.2585854523006788
  0
ARC
  5
1419D
  8
0
 10
122.4334717041786007
 20
-8.1501026640655638
 30
0.0
 40
0.0415584713821026
 50
241.8282962561075919
 51
294.5448164352076788
  0
CIRCLE
  5
1419E
  8
0
 10
122.6833015862919041
 20
-8.4175433056607005
 30
0.0
 40
0.0241558043965635
  0
ARC
  5
1419F
  8
0
 10
122.6822135920092052
 20
-8.4134864584980988
 30
0.0
 40
0.0682971401041462
 50
89.1253186585231845
 51
169.0443075716196972
  0
ARC
  5
141A0
  8
0
 10
122.6763579709657961
 20
-8.4123529396852845
 30
0.0
 40
0.0623328159426635
 50
169.044307571622312
 51
220.6927228503691083
  0
ARC
  5
141A1
  8
0
 10
122.6835397770697966
 20
-8.4061771987418297
 30
0.0
 40
0.0718047806340931
 50
220.6927228503701031
 51
269.0819106221161974
  0
ARC
  5
141A2
  8
0
 10
122.6835218429259982
 20
-8.4072963303043693
 30
0.0
 40
0.0706855053829712
 50
269.0819106221171069
 51
319.7397272231734178
  0
ARC
  5
141A3
  8
0
 10
122.6894088509369993
 20
-8.4122818626864344
 30
0.0
 40
0.062971077571794
 50
319.7397272231706893
 51
30.2254073791988915
  0
ARC
  5
141A4
  8
0
 10
122.6822389365584058
 20
-8.4164591100527204
 30
0.0
 40
0.0712690934645025
 50
30.2254073791990692
 51
89.1821734439018456
  0
ARC
  5
141A5
  8
0
 10
122.6816209501217969
 20
-8.3963324638464112
 30
0.0
 40
0.0737895492597202
 50
88.2068426578304354
 51
142.8071991524753059
  0
ARC
  5
141A6
  8
0
 10
122.6842705744541036
 20
-8.3983431134951232
 30
0.0
 40
0.0771156913360524
 50
142.8071991524739133
 51
176.258695062607103
  0
ARC
  5
141A7
  8
0
 10
122.6857934906530971
 20
-8.3984426985919214
 30
0.0
 40
0.0786418600490471
 50
176.2586950626075009
 51
223.4163745611784861
  0
ARC
  5
141A8
  8
0
 10
122.6812982982717983
 20
-8.3986300235630438
 30
0.0
 40
0.0760964927344279
 50
31.1836488042250402
 51
88.0181565785875506
  0
ARC
  5
141A9
  8
0
 10
122.6779133919965972
 20
-8.4006786756021867
 30
0.0
 40
0.0800530778364234
 50
349.2585854523006788
 51
31.1836488042268591
  0
ARC
  5
141AA
  8
0
 10
122.6827955326944988
 20
-8.4016048210657885
 30
0.0
 40
0.075083868320412
 50
315.7977219022811823
 51
349.2585854523006788
  0
ARC
  5
141AB
  8
0
 10
122.6849733455249947
 20
-8.3647416861171777
 30
0.0
 40
0.0415584713821026
 50
241.8282962561075919
 51
294.5448164352076788
  0
CIRCLE
  5
141AC
  8
0
 10
123.0221794432173965
 20
-8.3716029237388625
 30
0.0
 40
0.0241558043965635
  0
ARC
  5
141AD
  8
0
 10
123.0210914489347971
 20
-8.3675460765762608
 30
0.0
 40
0.0682971401041462
 50
89.1253186585231845
 51
169.0443075716196972
  0
ARC
  5
141AE
  8
0
 10
123.0152358278914022
 20
-8.3664125577634465
 30
0.0
 40
0.0623328159426635
 50
169.044307571622312
 51
220.6927228503691083
  0
ARC
  5
141AF
  8
0
 10
123.0224176339953033
 20
-8.3602368168199916
 30
0.0
 40
0.0718047806340931
 50
220.6927228503701031
 51
269.0819106221161974
  0
ARC
  5
141B0
  8
0
 10
123.0223996998516043
 20
-8.3613559483825313
 30
0.0
 40
0.0706855053829712
 50
269.0819106221171069
 51
319.7397272231734178
  0
ARC
  5
141B1
  8
0
 10
123.0282867078626055
 20
-8.3663414807645964
 30
0.0
 40
0.062971077571794
 50
319.7397272231706893
 51
30.2254073791988915
  0
ARC
  5
141B2
  8
0
 10
123.0211167934838983
 20
-8.3705187281308824
 30
0.0
 40
0.0712690934645025
 50
30.2254073791990692
 51
89.1821734439018456
  0
ARC
  5
141B3
  8
0
 10
123.020498807047403
 20
-8.3503920819245732
 30
0.0
 40
0.0737895492597202
 50
88.2068426578304354
 51
142.8071991524753059
  0
ARC
  5
141B4
  8
0
 10
123.0231484313796955
 20
-8.3524027315732852
 30
0.0
 40
0.0771156913360524
 50
142.8071991524739133
 51
176.258695062607103
  0
ARC
  5
141B5
  8
0
 10
123.0246713475786038
 20
-8.3525023166700834
 30
0.0
 40
0.0786418600490471
 50
176.2586950626075009
 51
223.4163745611784861
  0
ARC
  5
141B6
  8
0
 10
123.020176155197305
 20
-8.3526896416412058
 30
0.0
 40
0.0760964927344279
 50
31.1836488042250402
 51
88.0181565785875506
  0
ARC
  5
141B7
  8
0
 10
123.0167912489221038
 20
-8.3547382936803487
 30
0.0
 40
0.0800530778364234
 50
349.2585854523006788
 51
31.1836488042268591
  0
ARC
  5
141B8
  8
0
 10
123.0216733896201049
 20
-8.3556644391439505
 30
0.0
 40
0.075083868320412
 50
315.7977219022811823
 51
349.2585854523006788
  0
ARC
  5
141B9
  8
0
 10
123.0238512024505013
 20
-8.3188013041953397
 30
0.0
 40
0.0415584713821026
 50
241.8282962561075919
 51
294.5448164352076788
  0
CIRCLE
  5
141BA
  8
0
 10
122.3583616831534044
 20
-8.5447129840907508
 30
0.0
 40
0.0241558043965635
  0
ARC
  5
141BB
  8
0
 10
122.3572736888707055
 20
-8.5406561369281491
 30
0.0
 40
0.0682971401041462
 50
89.1253186585231845
 51
169.0443075716196972
  0
ARC
  5
141BC
  8
0
 10
122.3514180678272965
 20
-8.5395226181153348
 30
0.0
 40
0.0623328159426635
 50
169.044307571622312
 51
220.6927228503691083
  0
ARC
  5
141BD
  8
0
 10
122.358599873931297
 20
-8.5333468771718781
 30
0.0
 40
0.0718047806340931
 50
220.6927228503701031
 51
269.0819106221161974
  0
ARC
  5
141BE
  8
0
 10
122.3585819397874985
 20
-8.5344660087344195
 30
0.0
 40
0.0706855053829712
 50
269.0819106221171069
 51
319.7397272231734178
  0
ARC
  5
141BF
  8
0
 10
122.3644689477984997
 20
-8.5394515411164846
 30
0.0
 40
0.062971077571794
 50
319.7397272231706893
 51
30.2254073791988915
  0
ARC
  5
141C0
  8
0
 10
122.3572990334199062
 20
-8.5436287884827706
 30
0.0
 40
0.0712690934645025
 50
30.2254073791990692
 51
89.1821734439018456
  0
ARC
  5
141C1
  8
0
 10
122.3566810469832973
 20
-8.5235021422764632
 30
0.0
 40
0.0737895492597202
 50
88.2068426578304354
 51
142.8071991524753059
  0
ARC
  5
141C2
  8
0
 10
122.3593306713156039
 20
-8.5255127919251734
 30
0.0
 40
0.0771156913360524
 50
142.8071991524739133
 51
176.258695062607103
  0
ARC
  5
141C3
  8
0
 10
122.3608535875145975
 20
-8.5256123770219716
 30
0.0
 40
0.0786418600490471
 50
176.2586950626075009
 51
223.4163745611784861
  0
ARC
  5
141C4
  8
0
 10
122.3563583951332987
 20
-8.525799701993094
 30
0.0
 40
0.0760964927344279
 50
31.1836488042250402
 51
88.0181565785875506
  0
ARC
  5
141C5
  8
0
 10
122.3529734888580975
 20
-8.5278483540322352
 30
0.0
 40
0.0800530778364234
 50
349.2585854523006788
 51
31.1836488042268591
  0
ARC
  5
141C6
  8
0
 10
122.3578556295559991
 20
-8.5287744994958388
 30
0.0
 40
0.075083868320412
 50
315.7977219022811823
 51
349.2585854523006788
  0
ARC
  5
141C7
  8
0
 10
122.360033442386495
 20
-8.4919113645472262
 30
0.0
 40
0.0415584713821026
 50
241.8282962561075919
 51
294.5448164352076788
  0
CIRCLE
  5
141C8
  8
0
 10
122.0778127311622967
 20
-8.3806863184866813
 30
0.0
 40
0.0241558043965635
  0
ARC
  5
141C9
  8
0
 10
122.0767247368796973
 20
-8.3766294713240725
 30
0.0
 40
0.0682971401041462
 50
89.1253186585231845
 51
169.0443075716196972
  0
ARC
  5
141CA
  8
0
 10
122.0708691158362029
 20
-8.3754959525112582
 30
0.0
 40
0.0623328159426635
 50
169.044307571622312
 51
220.6927228503691083
  0
ARC
  5
141CB
  8
0
 10
122.0780509219402035
 20
-8.3693202115678105
 30
0.0
 40
0.0718047806340931
 50
220.6927228503701031
 51
269.0819106221161974
  0
ARC
  5
141CC
  8
0
 10
122.0780329877965045
 20
-8.3704393431303412
 30
0.0
 40
0.0706855053829712
 50
269.0819106221171069
 51
319.7397272231734178
  0
ARC
  5
141CD
  8
0
 10
122.0839199958074062
 20
-8.3754248755124081
 30
0.0
 40
0.062971077571794
 50
319.7397272231706893
 51
30.2254073791988915
  0
ARC
  5
141CE
  8
0
 10
122.0767500814287985
 20
-8.3796021228786941
 30
0.0
 40
0.0712690934645025
 50
30.2254073791990692
 51
89.1821734439018456
  0
ARC
  5
141CF
  8
0
 10
122.0761320949923032
 20
-8.3594754766723867
 30
0.0
 40
0.0737895492597202
 50
88.2068426578304354
 51
142.8071991524753059
  0
ARC
  5
141D0
  8
0
 10
122.0787817193245957
 20
-8.3614861263210951
 30
0.0
 40
0.0771156913360524
 50
142.8071991524739133
 51
176.258695062607103
  0
ARC
  5
141D1
  8
0
 10
122.080304635523504
 20
-8.3615857114179022
 30
0.0
 40
0.0786418600490471
 50
176.2586950626075009
 51
223.4163745611784861
  0
ARC
  5
141D2
  8
0
 10
122.0758094431422052
 20
-8.3617730363890175
 30
0.0
 40
0.0760964927344279
 50
31.1836488042250402
 51
88.0181565785875506
  0
ARC
  5
141D3
  8
0
 10
122.0724245368671035
 20
-8.3638216884281604
 30
0.0
 40
0.0800530778364234
 50
349.2585854523006788
 51
31.1836488042268591
  0
ARC
  5
141D4
  8
0
 10
122.0773066775650051
 20
-8.3647478338917693
 30
0.0
 40
0.075083868320412
 50
315.7977219022811823
 51
349.2585854523006788
  0
ARC
  5
141D5
  8
0
 10
122.0794844903954015
 20
-8.3278846989431514
 30
0.0
 40
0.0415584713821026
 50
241.8282962561075919
 51
294.5448164352076788
  0
CIRCLE
  5
141D6
  8
0
 10
121.7314903949242932
 20
-8.294931902495648
 30
0.0
 40
0.0241558043965635
  0
ARC
  5
141D7
  8
0
 10
121.7304024006416938
 20
-8.2908750553330322
 30
0.0
 40
0.0682971401041462
 50
89.1253186585231845
 51
169.0443075716196972
  0
ARC
  5
141D8
  8
0
 10
121.7245467795981995
 20
-8.2897415365202232
 30
0.0
 40
0.0623328159426635
 50
169.044307571622312
 51
220.6927228503691083
  0
ARC
  5
141D9
  8
0
 10
121.7317285857022
 20
-8.2835657955767772
 30
0.0
 40
0.0718047806340931
 50
220.6927228503701031
 51
269.0819106221161974
  0
ARC
  5
141DA
  8
0
 10
121.731710651558501
 20
-8.2846849271393097
 30
0.0
 40
0.0706855053829712
 50
269.0819106221171069
 51
319.7397272231734178
  0
ARC
  5
141DB
  8
0
 10
121.7375976595695022
 20
-8.2896704595213748
 30
0.0
 40
0.062971077571794
 50
319.7397272231706893
 51
30.2254073791988915
  0
ARC
  5
141DC
  8
0
 10
121.730427745190795
 20
-8.2938477068876608
 30
0.0
 40
0.0712690934645025
 50
30.2254073791990692
 51
89.1821734439018456
  0
ARC
  5
141DD
  8
0
 10
121.7298097587542998
 20
-8.2737210606813534
 30
0.0
 40
0.0737895492597202
 50
88.2068426578304354
 51
142.8071991524753059
  0
ARC
  5
141DE
  8
0
 10
121.7324593830866064
 20
-8.2757317103300636
 30
0.0
 40
0.0771156913360524
 50
142.8071991524739133
 51
176.258695062607103
  0
ARC
  5
141DF
  8
0
 10
121.7339822992855005
 20
-8.2758312954268618
 30
0.0
 40
0.0786418600490471
 50
176.2586950626075009
 51
223.4163745611784861
  0
ARC
  5
141E0
  8
0
 10
121.7294871069042017
 20
-8.2760186203979771
 30
0.0
 40
0.0760964927344279
 50
31.1836488042250402
 51
88.0181565785875506
  0
ARC
  5
141E1
  8
0
 10
121.7261022006290005
 20
-8.2780672724371271
 30
0.0
 40
0.0800530778364234
 50
349.2585854523006788
 51
31.1836488042268591
  0
ARC
  5
141E2
  8
0
 10
121.7309843413270016
 20
-8.2789934179007361
 30
0.0
 40
0.075083868320412
 50
315.7977219022811823
 51
349.2585854523006788
  0
ARC
  5
141E3
  8
0
 10
121.733162154157398
 20
-8.2421302829521181
 30
0.0
 40
0.0415584713821026
 50
241.8282962561075919
 51
294.5448164352076788
  0
CIRCLE
  5
141E4
  8
0
 10
121.780074411830995
 20
-8.6537194728807094
 30
0.0
 40
0.0241558043965635
  0
ARC
  5
141E5
  8
0
 10
121.7789864175483956
 20
-8.6496626257181077
 30
0.0
 40
0.0682971401041462
 50
89.1253186585231845
 51
169.0443075716196972
  0
ARC
  5
141E6
  8
0
 10
121.7731307965050007
 20
-8.6485291069052934
 30
0.0
 40
0.0623328159426635
 50
169.044307571622312
 51
220.6927228503691083
  0
ARC
  5
141E7
  8
0
 10
121.7803126026089018
 20
-8.6423533659618386
 30
0.0
 40
0.0718047806340931
 50
220.6927228503701031
 51
269.0819106221161974
  0
ARC
  5
141E8
  8
0
 10
121.7802946684652028
 20
-8.6434724975243782
 30
0.0
 40
0.0706855053829712
 50
269.0819106221171069
 51
319.7397272231734178
  0
ARC
  5
141E9
  8
0
 10
121.786181676476204
 20
-8.6484580299064433
 30
0.0
 40
0.062971077571794
 50
319.7397272231706893
 51
30.2254073791988915
  0
ARC
  5
141EA
  8
0
 10
121.7790117620974968
 20
-8.6526352772727293
 30
0.0
 40
0.0712690934645025
 50
30.2254073791990692
 51
89.1821734439018456
  0
ARC
  5
141EB
  8
0
 10
121.7783937756610015
 20
-8.6325086310664219
 30
0.0
 40
0.0737895492597202
 50
88.2068426578304354
 51
142.8071991524753059
  0
ARC
  5
141EC
  8
0
 10
121.781043399993294
 20
-8.6345192807151321
 30
0.0
 40
0.0771156913360524
 50
142.8071991524739133
 51
176.258695062607103
  0
ARC
  5
141ED
  8
0
 10
121.7825663161922023
 20
-8.6346188658119303
 30
0.0
 40
0.0786418600490471
 50
176.2586950626075009
 51
223.4163745611784861
  0
ARC
  5
141EE
  8
0
 10
121.778071123811003
 20
-8.6348061907830527
 30
0.0
 40
0.0760964927344279
 50
31.1836488042250402
 51
88.0181565785875506
  0
ARC
  5
141EF
  8
0
 10
121.7746862175358018
 20
-8.6368548428221956
 30
0.0
 40
0.0800530778364234
 50
349.2585854523006788
 51
31.1836488042268591
  0
ARC
  5
141F0
  8
0
 10
121.7795683582337034
 20
-8.6377809882857974
 30
0.0
 40
0.075083868320412
 50
315.7977219022811823
 51
349.2585854523006788
  0
ARC
  5
141F1
  8
0
 10
121.7817461710641993
 20
-8.6009178533371866
 30
0.0
 40
0.0415584713821026
 50
241.8282962561075919
 51
294.5448164352076788
  0
CIRCLE
  5
141F2
  8
0
 10
122.0822045651687944
 20
-8.7503081988180895
 30
0.0
 40
0.0241558043965635
  0
ARC
  5
141F3
  8
0
 10
122.0811165708860955
 20
-8.7462513516554878
 30
0.0
 40
0.0682971401041462
 50
89.1253186585231845
 51
169.0443075716196972
  0
ARC
  5
141F4
  8
0
 10
122.0752609498427006
 20
-8.7451178328426735
 30
0.0
 40
0.0623328159426635
 50
169.044307571622312
 51
220.6927228503691083
  0
ARC
  5
141F5
  8
0
 10
122.0824427559467011
 20
-8.7389420918992187
 30
0.0
 40
0.0718047806340931
 50
220.6927228503701031
 51
269.0819106221161974
  0
ARC
  5
141F6
  8
0
 10
122.0824248218029027
 20
-8.7400612234617583
 30
0.0
 40
0.0706855053829712
 50
269.0819106221171069
 51
319.7397272231734178
  0
ARC
  5
141F7
  8
0
 10
122.0883118298139038
 20
-8.7450467558438234
 30
0.0
 40
0.062971077571794
 50
319.7397272231706893
 51
30.2254073791988915
  0
ARC
  5
141F8
  8
0
 10
122.0811419154352961
 20
-8.7492240032101094
 30
0.0
 40
0.0712690934645025
 50
30.2254073791990692
 51
89.1821734439018456
  0
ARC
  5
141F9
  8
0
 10
122.0805239289987014
 20
-8.7290973570038002
 30
0.0
 40
0.0737895492597202
 50
88.2068426578304354
 51
142.8071991524753059
  0
ARC
  5
141FA
  8
0
 10
122.0831735533309939
 20
-8.7311080066525122
 30
0.0
 40
0.0771156913360524
 50
142.8071991524739133
 51
176.258695062607103
  0
ARC
  5
141FB
  8
0
 10
122.0846964695299022
 20
-8.7312075917493104
 30
0.0
 40
0.0786418600490471
 50
176.2586950626075009
 51
223.4163745611784861
  0
ARC
  5
141FC
  8
0
 10
122.0802012771487028
 20
-8.7313949167204328
 30
0.0
 40
0.0760964927344279
 50
31.1836488042250402
 51
88.0181565785875506
  0
ARC
  5
141FD
  8
0
 10
122.0768163708735017
 20
-8.7334435687595757
 30
0.0
 40
0.0800530778364234
 50
349.2585854523006788
 51
31.1836488042268591
  0
ARC
  5
141FE
  8
0
 10
122.0816985115714033
 20
-8.7343697142231775
 30
0.0
 40
0.075083868320412
 50
315.7977219022811823
 51
349.2585854523006788
  0
ARC
  5
141FF
  8
0
 10
122.0838763244018992
 20
-8.6975065792745667
 30
0.0
 40
0.0415584713821026
 50
241.8282962561075919
 51
294.5448164352076788
  0
CIRCLE
  5
14200
  8
0
 10
121.4316823932737037
 20
-8.6444003983026221
 30
0.0
 40
0.0241558043965635
  0
ARC
  5
14201
  8
0
 10
121.4305943989911043
 20
-8.6403435511400062
 30
0.0
 40
0.0682971401041462
 50
89.1253186585231845
 51
169.0443075716196972
  0
ARC
  5
14202
  8
0
 10
121.4247387779475957
 20
-8.6392100323271972
 30
0.0
 40
0.0623328159426635
 50
169.044307571622312
 51
220.6927228503691083
  0
ARC
  5
14203
  8
0
 10
121.4319205840515963
 20
-8.6330342913837512
 30
0.0
 40
0.0718047806340931
 50
220.6927228503701031
 51
269.0819106221161974
  0
ARC
  5
14204
  8
0
 10
121.4319026499077978
 20
-8.6341534229462837
 30
0.0
 40
0.0706855053829712
 50
269.0819106221171069
 51
319.7397272231734178
  0
ARC
  5
14205
  8
0
 10
121.437789657918799
 20
-8.6391389553283489
 30
0.0
 40
0.062971077571794
 50
319.7397272231706893
 51
30.2254073791988915
  0
ARC
  5
14206
  8
0
 10
121.4306197435402055
 20
-8.6433162026946349
 30
0.0
 40
0.0712690934645025
 50
30.2254073791990692
 51
89.1821734439018456
  0
ARC
  5
14207
  8
0
 10
121.430001757103696
 20
-8.6231895564883274
 30
0.0
 40
0.0737895492597202
 50
88.2068426578304354
 51
142.8071991524753059
  0
ARC
  5
14208
  8
0
 10
121.4326513814359032
 20
-8.6252002061370376
 30
0.0
 40
0.0771156913360524
 50
142.8071991524739133
 51
176.258695062607103
  0
ARC
  5
14209
  8
0
 10
121.4341742976348968
 20
-8.6252997912338358
 30
0.0
 40
0.0786418600490471
 50
176.2586950626075009
 51
223.4163745611784861
  0
ARC
  5
1420A
  8
0
 10
121.429679105253598
 20
-8.6254871162049511
 30
0.0
 40
0.0760964927344279
 50
31.1836488042250402
 51
88.0181565785875506
  0
ARC
  5
1420B
  8
0
 10
121.4262941989783968
 20
-8.6275357682441012
 30
0.0
 40
0.0800530778364234
 50
349.2585854523006788
 51
31.1836488042268591
  0
ARC
  5
1420C
  8
0
 10
121.4311763396762984
 20
-8.6284619137077101
 30
0.0
 40
0.075083868320412
 50
315.7977219022811823
 51
349.2585854523006788
  0
ARC
  5
1420D
  8
0
 10
121.4333541525067943
 20
-8.5915987787590922
 30
0.0
 40
0.0415584713821026
 50
241.8282962561075919
 51
294.5448164352076788
  0
CIRCLE
  5
1420E
  8
0
 10
121.5643729215511968
 20
-8.9814202657936164
 30
0.0
 40
0.0241558043965635
  0
ARC
  5
1420F
  8
0
 10
121.5632849272685974
 20
-8.9773634186310147
 30
0.0
 40
0.0682971401041462
 50
89.1253186585231845
 51
169.0443075716196972
  0
ARC
  5
14210
  8
0
 10
121.557429306225103
 20
-8.9762298998182004
 30
0.0
 40
0.0623328159426635
 50
169.044307571622312
 51
220.6927228503691083
  0
ARC
  5
14211
  8
0
 10
121.5646111123291035
 20
-8.9700541588747456
 30
0.0
 40
0.0718047806340931
 50
220.6927228503701031
 51
269.0819106221161974
  0
ARC
  5
14212
  8
0
 10
121.5645931781853051
 20
-8.9711732904372852
 30
0.0
 40
0.0706855053829712
 50
269.0819106221171069
 51
319.7397272231734178
  0
ARC
  5
14213
  8
0
 10
121.5704801861963062
 20
-8.9761588228193503
 30
0.0
 40
0.062971077571794
 50
319.7397272231706893
 51
30.2254073791988915
  0
ARC
  5
14214
  8
0
 10
121.5633102718176985
 20
-8.9803360701856363
 30
0.0
 40
0.0712690934645025
 50
30.2254073791990692
 51
89.1821734439018456
  0
ARC
  5
14215
  8
0
 10
121.5626922853812033
 20
-8.9602094239793288
 30
0.0
 40
0.0737895492597202
 50
88.2068426578304354
 51
142.8071991524753059
  0
ARC
  5
14216
  8
0
 10
121.5653419097133963
 20
-8.9622200736280391
 30
0.0
 40
0.0771156913360524
 50
142.8071991524739133
 51
176.258695062607103
  0
ARC
  5
14217
  8
0
 10
121.5668648259124041
 20
-8.9623196587248373
 30
0.0
 40
0.0786418600490471
 50
176.2586950626075009
 51
223.4163745611784861
  0
ARC
  5
14218
  8
0
 10
121.5623696335311053
 20
-8.9625069836959597
 30
0.0
 40
0.0760964927344279
 50
31.1836488042250402
 51
88.0181565785875506
  0
ARC
  5
14219
  8
0
 10
121.5589847272559041
 20
-8.9645556357351026
 30
0.0
 40
0.0800530778364234
 50
349.2585854523006788
 51
31.1836488042268591
  0
ARC
  5
1421A
  8
0
 10
121.5638668679538057
 20
-8.9654817811987044
 30
0.0
 40
0.075083868320412
 50
315.7977219022811823
 51
349.2585854523006788
  0
ARC
  5
1421B
  8
0
 10
121.5660446807843016
 20
-8.9286186462500936
 30
0.0
 40
0.0415584713821026
 50
241.8282962561075919
 51
294.5448164352076788
  0
CIRCLE
  5
1421C
  8
0
 10
121.8675520527548031
 20
-9.0149302170547401
 30
0.0
 40
0.0241558043965635
  0
ARC
  5
1421D
  8
0
 10
121.8664640584722036
 20
-9.0108733698921384
 30
0.0
 40
0.0682971401041462
 50
89.1253186585231845
 51
169.0443075716196972
  0
ARC
  5
1421E
  8
0
 10
121.8606084374287946
 20
-9.0097398510793241
 30
0.0
 40
0.0623328159426635
 50
169.044307571622312
 51
220.6927228503691083
  0
ARC
  5
1421F
  8
0
 10
121.8677902435326956
 20
-9.0035641101358692
 30
0.0
 40
0.0718047806340931
 50
220.6927228503701031
 51
269.0819106221161974
  0
ARC
  5
14220
  8
0
 10
121.8677723093889966
 20
-9.0046832416984088
 30
0.0
 40
0.0706855053829712
 50
269.0819106221171069
 51
319.7397272231734178
  0
ARC
  5
14221
  8
0
 10
121.8736593173999978
 20
-9.0096687740804722
 30
0.0
 40
0.062971077571794
 50
319.7397272231706893
 51
30.2254073791988915
  0
ARC
  5
14222
  8
0
 10
121.8664894030214043
 20
-9.0138460214467582
 30
0.0
 40
0.0712690934645025
 50
30.2254073791990692
 51
89.1821734439018456
  0
ARC
  5
14223
  8
0
 10
121.8658714165847954
 20
-8.9937193752404525
 30
0.0
 40
0.0737895492597202
 50
88.2068426578304354
 51
142.8071991524753059
  0
ARC
  5
14224
  8
0
 10
121.868521040917102
 20
-8.9957300248891627
 30
0.0
 40
0.0771156913360524
 50
142.8071991524739133
 51
176.258695062607103
  0
ARC
  5
14225
  8
0
 10
121.8700439571159961
 20
-8.9958296099859592
 30
0.0
 40
0.0786418600490471
 50
176.2586950626075009
 51
223.4163745611784861
  0
ARC
  5
14226
  8
0
 10
121.8655487647347968
 20
-8.9960169349570833
 30
0.0
 40
0.0760964927344279
 50
31.1836488042250402
 51
88.0181565785875506
  0
ARC
  5
14227
  8
0
 10
121.8621638584595956
 20
-8.9980655869962263
 30
0.0
 40
0.0800530778364234
 50
349.2585854523006788
 51
31.1836488042268591
  0
ARC
  5
14228
  8
0
 10
121.8670459991574972
 20
-8.9989917324598281
 30
0.0
 40
0.075083868320412
 50
315.7977219022811823
 51
349.2585854523006788
  0
ARC
  5
14229
  8
0
 10
121.8692238119879931
 20
-8.9621285975112173
 30
0.0
 40
0.0415584713821026
 50
241.8282962561075919
 51
294.5448164352076788
  0
CIRCLE
  5
1422A
  8
0
 10
121.7322445368119048
 20
-9.3301677581677893
 30
0.0
 40
0.0241558043965635
  0
ARC
  5
1422B
  8
0
 10
121.7311565425293054
 20
-9.3261109110051876
 30
0.0
 40
0.0682971401041462
 50
89.1253186585231845
 51
169.0443075716196972
  0
ARC
  5
1422C
  8
0
 10
121.7253009214857968
 20
-9.3249773921923733
 30
0.0
 40
0.0623328159426635
 50
169.044307571622312
 51
220.6927228503691083
  0
ARC
  5
1422D
  8
0
 10
121.7324827275897974
 20
-9.3188016512489185
 30
0.0
 40
0.0718047806340931
 50
220.6927228503701031
 51
269.0819106221161974
  0
ARC
  5
1422E
  8
0
 10
121.7324647934460984
 20
-9.3199207828114581
 30
0.0
 40
0.0706855053829712
 50
269.0819106221171069
 51
319.7397272231734178
  0
ARC
  5
1422F
  8
0
 10
121.7383518014570001
 20
-9.3249063151935232
 30
0.0
 40
0.062971077571794
 50
319.7397272231706893
 51
30.2254073791988915
  0
ARC
  5
14230
  8
0
 10
121.7311818870784066
 20
-9.3290835625598092
 30
0.0
 40
0.0712690934645025
 50
30.2254073791990692
 51
89.1821734439018456
  0
ARC
  5
14231
  8
0
 10
121.7305639006418971
 20
-9.3089569163535018
 30
0.0
 40
0.0737895492597202
 50
88.2068426578304354
 51
142.8071991524753059
  0
ARC
  5
14232
  8
0
 10
121.7332135249741043
 20
-9.3109675660022102
 30
0.0
 40
0.0771156913360524
 50
142.8071991524739133
 51
176.258695062607103
  0
ARC
  5
14233
  8
0
 10
121.7347364411730979
 20
-9.3110671510990102
 30
0.0
 40
0.0786418600490471
 50
176.2586950626075009
 51
223.4163745611784861
  0
ARC
  5
14234
  8
0
 10
121.7302412487917991
 20
-9.3112544760701326
 30
0.0
 40
0.0760964927344279
 50
31.1836488042250402
 51
88.0181565785875506
  0
ARC
  5
14235
  8
0
 10
121.7268563425165979
 20
-9.3133031281092755
 30
0.0
 40
0.0800530778364234
 50
349.2585854523006788
 51
31.1836488042268591
  0
ARC
  5
14236
  8
0
 10
121.7317384832144995
 20
-9.3142292735728773
 30
0.0
 40
0.075083868320412
 50
315.7977219022811823
 51
349.2585854523006788
  0
ARC
  5
14237
  8
0
 10
121.7339162960449954
 20
-9.2773661386242665
 30
0.0
 40
0.0415584713821026
 50
241.8282962561075919
 51
294.5448164352076788
  0
CIRCLE
  5
14238
  8
0
 10
121.4411345288369972
 20
-9.3427519139495612
 30
0.0
 40
0.0241558043965635
  0
ARC
  5
14239
  8
0
 10
121.4400465345542983
 20
-9.3386950667869542
 30
0.0
 40
0.0682971401041462
 50
89.1253186585231845
 51
169.0443075716196972
  0
ARC
  5
1423A
  8
0
 10
121.4341909135109034
 20
-9.3375615479741452
 30
0.0
 40
0.0623328159426635
 50
169.044307571622312
 51
220.6927228503691083
  0
ARC
  5
1423B
  8
0
 10
121.441372719614904
 20
-9.3313858070306921
 30
0.0
 40
0.0718047806340931
 50
220.6927228503701031
 51
269.0819106221161974
  0
ARC
  5
1423C
  8
0
 10
121.4413547854711055
 20
-9.3325049385932317
 30
0.0
 40
0.0706855053829712
 50
269.0819106221171069
 51
319.7397272231734178
  0
ARC
  5
1423D
  8
0
 10
121.4472417934821067
 20
-9.3374904709752968
 30
0.0
 40
0.062971077571794
 50
319.7397272231706893
 51
30.2254073791988915
  0
ARC
  5
1423E
  8
0
 10
121.440071879103499
 20
-9.3416677183415828
 30
0.0
 40
0.0712690934645025
 50
30.2254073791990692
 51
89.1821734439018456
  0
ARC
  5
1423F
  8
0
 10
121.4394538926669043
 20
-9.3215410721352754
 30
0.0
 40
0.0737895492597202
 50
88.2068426578304354
 51
142.8071991524753059
  0
ARC
  5
14240
  8
0
 10
121.4421035169991967
 20
-9.3235517217839856
 30
0.0
 40
0.0771156913360524
 50
142.8071991524739133
 51
176.258695062607103
  0
ARC
  5
14241
  8
0
 10
121.443626433198105
 20
-9.3236513068807767
 30
0.0
 40
0.0786418600490471
 50
176.2586950626075009
 51
223.4163745611784861
  0
ARC
  5
14242
  8
0
 10
121.4391312408169057
 20
-9.3238386318518991
 30
0.0
 40
0.0760964927344279
 50
31.1836488042250402
 51
88.0181565785875506
  0
ARC
  5
14243
  8
0
 10
121.4357463345417045
 20
-9.3258872838910492
 30
0.0
 40
0.0800530778364234
 50
349.2585854523006788
 51
31.1836488042268591
  0
ARC
  5
14244
  8
0
 10
121.4406284752396061
 20
-9.3268134293546492
 30
0.0
 40
0.075083868320412
 50
315.7977219022811823
 51
349.2585854523006788
  0
ARC
  5
14245
  8
0
 10
121.4428062880700026
 20
-9.2899502944060401
 30
0.0
 40
0.0415584713821026
 50
241.8282962561075919
 51
294.5448164352076788
  0
CIRCLE
  5
14246
  8
0
 10
121.2296520969700993
 20
-9.0670706273324129
 30
0.0
 40
0.0241558043965635
  0
ARC
  5
14247
  8
0
 10
121.2285641026874004
 20
-9.0630137801698112
 30
0.0
 40
0.0682971401041462
 50
89.1253186585231845
 51
169.0443075716196972
  0
ARC
  5
14248
  8
0
 10
121.2227084816440055
 20
-9.0618802613569969
 30
0.0
 40
0.0623328159426635
 50
169.044307571622312
 51
220.6927228503691083
  0
ARC
  5
14249
  8
0
 10
121.229890287748006
 20
-9.055704520413542
 30
0.0
 40
0.0718047806340931
 50
220.6927228503701031
 51
269.0819106221161974
  0
ARC
  5
1424A
  8
0
 10
121.2298723536041933
 20
-9.0568236519760816
 30
0.0
 40
0.0706855053829712
 50
269.0819106221171069
 51
319.7397272231734178
  0
ARC
  5
1424B
  8
0
 10
121.2357593616151945
 20
-9.0618091843581468
 30
0.0
 40
0.062971077571794
 50
319.7397272231706893
 51
30.2254073791988915
  0
ARC
  5
1424C
  8
0
 10
121.228589447236601
 20
-9.0659864317244327
 30
0.0
 40
0.0712690934645025
 50
30.2254073791990692
 51
89.1821734439018456
  0
ARC
  5
1424D
  8
0
 10
121.2279714608001058
 20
-9.0458597855181253
 30
0.0
 40
0.0737895492597202
 50
88.2068426578304354
 51
142.8071991524753059
  0
ARC
  5
1424E
  8
0
 10
121.2306210851322987
 20
-9.0478704351668355
 30
0.0
 40
0.0771156913360524
 50
142.8071991524739133
 51
176.258695062607103
  0
ARC
  5
1424F
  8
0
 10
121.2321440013313065
 20
-9.0479700202636337
 30
0.0
 40
0.0786418600490471
 50
176.2586950626075009
 51
223.4163745611784861
  0
ARC
  5
14250
  8
0
 10
121.2276488089499935
 20
-9.0481573452347561
 30
0.0
 40
0.0760964927344279
 50
31.1836488042250402
 51
88.0181565785875506
  0
ARC
  5
14251
  8
0
 10
121.2242639026748066
 20
-9.0502059972738991
 30
0.0
 40
0.0800530778364234
 50
349.2585854523006788
 51
31.1836488042268591
  0
ARC
  5
14252
  8
0
 10
121.229146043372694
 20
-9.0511321427375009
 30
0.0
 40
0.075083868320412
 50
315.7977219022811823
 51
349.2585854523006788
  0
ARC
  5
14253
  8
0
 10
121.2313238562032041
 20
-9.0142690077888901
 30
0.0
 40
0.0415584713821026
 50
241.8282962561075919
 51
294.5448164352076788
  0
CIRCLE
  5
14254
  8
0
 10
121.1384543864514001
 20
-9.5135799134654349
 30
0.0
 40
0.0241558043965635
  0
ARC
  5
14255
  8
0
 10
121.1373663921687012
 20
-9.5095230663028332
 30
0.0
 40
0.0682971401041462
 50
89.1253186585231845
 51
169.0443075716196972
  0
ARC
  5
14256
  8
0
 10
121.1315107711253063
 20
-9.5083895474900189
 30
0.0
 40
0.0623328159426635
 50
169.044307571622312
 51
220.6927228503691083
  0
ARC
  5
14257
  8
0
 10
121.1386925772293068
 20
-9.502213806546564
 30
0.0
 40
0.0718047806340931
 50
220.6927228503701031
 51
269.0819106221161974
  0
ARC
  5
14258
  8
0
 10
121.1386746430854942
 20
-9.5033329381091036
 30
0.0
 40
0.0706855053829712
 50
269.0819106221171069
 51
319.7397272231734178
  0
ARC
  5
14259
  8
0
 10
121.1445616510964953
 20
-9.5083184704911687
 30
0.0
 40
0.062971077571794
 50
319.7397272231706893
 51
30.2254073791988915
  0
ARC
  5
1425A
  8
0
 10
121.1373917367179018
 20
-9.5124957178574547
 30
0.0
 40
0.0712690934645025
 50
30.2254073791990692
 51
89.1821734439018456
  0
ARC
  5
1425B
  8
0
 10
121.1367737502814066
 20
-9.4923690716511473
 30
0.0
 40
0.0737895492597202
 50
88.2068426578304354
 51
142.8071991524753059
  0
ARC
  5
1425C
  8
0
 10
121.1394233746135995
 20
-9.4943797212998575
 30
0.0
 40
0.0771156913360524
 50
142.8071991524739133
 51
176.258695062607103
  0
ARC
  5
1425D
  8
0
 10
121.1409462908125931
 20
-9.4944793063966557
 30
0.0
 40
0.0786418600490471
 50
176.2586950626075009
 51
223.4163745611784861
  0
ARC
  5
1425E
  8
0
 10
121.1364510984312943
 20
-9.4946666313677781
 30
0.0
 40
0.0760964927344279
 50
31.1836488042250402
 51
88.0181565785875506
  0
ARC
  5
1425F
  8
0
 10
121.1330661921560932
 20
-9.4967152834069211
 30
0.0
 40
0.0800530778364234
 50
349.2585854523006788
 51
31.1836488042268591
  0
ARC
  5
14260
  8
0
 10
121.1379483328539948
 20
-9.4976414288705229
 30
0.0
 40
0.075083868320412
 50
315.7977219022811823
 51
349.2585854523006788
  0
ARC
  5
14261
  8
0
 10
121.1401261456845049
 20
-9.4607782939219121
 30
0.0
 40
0.0415584713821026
 50
241.8282962561075919
 51
294.5448164352076788
  0
CIRCLE
  5
14262
  8
0
 10
121.4143878914615016
 20
-9.7428486704085344
 30
0.0
 40
0.0241558043965635
  0
ARC
  5
14263
  8
0
 10
121.4132998971788027
 20
-9.7387918232459327
 30
0.0
 40
0.0682971401041462
 50
89.1253186585231845
 51
169.0443075716196972
  0
ARC
  5
14264
  8
0
 10
121.4074442761353936
 20
-9.7376583044331184
 30
0.0
 40
0.0623328159426635
 50
169.044307571622312
 51
220.6927228503691083
  0
ARC
  5
14265
  8
0
 10
121.4146260822393941
 20
-9.7314825634896636
 30
0.0
 40
0.0718047806340931
 50
220.6927228503701031
 51
269.0819106221161974
  0
ARC
  5
14266
  8
0
 10
121.4146081480955957
 20
-9.7326016950522032
 30
0.0
 40
0.0706855053829712
 50
269.0819106221171069
 51
319.7397272231734178
  0
ARC
  5
14267
  8
0
 10
121.4204951561065968
 20
-9.7375872274342683
 30
0.0
 40
0.062971077571794
 50
319.7397272231706893
 51
30.2254073791988915
  0
ARC
  5
14268
  8
0
 10
121.4133252417280033
 20
-9.7417644748005543
 30
0.0
 40
0.0712690934645025
 50
30.2254073791990692
 51
89.1821734439018456
  0
ARC
  5
14269
  8
0
 10
121.4127072552913944
 20
-9.7216378285942469
 30
0.0
 40
0.0737895492597202
 50
88.2068426578304354
 51
142.8071991524753059
  0
ARC
  5
1426A
  8
0
 10
121.415356879623701
 20
-9.7236484782429571
 30
0.0
 40
0.0771156913360524
 50
142.8071991524739133
 51
176.258695062607103
  0
ARC
  5
1426B
  8
0
 10
121.4168797958225952
 20
-9.7237480633397553
 30
0.0
 40
0.0786418600490471
 50
176.2586950626075009
 51
223.4163745611784861
  0
ARC
  5
1426C
  8
0
 10
121.4123846034413958
 20
-9.7239353883108777
 30
0.0
 40
0.0760964927344279
 50
31.1836488042250402
 51
88.0181565785875506
  0
ARC
  5
1426D
  8
0
 10
121.4089996971661947
 20
-9.7259840403500206
 30
0.0
 40
0.0800530778364234
 50
349.2585854523006788
 51
31.1836488042268591
  0
ARC
  5
1426E
  8
0
 10
121.4138818378640963
 20
-9.7269101858136224
 30
0.0
 40
0.075083868320412
 50
315.7977219022811823
 51
349.2585854523006788
  0
ARC
  5
1426F
  8
0
 10
121.4160596506946064
 20
-9.6900470508650116
 30
0.0
 40
0.0415584713821026
 50
241.8282962561075919
 51
294.5448164352076788
  0
CIRCLE
  5
14270
  8
0
 10
121.6896170360415965
 20
-9.6609383352619886
 30
0.0
 40
0.0241558043965635
  0
ARC
  5
14271
  8
0
 10
121.6885290417589971
 20
-9.6568814880993852
 30
0.0
 40
0.0682971401041462
 50
89.1253186585231845
 51
169.0443075716196972
  0
ARC
  5
14272
  8
0
 10
121.6826734207156022
 20
-9.6557479692865726
 30
0.0
 40
0.0623328159426635
 50
169.044307571622312
 51
220.6927228503691083
  0
ARC
  5
14273
  8
0
 10
121.6898552268195033
 20
-9.6495722283431178
 30
0.0
 40
0.0718047806340931
 50
220.6927228503701031
 51
269.0819106221161974
  0
ARC
  5
14274
  8
0
 10
121.6898372926758043
 20
-9.6506913599056574
 30
0.0
 40
0.0706855053829712
 50
269.0819106221171069
 51
319.7397272231734178
  0
ARC
  5
14275
  8
0
 10
121.6957243006868055
 20
-9.6556768922877225
 30
0.0
 40
0.062971077571794
 50
319.7397272231706893
 51
30.2254073791988915
  0
ARC
  5
14276
  8
0
 10
121.6885543863080983
 20
-9.6598541396540085
 30
0.0
 40
0.0712690934645025
 50
30.2254073791990692
 51
89.1821734439018456
  0
ARC
  5
14277
  8
0
 10
121.687936399871603
 20
-9.6397274934477011
 30
0.0
 40
0.0737895492597202
 50
88.2068426578304354
 51
142.8071991524753059
  0
ARC
  5
14278
  8
0
 10
121.6905860242038955
 20
-9.6417381430964113
 30
0.0
 40
0.0771156913360524
 50
142.8071991524739133
 51
176.258695062607103
  0
ARC
  5
14279
  8
0
 10
121.6921089404028038
 20
-9.6418377281932095
 30
0.0
 40
0.0786418600490471
 50
176.2586950626075009
 51
223.4163745611784861
  0
ARC
  5
1427A
  8
0
 10
121.687613748021505
 20
-9.6420250531643301
 30
0.0
 40
0.0760964927344279
 50
31.1836488042250402
 51
88.0181565785875506
  0
ARC
  5
1427B
  8
0
 10
121.6842288417463038
 20
-9.6440737052034748
 30
0.0
 40
0.0800530778364234
 50
349.2585854523006788
 51
31.1836488042268591
  0
ARC
  5
1427C
  8
0
 10
121.6891109824443049
 20
-9.6449998506670767
 30
0.0
 40
0.075083868320412
 50
315.7977219022811823
 51
349.2585854523006788
  0
ARC
  5
1427D
  8
0
 10
121.6912887952747013
 20
-9.6081367157184658
 30
0.0
 40
0.0415584713821026
 50
241.8282962561075919
 51
294.5448164352076788
  0
CIRCLE
  5
1427E
  8
0
 10
121.7300550101359988
 20
-9.9842488689504592
 30
0.0
 40
0.0241558043965635
  0
ARC
  5
1427F
  8
0
 10
121.7289670158533994
 20
-9.9801920217878575
 30
0.0
 40
0.0682971401041462
 50
89.1253186585231845
 51
169.0443075716196972
  0
ARC
  5
14280
  8
0
 10
121.7231113948100045
 20
-9.9790585029750432
 30
0.0
 40
0.0623328159426635
 50
169.044307571622312
 51
220.6927228503691083
  0
ARC
  5
14281
  8
0
 10
121.7302932009139056
 20
-9.9728827620315883
 30
0.0
 40
0.0718047806340931
 50
220.6927228503701031
 51
269.0819106221161974
  0
ARC
  5
14282
  8
0
 10
121.7302752667702066
 20
-9.9740018935941261
 30
0.0
 40
0.0706855053829712
 50
269.0819106221171069
 51
319.7397272231734178
  0
ARC
  5
14283
  8
0
 10
121.7361622747811936
 20
-9.978987425976193
 30
0.0
 40
0.062971077571794
 50
319.7397272231706893
 51
30.2254073791988915
  0
ARC
  5
14284
  8
0
 10
121.7289923604025006
 20
-9.983164673342479
 30
0.0
 40
0.0712690934645025
 50
30.2254073791990692
 51
89.1821734439018456
  0
ARC
  5
14285
  8
0
 10
121.7283743739660054
 20
-9.9630380271361716
 30
0.0
 40
0.0737895492597202
 50
88.2068426578304354
 51
142.8071991524753059
  0
ARC
  5
14286
  8
0
 10
121.7310239982982978
 20
-9.9650486767848818
 30
0.0
 40
0.0771156913360524
 50
142.8071991524739133
 51
176.258695062607103
  0
ARC
  5
14287
  8
0
 10
121.7325469144972061
 20
-9.96514826188168
 30
0.0
 40
0.0786418600490471
 50
176.2586950626075009
 51
223.4163745611784861
  0
ARC
  5
14288
  8
0
 10
121.7280517221160068
 20
-9.9653355868528024
 30
0.0
 40
0.0760964927344279
 50
31.1836488042250402
 51
88.0181565785875506
  0
ARC
  5
14289
  8
0
 10
121.7246668158407061
 20
-9.9673842388919454
 30
0.0
 40
0.0800530778364234
 50
349.2585854523006788
 51
31.1836488042268591
  0
ARC
  5
1428A
  8
0
 10
121.729548956538693
 20
-9.9683103843555472
 30
0.0
 40
0.075083868320412
 50
315.7977219022811823
 51
349.2585854523006788
  0
ARC
  5
1428B
  8
0
 10
121.7317267693692031
 20
-9.9314472494069364
 30
0.0
 40
0.0415584713821026
 50
241.8282962561075919
 51
294.5448164352076788
  0
CIRCLE
  5
1428C
  8
0
 10
121.4899192033992961
 20
-10.12656435150015
 30
0.0
 40
0.0241558043965635
  0
ARC
  5
1428D
  8
0
 10
121.4888312091165972
 20
-10.1225075043375501
 30
0.0
 40
0.0682971401041462
 50
89.1253186585231845
 51
169.0443075716196972
  0
ARC
  5
1428E
  8
0
 10
121.4829755880732023
 20
-10.1213739855247304
 30
0.0
 40
0.0623328159426635
 50
169.044307571622312
 51
220.6927228503691083
  0
ARC
  5
1428F
  8
0
 10
121.4901573941772028
 20
-10.1151982445812791
 30
0.0
 40
0.0718047806340931
 50
220.6927228503701031
 51
269.0819106221161974
  0
ARC
  5
14290
  8
0
 10
121.4901394600334044
 20
-10.1163173761438205
 30
0.0
 40
0.0706855053829712
 50
269.0819106221171069
 51
319.7397272231734178
  0
ARC
  5
14291
  8
0
 10
121.4960264680444055
 20
-10.1213029085258803
 30
0.0
 40
0.062971077571794
 50
319.7397272231706893
 51
30.2254073791988915
  0
ARC
  5
14292
  8
0
 10
121.4888565536657978
 20
-10.1254801558921699
 30
0.0
 40
0.0712690934645025
 50
30.2254073791990692
 51
89.1821734439018456
  0
ARC
  5
14293
  8
0
 10
121.4882385672293026
 20
-10.1053535096858607
 30
0.0
 40
0.0737895492597202
 50
88.2068426578304354
 51
142.8071991524753059
  0
ARC
  5
14294
  8
0
 10
121.4908881915614955
 20
-10.1073641593345709
 30
0.0
 40
0.0771156913360524
 50
142.8071991524739133
 51
176.258695062607103
  0
ARC
  5
14295
  8
0
 10
121.4924111077605033
 20
-10.1074637444313709
 30
0.0
 40
0.0786418600490471
 50
176.2586950626075009
 51
223.4163745611784861
  0
ARC
  5
14296
  8
0
 10
121.4879159153792045
 20
-10.1076510694024897
 30
0.0
 40
0.0760964927344279
 50
31.1836488042250402
 51
88.0181565785875506
  0
ARC
  5
14297
  8
0
 10
121.4845310091040034
 20
-10.1096997214416309
 30
0.0
 40
0.0800530778364234
 50
349.2585854523006788
 51
31.1836488042268591
  0
ARC
  5
14298
  8
0
 10
121.489413149801905
 20
-10.1106258669052398
 30
0.0
 40
0.075083868320412
 50
315.7977219022811823
 51
349.2585854523006788
  0
ARC
  5
14299
  8
0
 10
121.4915909626324009
 20
-10.0737627319566307
 30
0.0
 40
0.0415584713821026
 50
241.8282962561075919
 51
294.5448164352076788
  0
CIRCLE
  5
1429A
  8
0
 10
121.1657335651654961
 20
-9.9730443876529602
 30
0.0
 40
0.0241558043965635
  0
ARC
  5
1429B
  8
0
 10
121.1646455708828967
 20
-9.9689875404903461
 30
0.0
 40
0.0682971401041462
 50
89.1253186585231845
 51
169.0443075716196972
  0
ARC
  5
1429C
  8
0
 10
121.1587899498395018
 20
-9.9678540216775389
 30
0.0
 40
0.0623328159426635
 50
169.044307571622312
 51
220.6927228503691083
  0
ARC
  5
1429D
  8
0
 10
121.1659717559434029
 20
-9.9616782807340911
 30
0.0
 40
0.0718047806340931
 50
220.6927228503701031
 51
269.0819106221161974
  0
ARC
  5
1429E
  8
0
 10
121.1659538217997039
 20
-9.9627974122966236
 30
0.0
 40
0.0706855053829712
 50
269.0819106221171069
 51
319.7397272231734178
  0
ARC
  5
1429F
  8
0
 10
121.1718408298106056
 20
-9.9677829446786888
 30
0.0
 40
0.062971077571794
 50
319.7397272231706893
 51
30.2254073791988915
  0
ARC
  5
142A0
  8
0
 10
121.1646709154319979
 20
-9.9719601920449747
 30
0.0
 40
0.0712690934645025
 50
30.2254073791990692
 51
89.1821734439018456
  0
ARC
  5
142A1
  8
0
 10
121.1640529289955026
 20
-9.9518335458386673
 30
0.0
 40
0.0737895492597202
 50
88.2068426578304354
 51
142.8071991524753059
  0
ARC
  5
142A2
  8
0
 10
121.1667025533276956
 20
-9.9538441954873775
 30
0.0
 40
0.0771156913360524
 50
142.8071991524739133
 51
176.258695062607103
  0
ARC
  5
142A3
  8
0
 10
121.1682254695267034
 20
-9.9539437805841757
 30
0.0
 40
0.0786418600490471
 50
176.2586950626075009
 51
223.4163745611784861
  0
ARC
  5
142A4
  8
0
 10
121.1637302771454046
 20
-9.954131105555291
 30
0.0
 40
0.0760964927344279
 50
31.1836488042250402
 51
88.0181565785875506
  0
ARC
  5
142A5
  8
0
 10
121.1603453708702034
 20
-9.9561797575944411
 30
0.0
 40
0.0800530778364234
 50
349.2585854523006788
 51
31.1836488042268591
  0
ARC
  5
142A6
  8
0
 10
121.165227511568105
 20
-9.9571059030580482
 30
0.0
 40
0.075083868320412
 50
315.7977219022811823
 51
349.2585854523006788
  0
ARC
  5
142A7
  8
0
 10
121.1674053243986009
 20
-9.9202427681094321
 30
0.0
 40
0.0415584713821026
 50
241.8282962561075919
 51
294.5448164352076788
  0
CIRCLE
  5
142A8
  8
0
 10
121.8651278755352934
 20
-10.3012001629675201
 30
0.0
 40
0.0241558043965635
  0
ARC
  5
142A9
  8
0
 10
121.8640398812526939
 20
-10.2971433158049095
 30
0.0
 40
0.0682971401041462
 50
89.1253186585231845
 51
169.0443075716196972
  0
ARC
  5
142AA
  8
0
 10
121.8581842602092991
 20
-10.2960097969921005
 30
0.0
 40
0.0623328159426635
 50
169.044307571622312
 51
220.6927228503691083
  0
ARC
  5
142AB
  8
0
 10
121.8653660663132001
 20
-10.2898340560486492
 30
0.0
 40
0.0718047806340931
 50
220.6927228503701031
 51
269.0819106221161974
  0
ARC
  5
142AC
  8
0
 10
121.8653481321695011
 20
-10.2909531876111799
 30
0.0
 40
0.0706855053829712
 50
269.0819106221171069
 51
319.7397272231734178
  0
ARC
  5
142AD
  8
0
 10
121.8712351401805023
 20
-10.2959387199932504
 30
0.0
 40
0.062971077571794
 50
319.7397272231706893
 51
30.2254073791988915
  0
ARC
  5
142AE
  8
0
 10
121.8640652258018946
 20
-10.3001159673595293
 30
0.0
 40
0.0712690934645025
 50
30.2254073791990692
 51
89.1821734439018456
  0
ARC
  5
142AF
  8
0
 10
121.8634472393652999
 20
-10.2799893211532307
 30
0.0
 40
0.0737895492597202
 50
88.2068426578304354
 51
142.8071991524753059
  0
ARC
  5
142B0
  8
0
 10
121.8660968636976065
 20
-10.2819999708019392
 30
0.0
 40
0.0771156913360524
 50
142.8071991524739133
 51
176.258695062607103
  0
ARC
  5
142B1
  8
0
 10
121.8676197798965006
 20
-10.2820995558987391
 30
0.0
 40
0.0786418600490471
 50
176.2586950626075009
 51
223.4163745611784861
  0
ARC
  5
142B2
  8
0
 10
121.8631245875153013
 20
-10.2822868808698598
 30
0.0
 40
0.0760964927344279
 50
31.1836488042250402
 51
88.0181565785875506
  0
ARC
  5
142B3
  8
0
 10
121.8597396812401001
 20
-10.2843355329089992
 30
0.0
 40
0.0800530778364234
 50
349.2585854523006788
 51
31.1836488042268591
  0
ARC
  5
142B4
  8
0
 10
121.8646218219380017
 20
-10.2852616783725992
 30
0.0
 40
0.075083868320412
 50
315.7977219022811823
 51
349.2585854523006788
  0
ARC
  5
142B5
  8
0
 10
121.8667996347684976
 20
-10.2483985434239901
 30
0.0
 40
0.0415584713821026
 50
241.8282962561075919
 51
294.5448164352076788
  0
CIRCLE
  5
142B6
  8
0
 10
123.0410893367274952
 20
-10.9371365488966994
 30
0.0
 40
0.0241558043965635
  0
ARC
  5
142B7
  8
0
 10
123.0400013424447963
 20
-10.9330797017340906
 30
0.0
 40
0.0682971401041462
 50
89.1253186585231845
 51
169.0443075716196972
  0
ARC
  5
142B8
  8
0
 10
123.0341457214014014
 20
-10.9319461829212798
 30
0.0
 40
0.0623328159426635
 50
169.044307571622312
 51
220.6927228503691083
  0
ARC
  5
142B9
  8
0
 10
123.0413275275054019
 20
-10.9257704419778303
 30
0.0
 40
0.0718047806340931
 50
220.6927228503701031
 51
269.0819106221161974
  0
ARC
  5
142BA
  8
0
 10
123.0413095933616034
 20
-10.9268895735403699
 30
0.0
 40
0.0706855053829712
 50
269.0819106221171069
 51
319.7397272231734178
  0
ARC
  5
142BB
  8
0
 10
123.0471966013726046
 20
-10.9318751059224297
 30
0.0
 40
0.062971077571794
 50
319.7397272231706893
 51
30.2254073791988915
  0
ARC
  5
142BC
  8
0
 10
123.0400266869939969
 20
-10.9360523532887193
 30
0.0
 40
0.0712690934645025
 50
30.2254073791990692
 51
89.1821734439018456
  0
ARC
  5
142BD
  8
0
 10
123.0394087005575017
 20
-10.9159257070824101
 30
0.0
 40
0.0737895492597202
 50
88.2068426578304354
 51
142.8071991524753059
  0
ARC
  5
142BE
  8
0
 10
123.0420583248896946
 20
-10.9179363567311203
 30
0.0
 40
0.0771156913360524
 50
142.8071991524739133
 51
176.258695062607103
  0
ARC
  5
142BF
  8
0
 10
123.0435812410887024
 20
-10.9180359418279203
 30
0.0
 40
0.0786418600490471
 50
176.2586950626075009
 51
223.4163745611784861
  0
ARC
  5
142C0
  8
0
 10
123.0390860487074036
 20
-10.9182232667990409
 30
0.0
 40
0.0760964927344279
 50
31.1836488042250402
 51
88.0181565785875506
  0
ARC
  5
142C1
  8
0
 10
123.0357011424322025
 20
-10.9202719188381803
 30
0.0
 40
0.0800530778364234
 50
349.2585854523006788
 51
31.1836488042268591
  0
ARC
  5
142C2
  8
0
 10
123.0405832831301041
 20
-10.9211980643017892
 30
0.0
 40
0.075083868320412
 50
315.7977219022811823
 51
349.2585854523006788
  0
ARC
  5
142C3
  8
0
 10
123.0427610959606
 20
-10.8843349293531695
 30
0.0
 40
0.0415584713821026
 50
241.8282962561075919
 51
294.5448164352076788
  0
CIRCLE
  5
142C4
  8
0
 10
123.0221794432173965
 20
-11.1972251803743195
 30
0.0
 40
0.0241558043965635
  0
ARC
  5
142C5
  8
0
 10
123.0210914489347971
 20
-11.1931683332117107
 30
0.0
 40
0.0682971401041462
 50
89.1253186585231845
 51
169.0443075716196972
  0
ARC
  5
142C6
  8
0
 10
123.0152358278914022
 20
-11.1920348143988999
 30
0.0
 40
0.0623328159426635
 50
169.044307571622312
 51
220.6927228503691083
  0
ARC
  5
142C7
  8
0
 10
123.0224176339953033
 20
-11.1858590734554504
 30
0.0
 40
0.0718047806340931
 50
220.6927228503701031
 51
269.0819106221161974
  0
ARC
  5
142C8
  8
0
 10
123.0223996998516043
 20
-11.18697820501799
 30
0.0
 40
0.0706855053829712
 50
269.0819106221171069
 51
319.7397272231734178
  0
ARC
  5
142C9
  8
0
 10
123.0282867078626055
 20
-11.1919637374000498
 30
0.0
 40
0.062971077571794
 50
319.7397272231706893
 51
30.2254073791988915
  0
ARC
  5
142CA
  8
0
 10
123.0211167934838983
 20
-11.1961409847663393
 30
0.0
 40
0.0712690934645025
 50
30.2254073791990692
 51
89.1821734439018456
  0
ARC
  5
142CB
  8
0
 10
123.020498807047403
 20
-11.1760143385600301
 30
0.0
 40
0.0737895492597202
 50
88.2068426578304354
 51
142.8071991524753059
  0
ARC
  5
142CC
  8
0
 10
123.0231484313796955
 20
-11.1780249882087404
 30
0.0
 40
0.0771156913360524
 50
142.8071991524739133
 51
176.258695062607103
  0
ARC
  5
142CD
  8
0
 10
123.0246713475786038
 20
-11.1781245733055403
 30
0.0
 40
0.0786418600490471
 50
176.2586950626075009
 51
223.4163745611784861
  0
ARC
  5
142CE
  8
0
 10
123.020176155197305
 20
-11.1783118982766592
 30
0.0
 40
0.0760964927344279
 50
31.1836488042250402
 51
88.0181565785875506
  0
ARC
  5
142CF
  8
0
 10
123.0167912489221038
 20
-11.1803605503158003
 30
0.0
 40
0.0800530778364234
 50
349.2585854523006788
 51
31.1836488042268591
  0
ARC
  5
142D0
  8
0
 10
123.0216733896201049
 20
-11.1812866957794093
 30
0.0
 40
0.075083868320412
 50
315.7977219022811823
 51
349.2585854523006788
  0
ARC
  5
142D1
  8
0
 10
123.0238512024505013
 20
-11.1444235608307896
 30
0.0
 40
0.0415584713821026
 50
241.8282962561075919
 51
294.5448164352076788
  0
CIRCLE
  5
142D2
  8
0
 10
122.6825473524014996
 20
-10.9016367052117893
 30
0.0
 40
0.0241558043965635
  0
ARC
  5
142D3
  8
0
 10
122.6814593581188007
 20
-10.8975798580491805
 30
0.0
 40
0.0682971401041462
 50
89.1253186585231845
 51
169.0443075716196972
  0
ARC
  5
142D4
  8
0
 10
122.6756037370754058
 20
-10.8964463392363697
 30
0.0
 40
0.0623328159426635
 50
169.044307571622312
 51
220.6927228503691083
  0
ARC
  5
142D5
  8
0
 10
122.6827855431794063
 20
-10.8902705982929202
 30
0.0
 40
0.0718047806340931
 50
220.6927228503701031
 51
269.0819106221161974
  0
ARC
  5
142D6
  8
0
 10
122.6827676090355936
 20
-10.8913897298554492
 30
0.0
 40
0.0706855053829712
 50
269.0819106221171069
 51
319.7397272231734178
  0
ARC
  5
142D7
  8
0
 10
122.6886546170465948
 20
-10.8963752622375196
 30
0.0
 40
0.062971077571794
 50
319.7397272231706893
 51
30.2254073791988915
  0
ARC
  5
142D8
  8
0
 10
122.6814847026680013
 20
-10.9005525096038003
 30
0.0
 40
0.0712690934645025
 50
30.2254073791990692
 51
89.1821734439018456
  0
ARC
  5
142D9
  8
0
 10
122.6808667162314066
 20
-10.8804258633975
 30
0.0
 40
0.0737895492597202
 50
88.2068426578304354
 51
142.8071991524753059
  0
ARC
  5
142DA
  8
0
 10
122.683516340563699
 20
-10.8824365130462102
 30
0.0
 40
0.0771156913360524
 50
142.8071991524739133
 51
176.258695062607103
  0
ARC
  5
142DB
  8
0
 10
122.6850392567627068
 20
-10.8825360981429995
 30
0.0
 40
0.0786418600490471
 50
176.2586950626075009
 51
223.4163745611784861
  0
ARC
  5
142DC
  8
0
 10
122.6805440643813938
 20
-10.8827234231141201
 30
0.0
 40
0.0760964927344279
 50
31.1836488042250402
 51
88.0181565785875506
  0
ARC
  5
142DD
  8
0
 10
122.6771591581062069
 20
-10.8847720751532702
 30
0.0
 40
0.0800530778364234
 50
349.2585854523006788
 51
31.1836488042268591
  0
ARC
  5
142DE
  8
0
 10
122.6820412988040943
 20
-10.8856982206168702
 30
0.0
 40
0.075083868320412
 50
315.7977219022811823
 51
349.2585854523006788
  0
ARC
  5
142DF
  8
0
 10
122.6842191116346044
 20
-10.8488350856682594
 30
0.0
 40
0.0415584713821026
 50
241.8282962561075919
 51
294.5448164352076788
  0
CIRCLE
  5
142E0
  8
0
 10
122.6362804781182945
 20
-11.1364413015995396
 30
0.0
 40
0.0241558043965635
  0
ARC
  5
142E1
  8
0
 10
122.6351924838355956
 20
-11.1323844544369308
 30
0.0
 40
0.0682971401041462
 50
89.1253186585231845
 51
169.0443075716196972
  0
ARC
  5
142E2
  8
0
 10
122.6293368627922007
 20
-11.13125093562412
 30
0.0
 40
0.0623328159426635
 50
169.044307571622312
 51
220.6927228503691083
  0
ARC
  5
142E3
  8
0
 10
122.6365186688962012
 20
-11.1250751946806705
 30
0.0
 40
0.0718047806340931
 50
220.6927228503701031
 51
269.0819106221161974
  0
ARC
  5
142E4
  8
0
 10
122.6365007347524028
 20
-11.1261943262431995
 30
0.0
 40
0.0706855053829712
 50
269.0819106221171069
 51
319.7397272231734178
  0
ARC
  5
142E5
  8
0
 10
122.6423877427634039
 20
-11.1311798586252699
 30
0.0
 40
0.062971077571794
 50
319.7397272231706893
 51
30.2254073791988915
  0
ARC
  5
142E6
  8
0
 10
122.6352178283847962
 20
-11.1353571059915506
 30
0.0
 40
0.0712690934645025
 50
30.2254073791990692
 51
89.1821734439018456
  0
ARC
  5
142E7
  8
0
 10
122.6345998419482015
 20
-11.1152304597852503
 30
0.0
 40
0.0737895492597202
 50
88.2068426578304354
 51
142.8071991524753059
  0
ARC
  5
142E8
  8
0
 10
122.6372494662804939
 20
-11.1172411094339605
 30
0.0
 40
0.0771156913360524
 50
142.8071991524739133
 51
176.258695062607103
  0
ARC
  5
142E9
  8
0
 10
122.6387723824794023
 20
-11.1173406945307498
 30
0.0
 40
0.0786418600490471
 50
176.2586950626075009
 51
223.4163745611784861
  0
ARC
  5
142EA
  8
0
 10
122.6342771900982029
 20
-11.1175280195018704
 30
0.0
 40
0.0760964927344279
 50
31.1836488042250402
 51
88.0181565785875506
  0
ARC
  5
142EB
  8
0
 10
122.6308922838230018
 20
-11.1195766715410205
 30
0.0
 40
0.0800530778364234
 50
349.2585854523006788
 51
31.1836488042268591
  0
ARC
  5
142EC
  8
0
 10
122.6357744245209034
 20
-11.1205028170046205
 30
0.0
 40
0.075083868320412
 50
315.7977219022811823
 51
349.2585854523006788
  0
ARC
  5
142ED
  8
0
 10
122.6379522373513993
 20
-11.0836396820560097
 30
0.0
 40
0.0415584713821026
 50
241.8282962561075919
 51
294.5448164352076788
  0
CIRCLE
  5
142EE
  8
0
 10
122.8047470660448965
 20
-11.4237557636990203
 30
0.0
 40
0.0241558043965635
  0
ARC
  5
142EF
  8
0
 10
122.8036590717621976
 20
-11.4196989165364098
 30
0.0
 40
0.0682971401041462
 50
89.1253186585231845
 51
169.0443075716196972
  0
ARC
  5
142F0
  8
0
 10
122.7978034507188028
 20
-11.4185653977236008
 30
0.0
 40
0.0623328159426635
 50
169.044307571622312
 51
220.6927228503691083
  0
ARC
  5
142F1
  8
0
 10
122.8049852568228033
 20
-11.4123896567801495
 30
0.0
 40
0.0718047806340931
 50
220.6927228503701031
 51
269.0819106221161974
  0
ARC
  5
142F2
  8
0
 10
122.8049673226790048
 20
-11.4135087883426891
 30
0.0
 40
0.0706855053829712
 50
269.0819106221171069
 51
319.7397272231734178
  0
ARC
  5
142F3
  8
0
 10
122.810854330690006
 20
-11.4184943207247507
 30
0.0
 40
0.062971077571794
 50
319.7397272231706893
 51
30.2254073791988915
  0
ARC
  5
142F4
  8
0
 10
122.8036844163113983
 20
-11.4226715680910402
 30
0.0
 40
0.0712690934645025
 50
30.2254073791990692
 51
89.1821734439018456
  0
ARC
  5
142F5
  8
0
 10
122.8030664298749031
 20
-11.4025449218847292
 30
0.0
 40
0.0737895492597202
 50
88.2068426578304354
 51
142.8071991524753059
  0
ARC
  5
142F6
  8
0
 10
122.805716054207096
 20
-11.4045555715334395
 30
0.0
 40
0.0771156913360524
 50
142.8071991524739133
 51
176.258695062607103
  0
ARC
  5
142F7
  8
0
 10
122.8072389704061038
 20
-11.4046551566302394
 30
0.0
 40
0.0786418600490471
 50
176.2586950626075009
 51
223.4163745611784861
  0
ARC
  5
142F8
  8
0
 10
122.802743778024805
 20
-11.40484248160136
 30
0.0
 40
0.0760964927344279
 50
31.1836488042250402
 51
88.0181565785875506
  0
ARC
  5
142F9
  8
0
 10
122.7993588717496038
 20
-11.4068911336404994
 30
0.0
 40
0.0800530778364234
 50
349.2585854523006788
 51
31.1836488042268591
  0
ARC
  5
142FA
  8
0
 10
122.8042410124475055
 20
-11.4078172791041101
 30
0.0
 40
0.075083868320412
 50
315.7977219022811823
 51
349.2585854523006788
  0
ARC
  5
142FB
  8
0
 10
122.8064188252780013
 20
-11.3709541441554993
 30
0.0
 40
0.0415584713821026
 50
241.8282962561075919
 51
294.5448164352076788
  0
CIRCLE
  5
142FC
  8
0
 10
122.3266859037509988
 20
-11.3209388504280692
 30
0.0
 40
0.0241558043965635
  0
ARC
  5
142FD
  8
0
 10
122.3255979094682999
 20
-11.3168820032654605
 30
0.0
 40
0.0682971401041462
 50
89.1253186585231845
 51
169.0443075716196972
  0
ARC
  5
142FE
  8
0
 10
122.319742288424905
 20
-11.3157484844526497
 30
0.0
 40
0.0623328159426635
 50
169.044307571622312
 51
220.6927228503691083
  0
ARC
  5
142FF
  8
0
 10
122.3269240945289056
 20
-11.3095727435091895
 30
0.0
 40
0.0718047806340931
 50
220.6927228503701031
 51
269.0819106221161974
  0
ARC
  5
14300
  8
0
 10
122.3269061603850929
 20
-11.3106918750717291
 30
0.0
 40
0.0706855053829712
 50
269.0819106221171069
 51
319.7397272231734178
  0
ARC
  5
14301
  8
0
 10
122.3327931683960941
 20
-11.3156774074537996
 30
0.0
 40
0.062971077571794
 50
319.7397272231706893
 51
30.2254073791988915
  0
ARC
  5
14302
  8
0
 10
122.3256232540175006
 20
-11.3198546548200802
 30
0.0
 40
0.0712690934645025
 50
30.2254073791990692
 51
89.1821734439018456
  0
ARC
  5
14303
  8
0
 10
122.3250052675809059
 20
-11.2997280086137692
 30
0.0
 40
0.0737895492597202
 50
88.2068426578304354
 51
142.8071991524753059
  0
ARC
  5
14304
  8
0
 10
122.3276548919131983
 20
-11.3017386582624901
 30
0.0
 40
0.0771156913360524
 50
142.8071991524739133
 51
176.258695062607103
  0
ARC
  5
14305
  8
0
 10
122.3291778081122061
 20
-11.3018382433592794
 30
0.0
 40
0.0786418600490471
 50
176.2586950626075009
 51
223.4163745611784861
  0
ARC
  5
14306
  8
0
 10
122.3246826157308931
 20
-11.3020255683304001
 30
0.0
 40
0.0760964927344279
 50
31.1836488042250402
 51
88.0181565785875506
  0
ARC
  5
14307
  8
0
 10
122.3212977094557061
 20
-11.3040742203695501
 30
0.0
 40
0.0800530778364234
 50
349.2585854523006788
 51
31.1836488042268591
  0
ARC
  5
14308
  8
0
 10
122.3261798501535935
 20
-11.3050003658331502
 30
0.0
 40
0.075083868320412
 50
315.7977219022811823
 51
349.2585854523006788
  0
ARC
  5
14309
  8
0
 10
122.3283576629841036
 20
-11.2681372308845393
 30
0.0
 40
0.0415584713821026
 50
241.8282962561075919
 51
294.5448164352076788
  0
CIRCLE
  5
1430A
  8
0
 10
122.2473368192915046
 20
-11.0066437654479898
 30
0.0
 40
0.0241558043965635
  0
ARC
  5
1430B
  8
0
 10
122.2462488250088057
 20
-11.0025869182853793
 30
0.0
 40
0.0682971401041462
 50
89.1253186585231845
 51
169.0443075716196972
  0
ARC
  5
1430C
  8
0
 10
122.2403932039653967
 20
-11.0014533994725703
 30
0.0
 40
0.0623328159426635
 50
169.044307571622312
 51
220.6927228503691083
  0
ARC
  5
1430D
  8
0
 10
122.2475750100693972
 20
-10.9952776585291208
 30
0.0
 40
0.0718047806340931
 50
220.6927228503701031
 51
269.0819106221161974
  0
ARC
  5
1430E
  8
0
 10
122.2475570759255987
 20
-10.9963967900916604
 30
0.0
 40
0.0706855053829712
 50
269.0819106221171069
 51
319.7397272231734178
  0
ARC
  5
1430F
  8
0
 10
122.2534440839365999
 20
-11.0013823224737202
 30
0.0
 40
0.062971077571794
 50
319.7397272231706893
 51
30.2254073791988915
  0
ARC
  5
14310
  8
0
 10
122.2462741695580064
 20
-11.0055595698400097
 30
0.0
 40
0.0712690934645025
 50
30.2254073791990692
 51
89.1821734439018456
  0
ARC
  5
14311
  8
0
 10
122.245656183121497
 20
-10.9854329236337005
 30
0.0
 40
0.0737895492597202
 50
88.2068426578304354
 51
142.8071991524753059
  0
ARC
  5
14312
  8
0
 10
122.2483058074537041
 20
-10.9874435732824107
 30
0.0
 40
0.0771156913360524
 50
142.8071991524739133
 51
176.258695062607103
  0
ARC
  5
14313
  8
0
 10
122.2498287236526977
 20
-10.9875431583792107
 30
0.0
 40
0.0786418600490471
 50
176.2586950626075009
 51
223.4163745611784861
  0
ARC
  5
14314
  8
0
 10
122.2453335312713989
 20
-10.9877304833503295
 30
0.0
 40
0.0760964927344279
 50
31.1836488042250402
 51
88.0181565785875506
  0
ARC
  5
14315
  8
0
 10
122.2419486249961977
 20
-10.9897791353894707
 30
0.0
 40
0.0800530778364234
 50
349.2585854523006788
 51
31.1836488042268591
  0
ARC
  5
14316
  8
0
 10
122.2468307656940993
 20
-10.9907052808530796
 30
0.0
 40
0.075083868320412
 50
315.7977219022811823
 51
349.2585854523006788
  0
ARC
  5
14317
  8
0
 10
122.2490085785245952
 20
-10.9538421459044599
 30
0.0
 40
0.0415584713821026
 50
241.8282962561075919
 51
294.5448164352076788
  0
CIRCLE
  5
14318
  8
0
 10
121.9272201659642008
 20
-11.08758237752604
 30
0.0
 40
0.0241558043965635
  0
ARC
  5
14319
  8
0
 10
121.9261321716816013
 20
-11.0835255303634295
 30
0.0
 40
0.0682971401041462
 50
89.1253186585231845
 51
169.0443075716196972
  0
ARC
  5
1431A
  8
0
 10
121.9202765506382065
 20
-11.0823920115506205
 30
0.0
 40
0.0623328159426635
 50
169.044307571622312
 51
220.6927228503691083
  0
ARC
  5
1431B
  8
0
 10
121.9274583567420933
 20
-11.0762162706071692
 30
0.0
 40
0.0718047806340931
 50
220.6927228503701031
 51
269.0819106221161974
  0
ARC
  5
1431C
  8
0
 10
121.9274404225983943
 20
-11.0773354021696999
 30
0.0
 40
0.0706855053829712
 50
269.0819106221171069
 51
319.7397272231734178
  0
ARC
  5
1431D
  8
0
 10
121.9333274306093955
 20
-11.0823209345517704
 30
0.0
 40
0.062971077571794
 50
319.7397272231706893
 51
30.2254073791988915
  0
ARC
  5
1431E
  8
0
 10
121.926157516230802
 20
-11.0864981819180493
 30
0.0
 40
0.0712690934645025
 50
30.2254073791990692
 51
89.1821734439018456
  0
ARC
  5
1431F
  8
0
 10
121.9255395297941931
 20
-11.0663715357117507
 30
0.0
 40
0.0737895492597202
 50
88.2068426578304354
 51
142.8071991524753059
  0
ARC
  5
14320
  8
0
 10
121.9281891541264997
 20
-11.0683821853604591
 30
0.0
 40
0.0771156913360524
 50
142.8071991524739133
 51
176.258695062607103
  0
ARC
  5
14321
  8
0
 10
121.9297120703253938
 20
-11.0684817704572502
 30
0.0
 40
0.0786418600490471
 50
176.2586950626075009
 51
223.4163745611784861
  0
ARC
  5
14322
  8
0
 10
121.925216877944095
 20
-11.0686690954283709
 30
0.0
 40
0.0760964927344279
 50
31.1836488042250402
 51
88.0181565785875506
  0
ARC
  5
14323
  8
0
 10
121.9218319716689933
 20
-11.0707177474675191
 30
0.0
 40
0.0800530778364234
 50
349.2585854523006788
 51
31.1836488042268591
  0
ARC
  5
14324
  8
0
 10
121.9267141123668949
 20
-11.0716438929311298
 30
0.0
 40
0.075083868320412
 50
315.7977219022811823
 51
349.2585854523006788
  0
ARC
  5
14325
  8
0
 10
121.928891925197405
 20
-11.0347807579825101
 30
0.0
 40
0.0415584713821026
 50
241.8282962561075919
 51
294.5448164352076788
  0
CIRCLE
  5
14326
  8
0
 10
122.3602728178078962
 20
-10.7839049756810592
 30
0.0
 40
0.0241558043965635
  0
ARC
  5
14327
  8
0
 10
122.3591848235251973
 20
-10.7798481285184504
 30
0.0
 40
0.0682971401041462
 50
89.1253186585231845
 51
169.0443075716196972
  0
ARC
  5
14328
  8
0
 10
122.3533292024818024
 20
-10.7787146097056308
 30
0.0
 40
0.0623328159426635
 50
169.044307571622312
 51
220.6927228503691083
  0
ARC
  5
14329
  8
0
 10
122.360511008585803
 20
-10.7725388687621795
 30
0.0
 40
0.0718047806340931
 50
220.6927228503701031
 51
269.0819106221161974
  0
ARC
  5
1432A
  8
0
 10
122.3604930744420045
 20
-10.7736580003247209
 30
0.0
 40
0.0706855053829712
 50
269.0819106221171069
 51
319.7397272231734178
  0
ARC
  5
1432B
  8
0
 10
122.3663800824530057
 20
-10.7786435327067895
 30
0.0
 40
0.062971077571794
 50
319.7397272231706893
 51
30.2254073791988915
  0
ARC
  5
1432C
  8
0
 10
122.359210168074398
 20
-10.7828207800730702
 30
0.0
 40
0.0712690934645025
 50
30.2254073791990692
 51
89.1821734439018456
  0
ARC
  5
1432D
  8
0
 10
122.3585921816378033
 20
-10.7626941338667592
 30
0.0
 40
0.0737895492597202
 50
88.2068426578304354
 51
142.8071991524753059
  0
ARC
  5
1432E
  8
0
 10
122.3612418059700957
 20
-10.7647047835154694
 30
0.0
 40
0.0771156913360524
 50
142.8071991524739133
 51
176.258695062607103
  0
ARC
  5
1432F
  8
0
 10
122.3627647221691035
 20
-10.7648043686122694
 30
0.0
 40
0.0786418600490471
 50
176.2586950626075009
 51
223.4163745611784861
  0
ARC
  5
14330
  8
0
 10
122.3582695297878047
 20
-10.76499169358339
 30
0.0
 40
0.0760964927344279
 50
31.1836488042250402
 51
88.0181565785875506
  0
ARC
  5
14331
  8
0
 10
122.3548846235126035
 20
-10.7670403456225401
 30
0.0
 40
0.0800530778364234
 50
349.2585854523006788
 51
31.1836488042268591
  0
ARC
  5
14332
  8
0
 10
122.3597667642105051
 20
-10.7679664910861401
 30
0.0
 40
0.075083868320412
 50
315.7977219022811823
 51
349.2585854523006788
  0
ARC
  5
14333
  8
0
 10
122.361944577041001
 20
-10.7311033561375293
 30
0.0
 40
0.0415584713821026
 50
241.8282962561075919
 51
294.5448164352076788
  0
CIRCLE
  5
14334
  8
0
 10
122.0849868501865956
 20
-10.5714648260031705
 30
0.0
 40
0.0241558043965635
  0
ARC
  5
14335
  8
0
 10
122.0838988559039962
 20
-10.5674079788405599
 30
0.0
 40
0.0682971401041462
 50
89.1253186585231845
 51
169.0443075716196972
  0
ARC
  5
14336
  8
0
 10
122.0780432348606013
 20
-10.5662744600277492
 30
0.0
 40
0.0623328159426635
 50
169.044307571622312
 51
220.6927228503691083
  0
ARC
  5
14337
  8
0
 10
122.0852250409645023
 20
-10.5600987190842996
 30
0.0
 40
0.0718047806340931
 50
220.6927228503701031
 51
269.0819106221161974
  0
ARC
  5
14338
  8
0
 10
122.0852071068208033
 20
-10.5612178506468304
 30
0.0
 40
0.0706855053829712
 50
269.0819106221171069
 51
319.7397272231734178
  0
ARC
  5
14339
  8
0
 10
122.0910941148318045
 20
-10.5662033830289008
 30
0.0
 40
0.062971077571794
 50
319.7397272231706893
 51
30.2254073791988915
  0
ARC
  5
1433A
  8
0
 10
122.0839242004530973
 20
-10.5703806303951797
 30
0.0
 40
0.0712690934645025
 50
30.2254073791990692
 51
89.1821734439018456
  0
ARC
  5
1433B
  8
0
 10
122.0833062140166021
 20
-10.5502539841888705
 30
0.0
 40
0.0737895492597202
 50
88.2068426578304354
 51
142.8071991524753059
  0
ARC
  5
1433C
  8
0
 10
122.0859558383488945
 20
-10.5522646338375896
 30
0.0
 40
0.0771156913360524
 50
142.8071991524739133
 51
176.258695062607103
  0
ARC
  5
1433D
  8
0
 10
122.0874787545478029
 20
-10.5523642189343807
 30
0.0
 40
0.0786418600490471
 50
176.2586950626075009
 51
223.4163745611784861
  0
ARC
  5
1433E
  8
0
 10
122.0829835621666035
 20
-10.5525515439054995
 30
0.0
 40
0.0760964927344279
 50
31.1836488042250402
 51
88.0181565785875506
  0
ARC
  5
1433F
  8
0
 10
122.0795986558913029
 20
-10.5546001959446496
 30
0.0
 40
0.0800530778364234
 50
349.2585854523006788
 51
31.1836488042268591
  0
ARC
  5
14340
  8
0
 10
122.084480796589304
 20
-10.5555263414082496
 30
0.0
 40
0.075083868320412
 50
315.7977219022811823
 51
349.2585854523006788
  0
ARC
  5
14341
  8
0
 10
122.0866586094197999
 20
-10.5186632064596406
 30
0.0
 40
0.0415584713821026
 50
241.8282962561075919
 51
294.5448164352076788
  0
CIRCLE
  5
14342
  8
0
 10
121.9327028893570031
 20
-10.7647670186923605
 30
0.0
 40
0.0241558043965635
  0
ARC
  5
14343
  8
0
 10
121.9316148950744036
 20
-10.76071017152975
 30
0.0
 40
0.0682971401041462
 50
89.1253186585231845
 51
169.0443075716196972
  0
ARC
  5
14344
  8
0
 10
121.9257592740308951
 20
-10.7595766527169392
 30
0.0
 40
0.0623328159426635
 50
169.044307571622312
 51
220.6927228503691083
  0
ARC
  5
14345
  8
0
 10
121.9329410801348956
 20
-10.7534009117734897
 30
0.0
 40
0.0718047806340931
 50
220.6927228503701031
 51
269.0819106221161974
  0
ARC
  5
14346
  8
0
 10
121.9329231459911966
 20
-10.7545200433360293
 30
0.0
 40
0.0706855053829712
 50
269.0819106221171069
 51
319.7397272231734178
  0
ARC
  5
14347
  8
0
 10
121.9388101540020983
 20
-10.7595055757180909
 30
0.0
 40
0.062971077571794
 50
319.7397272231706893
 51
30.2254073791988915
  0
ARC
  5
14348
  8
0
 10
121.9316402396235048
 20
-10.7636828230843804
 30
0.0
 40
0.0712690934645025
 50
30.2254073791990692
 51
89.1821734439018456
  0
ARC
  5
14349
  8
0
 10
121.9310222531869954
 20
-10.7435561768780694
 30
0.0
 40
0.0737895492597202
 50
88.2068426578304354
 51
142.8071991524753059
  0
ARC
  5
1434A
  8
0
 10
121.9336718775192026
 20
-10.7455668265267796
 30
0.0
 40
0.0771156913360524
 50
142.8071991524739133
 51
176.258695062607103
  0
ARC
  5
1434B
  8
0
 10
121.9351947937181961
 20
-10.7456664116235796
 30
0.0
 40
0.0786418600490471
 50
176.2586950626075009
 51
223.4163745611784861
  0
ARC
  5
1434C
  8
0
 10
121.9306996013368973
 20
-10.7458537365947002
 30
0.0
 40
0.0760964927344279
 50
31.1836488042250402
 51
88.0181565785875506
  0
ARC
  5
1434D
  8
0
 10
121.9273146950616962
 20
-10.7479023886338396
 30
0.0
 40
0.0800530778364234
 50
349.2585854523006788
 51
31.1836488042268591
  0
ARC
  5
1434E
  8
0
 10
121.9321968357595978
 20
-10.7488285340974503
 30
0.0
 40
0.075083868320412
 50
315.7977219022811823
 51
349.2585854523006788
  0
ARC
  5
1434F
  8
0
 10
121.9343746485900937
 20
-10.7119653991488306
 30
0.0
 40
0.0415584713821026
 50
241.8282962561075919
 51
294.5448164352076788
  0
CIRCLE
  5
14350
  8
0
 10
121.5748009715837981
 20
-10.78308142420153
 30
0.0
 40
0.0241558043965635
  0
ARC
  5
14351
  8
0
 10
121.5737129773010992
 20
-10.7790245770389195
 30
0.0
 40
0.0682971401041462
 50
89.1253186585231845
 51
169.0443075716196972
  0
ARC
  5
14352
  8
0
 10
121.5678573562577043
 20
-10.7778910582261105
 30
0.0
 40
0.0623328159426635
 50
169.044307571622312
 51
220.6927228503691083
  0
ARC
  5
14353
  8
0
 10
121.5750391623617048
 20
-10.7717153172826592
 30
0.0
 40
0.0718047806340931
 50
220.6927228503701031
 51
269.0819106221161974
  0
ARC
  5
14354
  8
0
 10
121.5750212282179064
 20
-10.7728344488451899
 30
0.0
 40
0.0706855053829712
 50
269.0819106221171069
 51
319.7397272231734178
  0
ARC
  5
14355
  8
0
 10
121.5809082362288933
 20
-10.7778199812272604
 30
0.0
 40
0.062971077571794
 50
319.7397272231706893
 51
30.2254073791988915
  0
ARC
  5
14356
  8
0
 10
121.5737383218502998
 20
-10.7819972285935393
 30
0.0
 40
0.0712690934645025
 50
30.2254073791990692
 51
89.1821734439018456
  0
ARC
  5
14357
  8
0
 10
121.5731203354138046
 20
-10.7618705823872407
 30
0.0
 40
0.0737895492597202
 50
88.2068426578304354
 51
142.8071991524753059
  0
ARC
  5
14358
  8
0
 10
121.5757699597459975
 20
-10.7638812320359492
 30
0.0
 40
0.0771156913360524
 50
142.8071991524739133
 51
176.258695062607103
  0
ARC
  5
14359
  8
0
 10
121.5772928759450053
 20
-10.7639808171327491
 30
0.0
 40
0.0786418600490471
 50
176.2586950626075009
 51
223.4163745611784861
  0
ARC
  5
1435A
  8
0
 10
121.5727976835637065
 20
-10.7641681421038609
 30
0.0
 40
0.0760964927344279
 50
31.1836488042250402
 51
88.0181565785875506
  0
ARC
  5
1435B
  8
0
 10
121.5694127772885054
 20
-10.7662167941430091
 30
0.0
 40
0.0800530778364234
 50
349.2585854523006788
 51
31.1836488042268591
  0
ARC
  5
1435C
  8
0
 10
121.574294917986407
 20
-10.7671429396066092
 30
0.0
 40
0.075083868320412
 50
315.7977219022811823
 51
349.2585854523006788
  0
ARC
  5
1435D
  8
0
 10
121.5764727308169029
 20
-10.7302798046580001
 30
0.0
 40
0.0415584713821026
 50
241.8282962561075919
 51
294.5448164352076788
  0
CIRCLE
  5
1435E
  8
0
 10
121.678419393665493
 20
-10.4692955965529606
 30
0.0
 40
0.0241558043965635
  0
ARC
  5
1435F
  8
0
 10
121.6773313993828936
 20
-10.46523874939035
 30
0.0
 40
0.0682971401041462
 50
89.1253186585231845
 51
169.0443075716196972
  0
ARC
  5
14360
  8
0
 10
121.6714757783393992
 20
-10.4641052305775393
 30
0.0
 40
0.0623328159426635
 50
169.044307571622312
 51
220.6927228503691083
  0
ARC
  5
14361
  8
0
 10
121.6786575844433997
 20
-10.4579294896340897
 30
0.0
 40
0.0718047806340931
 50
220.6927228503701031
 51
269.0819106221161974
  0
ARC
  5
14362
  8
0
 10
121.6786396502997007
 20
-10.4590486211966205
 30
0.0
 40
0.0706855053829712
 50
269.0819106221171069
 51
319.7397272231734178
  0
ARC
  5
14363
  8
0
 10
121.6845266583106024
 20
-10.4640341535786892
 30
0.0
 40
0.062971077571794
 50
319.7397272231706893
 51
30.2254073791988915
  0
ARC
  5
14364
  8
0
 10
121.6773567439319947
 20
-10.4682114009449805
 30
0.0
 40
0.0712690934645025
 50
30.2254073791990692
 51
89.1821734439018456
  0
ARC
  5
14365
  8
0
 10
121.6767387574954995
 20
-10.4480847547386695
 30
0.0
 40
0.0737895492597202
 50
88.2068426578304354
 51
142.8071991524753059
  0
ARC
  5
14366
  8
0
 10
121.6793883818278061
 20
-10.4500954043873797
 30
0.0
 40
0.0771156913360524
 50
142.8071991524739133
 51
176.258695062607103
  0
ARC
  5
14367
  8
0
 10
121.6809112980267003
 20
-10.4501949894841797
 30
0.0
 40
0.0786418600490471
 50
176.2586950626075009
 51
223.4163745611784861
  0
ARC
  5
14368
  8
0
 10
121.6764161056454014
 20
-10.4503823144552896
 30
0.0
 40
0.0760964927344279
 50
31.1836488042250402
 51
88.0181565785875506
  0
ARC
  5
14369
  8
0
 10
121.6730311993702003
 20
-10.4524309664944397
 30
0.0
 40
0.0800530778364234
 50
349.2585854523006788
 51
31.1836488042268591
  0
ARC
  5
1436A
  8
0
 10
121.6779133400681019
 20
-10.4533571119580504
 30
0.0
 40
0.075083868320412
 50
315.7977219022811823
 51
349.2585854523006788
  0
ARC
  5
1436B
  8
0
 10
121.6800911528985978
 20
-10.4164939770094307
 30
0.0
 40
0.0415584713821026
 50
241.8282962561075919
 51
294.5448164352076788
  0
CIRCLE
  5
1436C
  8
0
 10
121.3174768081231036
 20
-10.3983216566073509
 30
0.0
 40
0.0241558043965635
  0
ARC
  5
1436D
  8
0
 10
121.3163888138405042
 20
-10.3942648094447403
 30
0.0
 40
0.0682971401041462
 50
89.1253186585231845
 51
169.0443075716196972
  0
ARC
  5
1436E
  8
0
 10
121.3105331927969956
 20
-10.3931312906319295
 30
0.0
 40
0.0623328159426635
 50
169.044307571622312
 51
220.6927228503691083
  0
ARC
  5
1436F
  8
0
 10
121.3177149989009962
 20
-10.38695554968848
 30
0.0
 40
0.0718047806340931
 50
220.6927228503701031
 51
269.0819106221161974
  0
ARC
  5
14370
  8
0
 10
121.3176970647572972
 20
-10.3880746812510196
 30
0.0
 40
0.0706855053829712
 50
269.0819106221171069
 51
319.7397272231734178
  0
ARC
  5
14371
  8
0
 10
121.3235840727681989
 20
-10.3930602136330794
 30
0.0
 40
0.062971077571794
 50
319.7397272231706893
 51
30.2254073791988915
  0
ARC
  5
14372
  8
0
 10
121.3164141583896054
 20
-10.3972374609993707
 30
0.0
 40
0.0712690934645025
 50
30.2254073791990692
 51
89.1821734439018456
  0
ARC
  5
14373
  8
0
 10
121.3157961719530959
 20
-10.3771108147930597
 30
0.0
 40
0.0737895492597202
 50
88.2068426578304354
 51
142.8071991524753059
  0
ARC
  5
14374
  8
0
 10
121.3184457962853031
 20
-10.37912146444177
 30
0.0
 40
0.0771156913360524
 50
142.8071991524739133
 51
176.258695062607103
  0
ARC
  5
14375
  8
0
 10
121.3199687124842967
 20
-10.3792210495385699
 30
0.0
 40
0.0786418600490471
 50
176.2586950626075009
 51
223.4163745611784861
  0
ARC
  5
14376
  8
0
 10
121.3154735201029979
 20
-10.3794083745096906
 30
0.0
 40
0.0760964927344279
 50
31.1836488042250402
 51
88.0181565785875506
  0
ARC
  5
14377
  8
0
 10
121.3120886138277967
 20
-10.38145702654883
 30
0.0
 40
0.0800530778364234
 50
349.2585854523006788
 51
31.1836488042268591
  0
ARC
  5
14378
  8
0
 10
121.3169707545256983
 20
-10.3823831720124407
 30
0.0
 40
0.075083868320412
 50
315.7977219022811823
 51
349.2585854523006788
  0
ARC
  5
14379
  8
0
 10
121.3191485673561942
 20
-10.3455200370638298
 30
0.0
 40
0.0415584713821026
 50
241.8282962561075919
 51
294.5448164352076788
  0
ARC
  5
1437A
  8
0
 10
123.0151144749697067
 20
-9.6119948353274083
 30
0.0
 40
1.0922737989703399
 50
209.5475981518777928
 51
270.6909729469846866
  0
ARC
  5
1437B
  8
0
 10
122.9418066278552004
 20
-9.6535508516107882
 30
0.0
 40
1.0080067061172959
 50
158.4723989270545985
 51
209.5475981518777928
  0
ARC
  5
1437C
  8
0
 10
123.0172987063046008
 20
-9.69467120102248
 30
0.0
 40
1.093372513287548
 50
89.4221088142087552
 51
157.9195377503573923
  0
ARC
  5
1437D
  8
0
 10
122.9352067259410006
 20
-9.8958735061039853
 30
0.0
 40
2.7455405710799701
 50
63.7210476740709026
 51
88.0571830138992055
  0
ARC
  5
1437E
  8
0
 10
123.0695038970412014
 20
-9.4452564654209041
 30
0.0
 40
2.283406326840145
 50
39.2210715461307515
 51
61.7361160886448701
  0
ARC
  5
1437F
  8
0
 10
123.0594729146416029
 20
-9.5755533918980031
 30
0.0
 40
2.3754504720552818
 50
5.9215361006240306
 51
41.5034202732066788
  0
ARC
  5
14380
  8
0
 10
123.1788219504741022
 20
-9.5399775482873075
 30
0.0
 40
2.2531861782201759
 50
326.6303589638798144
 51
5.3348024099051816
  0
ARC
  5
14381
  8
0
 10
123.0780349065331052
 20
-9.4729796539720326
 30
0.0
 40
2.3742088766449769
 50
296.2372009414197009
 51
326.6179102227461044
  0
ARC
  5
14382
  8
0
 10
123.0304108903595051
 20
-9.3842122607406182
 30
0.0
 40
2.4748871608281928
 50
271.8243006507948962
 51
296.3176353504950953
  0
ARC
  5
14383
  8
0
 10
122.8784934911442974
 20
-10.2463683989709899
 30
0.0
 40
3.0269659061212142
 50
62.0110976925738129
 51
87.1634974525138659
  0
ARC
  5
14384
  8
0
 10
123.0894815606931019
 20
-9.5954338916965121
 30
0.0
 40
2.356164641383049
 50
24.4485854541647392
 51
59.1118762254963812
  0
ARC
  5
14385
  8
0
 10
123.0320013290903063
 20
-9.7295484295274548
 30
0.0
 40
2.2404691201597551
 50
54.7491325997464813
 51
90.078090531394281
  0
ARC
  5
14386
  8
0
 10
123.1049400114244037
 20
-9.6265744971390532
 30
0.0
 40
2.1142801203010282
 50
24.2114216080502409
 51
54.752708066194657
  0
ARC
  5
14387
  8
0
 10
123.1658220717907
 20
-9.5918021645424574
 30
0.0
 40
2.0445041705828539
 50
0.0621415581627859
 51
24.0223785459110388
  0
ARC
  5
14388
  8
0
 10
123.1600778800935956
 20
-9.58263248573504
 30
0.0
 40
2.0502589471134698
 50
319.1111631606704009
 51
359.805714293229812
  0
ARC
  5
14389
  8
0
 10
123.049739065118203
 20
-9.4864509518382256
 30
0.0
 40
2.1966328607734931
 50
282.4904099876856094
 51
319.0985299206321884
  0
ARC
  5
1438A
  8
0
 10
123.0286444653582976
 20
-9.4219469718073299
 30
0.0
 40
2.2641821847455321
 50
272.5527889985390857
 51
282.658555298071974
  0
LINE
  5
1438B
  8
0
 10
123.1294907632010052
 20
-11.6838822029601808
 30
0.0
 11
123.1279135429144986
 21
-11.3726119736786906
 31
0.0
  0
ARC
  5
1438C
  8
0
 10
123.0641965233110966
 20
-11.3664789411431695
 30
0.0
 40
0.0640115042411671
 50
354.5019767267850739
 51
85.2315704166776271
  0
ARC
  5
1438D
  8
0
 10
123.128494153578103
 20
-11.7094962741874706
 30
0.0
 40
0.0256334522758256
 50
87.7718209729111436
 51
130.1414768953472958
  0
ARC
  5
1438E
  8
0
 10
123.1173960220794044
 20
-11.6949701546454996
 30
0.0
 40
0.0074265739625394
 50
136.9515852544928123
 51
171.8692510004894984
  0
ARC
  5
1438F
  8
0
 10
118.9945558966572037
 20
-11.9860766637597393
 30
0.0
 40
4.1137392149867926
 50
358.2952607307049107
 51
0.1591902010308164
  0
ARC
  5
14390
  8
0
 10
136.0711828520149993
 20
-11.9386309584036798
 30
0.0
 40
12.9629536518246908
 50
179.5625649175858882
 51
180.1591902010308104
  0
ARC
  5
14391
  8
0
 10
114.2321593913562054
 20
-11.7718937095957497
 30
0.0
 40
8.8767063048996597
 50
359.5625649175856893
 51
0.3116824166797116
  0
ARC
  5
14392
  8
0
 10
115.3766198012441038
 20
-11.3416496877383803
 30
0.0
 40
7.7415428608393233
 50
357.1719648186505083
 51
357.3773722844125018
  0
ARC
  5
14393
  8
0
 10
21333.9172652435008786
 20
95.1314039035578958
 30
0.0
 40
21211.0762249882682227
 50
180.287716380927094
 51
180.2885652057182995
  0
ARC
  5
14394
  8
0
 10
123.0215952255187943
 20
-11.3790285785914502
 30
0.0
 40
0.0869180015877351
 50
358.2718642395582265
 51
27.1684391345319014
  0
ARC
  5
14395
  8
0
 10
123.0669030980800045
 20
-11.3535983808514302
 30
0.0
 40
0.0350509409565971
 50
24.0013403039740503
 51
85.5481048520545357
  0
ARC
  5
14396
  8
0
 10
123.0627526192555052
 20
-12.1072018049265697
 30
0.0
 40
0.0437397475046523
 50
327.8131136017066751
 51
358.3569041293736177
  0
ARC
  5
14397
  8
0
 10
123.069393219889804
 20
-12.1098456032409096
 30
0.0
 40
0.0367344062490907
 50
285.1733454091390172
 51
325.7852807992815087
  0
ARC
  5
14398
  8
0
 10
123.0291242450616949
 20
-9.7489970740582521
 30
0.0
 40
2.3223598862233761
 50
68.4641359385709478
 51
90.0216078686666208
  0
ARC
  5
14399
  8
0
 10
123.0511687448785949
 20
-9.6936041642006856
 30
0.0
 40
2.262741900883332
 50
51.1355573560246981
 51
68.4684836950674054
  0
ARC
  5
1439A
  8
0
 10
123.1250663484128012
 20
-9.6105970663436615
 30
0.0
 40
2.1517475054316129
 50
16.2487734421711814
 51
51.2807788913147107
  0
ARC
  5
1439B
  8
0
 10
123.1926551533586007
 20
-9.5849233080003913
 30
0.0
 40
2.079682654557431
 50
340.5965454258384284
 51
16.0907361240706699
  0
ARC
  5
1439C
  8
0
 10
123.1177007872593947
 20
-9.5535336073367318
 30
0.0
 40
2.1608131571681009
 50
307.2610561792656085
 51
340.4717708323901775
  0
ARC
  5
1439D
  8
0
 10
123.0343632275904042
 20
-9.4457938113146476
 30
0.0
 40
2.2970184501219539
 50
271.8573919444555145
 51
307.2884025492268734
  0
CIRCLE
  5
1439E
  8
0
 10
123.4982177110306054
 20
-7.8672305609768003
 30
0.0
 40
0.0241558043965635
  0
ARC
  5
1439F
  8
0
 10
123.4993057053132048
 20
-7.8631737138141906
 30
0.0
 40
0.0682971401041462
 50
10.9556924283802903
 51
90.8746813414759913
  0
ARC
  5
143A0
  8
0
 10
123.5051613263566992
 20
-7.8620401950013843
 30
0.0
 40
0.0623328159426635
 50
319.3072771496308064
 51
10.9556924283776898
  0
ARC
  5
143A1
  8
0
 10
123.4979795202526986
 20
-7.8558644540579294
 30
0.0
 40
0.0718047806340931
 50
270.9180893778836889
 51
319.3072771496293853
  0
ARC
  5
143A2
  8
0
 10
123.4979974543963976
 20
-7.8569835856204691
 30
0.0
 40
0.0706855053829712
 50
220.260272776826497
 51
270.9180893778828931
  0
ARC
  5
143A3
  8
0
 10
123.4921104463854959
 20
-7.8619691180025342
 30
0.0
 40
0.062971077571794
 50
149.7745926208012861
 51
220.2602727768291118
  0
ARC
  5
143A4
  8
0
 10
123.4992803607641036
 20
-7.8661463653688202
 30
0.0
 40
0.0712690934645025
 50
90.8178265560973443
 51
149.7745926208010872
  0
ARC
  5
143A5
  8
0
 10
123.4998983472005989
 20
-7.8460197191625118
 30
0.0
 40
0.0737895492597202
 50
37.1928008475246514
 51
91.7931573421695788
  0
ARC
  5
143A6
  8
0
 10
123.4972487228684059
 20
-7.8480303688112221
 30
0.0
 40
0.0771156913360524
 50
3.7413049373928589
 51
37.1928008475257883
  0
ARC
  5
143A7
  8
0
 10
123.4957258066693981
 20
-7.848129953908014
 30
0.0
 40
0.0786418600490471
 50
316.5836254388212865
 51
3.7413049373924521
  0
ARC
  5
143A8
  8
0
 10
123.5002209990506969
 20
-7.8483172788791364
 30
0.0
 40
0.0760964927344279
 50
91.9818434214132594
 51
148.8163511957748142
  0
ARC
  5
143A9
  8
0
 10
123.5036059053258981
 20
-7.8503659309182856
 30
0.0
 40
0.0800530778364234
 50
148.8163511957731089
 51
190.741414547698696
  0
ARC
  5
143AA
  8
0
 10
123.4987237646279965
 20
-7.8512920763818883
 30
0.0
 40
0.075083868320412
 50
190.7414145476992928
 51
224.2022780977185903
  0
ARC
  5
143AB
  8
0
 10
123.4965459517975006
 20
-7.8144289414332766
 30
0.0
 40
0.0415584713821026
 50
245.4551835647922928
 51
298.1717037438924081
  0
CIRCLE
  5
143AC
  8
0
 10
123.2333644037563971
 20
-8.0963714242185745
 30
0.0
 40
0.0241558043965635
  0
ARC
  5
143AD
  8
0
 10
123.234452398039096
 20
-8.0923145770559728
 30
0.0
 40
0.0682971401041462
 50
10.9556924283802903
 51
90.8746813414759913
  0
ARC
  5
143AE
  8
0
 10
123.2403080190825051
 20
-8.0911810582431585
 30
0.0
 40
0.0623328159426635
 50
319.3072771496308064
 51
10.9556924283776898
  0
ARC
  5
143AF
  8
0
 10
123.2331262129785046
 20
-8.0850053172997036
 30
0.0
 40
0.0718047806340931
 50
270.9180893778836889
 51
319.3072771496297833
  0
ARC
  5
143B0
  8
0
 10
123.233144147122303
 20
-8.0861244488622432
 30
0.0
 40
0.0706855053829712
 50
220.260272776826497
 51
270.9180893778828931
  0
ARC
  5
143B1
  8
0
 10
123.2272571391113019
 20
-8.0911099812443084
 30
0.0
 40
0.062971077571794
 50
149.7745926208012861
 51
220.2602727768291118
  0
ARC
  5
143B2
  8
0
 10
123.2344270534898953
 20
-8.0952872286105944
 30
0.0
 40
0.0712690934645025
 50
90.8178265560973443
 51
149.7745926208010872
  0
ARC
  5
143B3
  8
0
 10
123.2350450399265043
 20
-8.0751605824042851
 30
0.0
 40
0.0737895492597202
 50
37.1928008475246514
 51
91.7931573421695788
  0
ARC
  5
143B4
  8
0
 10
123.2323954155941976
 20
-8.0771712320529971
 30
0.0
 40
0.0771156913360524
 50
3.7413049373928589
 51
37.1928008475257883
  0
ARC
  5
143B5
  8
0
 10
123.2308724993953035
 20
-8.0772708171497953
 30
0.0
 40
0.0786418600490471
 50
316.5836254388212865
 51
3.7413049373924521
  0
ARC
  5
143B6
  8
0
 10
123.2353676917765029
 20
-8.0774581421209177
 30
0.0
 40
0.0760964927344279
 50
91.9818434214132594
 51
148.8163511957748142
  0
ARC
  5
143B7
  8
0
 10
123.238752598051704
 20
-8.0795067941600607
 30
0.0
 40
0.0800530778364234
 50
148.8163511957731089
 51
190.741414547698696
  0
ARC
  5
143B8
  8
0
 10
123.2338704573538024
 20
-8.0804329396236625
 30
0.0
 40
0.075083868320412
 50
190.7414145476992928
 51
224.2022780977185903
  0
ARC
  5
143B9
  8
0
 10
123.2316926445233065
 20
-8.0435698046750517
 30
0.0
 40
0.0415584713821026
 50
245.4551835647922928
 51
298.1717037438924081
  0
CIRCLE
  5
143BA
  8
0
 10
123.9443133737595986
 20
-8.031468159852956
 30
0.0
 40
0.0241558043965635
  0
ARC
  5
143BB
  8
0
 10
123.945401368042198
 20
-8.0274113126903472
 30
0.0
 40
0.0682971401041462
 50
10.9556924283802903
 51
90.8746813414759913
  0
ARC
  5
143BC
  8
0
 10
123.9512569890857066
 20
-8.02627779387754
 30
0.0
 40
0.0623328159426635
 50
319.3072771496308064
 51
10.9556924283776898
  0
ARC
  5
143BD
  8
0
 10
123.944075182981706
 20
-8.0201020529340852
 30
0.0
 40
0.0718047806340931
 50
270.9180893778836889
 51
319.3072771496297833
  0
ARC
  5
143BE
  8
0
 10
123.944093117125405
 20
-8.0212211844966248
 30
0.0
 40
0.0706855053829712
 50
220.260272776826497
 51
270.9180893778828931
  0
ARC
  5
143BF
  8
0
 10
123.9382061091145033
 20
-8.0262067168786881
 30
0.0
 40
0.062971077571794
 50
149.7745926208012861
 51
220.2602727768291118
  0
ARC
  5
143C0
  8
0
 10
123.9453760234930968
 20
-8.0303839642449741
 30
0.0
 40
0.0712690934645025
 50
90.8178265560973443
 51
149.7745926208010872
  0
ARC
  5
143C1
  8
0
 10
123.9459940099296062
 20
-8.0102573180386685
 30
0.0
 40
0.0737895492597202
 50
37.1928008475246514
 51
91.7931573421695788
  0
ARC
  5
143C2
  8
0
 10
123.9433443855972996
 20
-8.0122679676873787
 30
0.0
 40
0.0771156913360524
 50
3.7413049373928589
 51
37.1928008475257883
  0
ARC
  5
143C3
  8
0
 10
123.9418214693984055
 20
-8.0123675527841698
 30
0.0
 40
0.0786418600490471
 50
316.5836254388212865
 51
3.7413049373924521
  0
ARC
  5
143C4
  8
0
 10
123.9463166617797043
 20
-8.0125548777552922
 30
0.0
 40
0.0760964927344279
 50
91.9818434214132594
 51
148.8163511957748142
  0
ARC
  5
143C5
  8
0
 10
123.949701568054806
 20
-8.0146035297944422
 30
0.0
 40
0.0800530778364234
 50
148.8163511957731089
 51
190.741414547698696
  0
ARC
  5
143C6
  8
0
 10
123.9448194273569044
 20
-8.0155296752580441
 30
0.0
 40
0.075083868320412
 50
190.7414145476992928
 51
224.2022780977185903
  0
ARC
  5
143C7
  8
0
 10
123.9426416145264938
 20
-7.9786665403094332
 30
0.0
 40
0.0415584713821026
 50
245.4551835647922928
 51
298.1717037438924081
  0
CIRCLE
  5
143C8
  8
0
 10
123.6247734707796013
 20
-8.2029042836090866
 30
0.0
 40
0.0241558043965635
  0
ARC
  5
143C9
  8
0
 10
123.6258614650622008
 20
-8.1988474364464832
 30
0.0
 40
0.0682971401041462
 50
10.9556924283802903
 51
90.8746813414759913
  0
ARC
  5
143CA
  8
0
 10
123.6317170861055956
 20
-8.1977139176336706
 30
0.0
 40
0.0623328159426635
 50
319.3072771496308064
 51
10.9556924283776898
  0
ARC
  5
143CB
  8
0
 10
123.6245352800016946
 20
-8.1915381766902158
 30
0.0
 40
0.0718047806340931
 50
270.9180893778836889
 51
319.3072771496297833
  0
ARC
  5
143CC
  8
0
 10
123.6245532141453936
 20
-8.1926573082527554
 30
0.0
 40
0.0706855053829712
 50
220.260272776826497
 51
270.9180893778828931
  0
ARC
  5
143CD
  8
0
 10
123.6186662061345061
 20
-8.1976428406348205
 30
0.0
 40
0.062971077571794
 50
149.7745926208012861
 51
220.2602727768291118
  0
ARC
  5
143CE
  8
0
 10
123.6258361205130001
 20
-8.2018200880011065
 30
0.0
 40
0.0712690934645025
 50
90.8178265560973443
 51
149.7745926208010872
  0
ARC
  5
143CF
  8
0
 10
123.6264541069495948
 20
-8.1816934417947991
 30
0.0
 40
0.0737895492597202
 50
37.1928008475246514
 51
91.7931573421695788
  0
ARC
  5
143D0
  8
0
 10
123.6238044826174018
 20
-8.1837040914435093
 30
0.0
 40
0.0771156913360524
 50
3.7413049373928589
 51
37.1928008475257883
  0
ARC
  5
143D1
  8
0
 10
123.622281566418394
 20
-8.1838036765403075
 30
0.0
 40
0.0786418600490471
 50
316.5836254388212865
 51
3.7413049373924521
  0
ARC
  5
143D2
  8
0
 10
123.6267767587995934
 20
-8.1839910015114299
 30
0.0
 40
0.0760964927344279
 50
91.9818434214132594
 51
148.8163511957748142
  0
ARC
  5
143D3
  8
0
 10
123.630161665074894
 20
-8.1860396535505728
 30
0.0
 40
0.0800530778364234
 50
148.8163511957731089
 51
190.741414547698696
  0
ARC
  5
143D4
  8
0
 10
123.6252795243768929
 20
-8.1869657990141746
 30
0.0
 40
0.075083868320412
 50
190.7414145476992928
 51
224.2022780977185903
  0
ARC
  5
143D5
  8
0
 10
123.6231017115464965
 20
-8.1501026640655638
 30
0.0
 40
0.0415584713821026
 50
245.4551835647922928
 51
298.1717037438924081
  0
CIRCLE
  5
143D6
  8
0
 10
123.3732718294331931
 20
-8.4175433056607005
 30
0.0
 40
0.0241558043965635
  0
ARC
  5
143D7
  8
0
 10
123.3743598237159063
 20
-8.4134864584980988
 30
0.0
 40
0.0682971401041462
 50
10.9556924283802903
 51
90.8746813414759913
  0
ARC
  5
143D8
  8
0
 10
123.3802154447593011
 20
-8.4123529396852845
 30
0.0
 40
0.0623328159426635
 50
319.3072771496308064
 51
10.9556924283776898
  0
ARC
  5
143D9
  8
0
 10
123.3730336386553006
 20
-8.4061771987418297
 30
0.0
 40
0.0718047806340931
 50
270.9180893778836889
 51
319.3072771496293853
  0
ARC
  5
143DA
  8
0
 10
123.3730515727990991
 20
-8.4072963303043693
 30
0.0
 40
0.0706855053829712
 50
220.260272776826497
 51
270.9180893778828931
  0
ARC
  5
143DB
  8
0
 10
123.3671645647880979
 20
-8.4122818626864344
 30
0.0
 40
0.062971077571794
 50
149.7745926208012861
 51
220.2602727768291118
  0
ARC
  5
143DC
  8
0
 10
123.3743344791667056
 20
-8.4164591100527204
 30
0.0
 40
0.0712690934645025
 50
90.8178265560973443
 51
149.7745926208010872
  0
ARC
  5
143DD
  8
0
 10
123.3749524656033003
 20
-8.3963324638464112
 30
0.0
 40
0.0737895492597202
 50
37.1928008475246514
 51
91.7931573421695788
  0
ARC
  5
143DE
  8
0
 10
123.3723028412709937
 20
-8.3983431134951232
 30
0.0
 40
0.0771156913360524
 50
3.7413049373928589
 51
37.1928008475257883
  0
ARC
  5
143DF
  8
0
 10
123.3707799250720996
 20
-8.3984426985919214
 30
0.0
 40
0.0786418600490471
 50
316.5836254388212865
 51
3.7413049373924521
  0
ARC
  5
143E0
  8
0
 10
123.3752751174532989
 20
-8.3986300235630438
 30
0.0
 40
0.0760964927344279
 50
91.9818434214132594
 51
148.8163511957748142
  0
ARC
  5
143E1
  8
0
 10
123.3786600237285001
 20
-8.4006786756021867
 30
0.0
 40
0.0800530778364234
 50
148.8163511957731089
 51
190.741414547698696
  0
ARC
  5
143E2
  8
0
 10
123.3737778830305984
 20
-8.4016048210657885
 30
0.0
 40
0.075083868320412
 50
190.7414145476992928
 51
224.2022780977185903
  0
ARC
  5
143E3
  8
0
 10
123.3716000702001026
 20
-8.3647416861171777
 30
0.0
 40
0.0415584713821026
 50
245.4551835647922928
 51
298.1717037438924081
  0
CIRCLE
  5
143E4
  8
0
 10
123.698211732571707
 20
-8.5447129840907508
 30
0.0
 40
0.0241558043965635
  0
ARC
  5
143E5
  8
0
 10
123.6992997268544059
 20
-8.5406561369281491
 30
0.0
 40
0.0682971401041462
 50
10.9556924283802903
 51
90.8746813414759913
  0
ARC
  5
143E6
  8
0
 10
123.7051553478978008
 20
-8.5395226181153348
 30
0.0
 40
0.0623328159426635
 50
319.3072771496308064
 51
10.9556924283776898
  0
ARC
  5
143E7
  8
0
 10
123.6979735417938002
 20
-8.5333468771718781
 30
0.0
 40
0.0718047806340931
 50
270.9180893778836889
 51
319.3072771496293853
  0
ARC
  5
143E8
  8
0
 10
123.6979914759375987
 20
-8.5344660087344195
 30
0.0
 40
0.0706855053829712
 50
220.260272776826497
 51
270.9180893778828931
  0
ARC
  5
143E9
  8
0
 10
123.6921044679265975
 20
-8.5394515411164846
 30
0.0
 40
0.062971077571794
 50
149.7745926208012861
 51
220.2602727768291118
  0
ARC
  5
143EA
  8
0
 10
123.6992743823052052
 20
-8.5436287884827706
 30
0.0
 40
0.0712690934645025
 50
90.8178265560973443
 51
149.7745926208010872
  0
ARC
  5
143EB
  8
0
 10
123.6998923687417005
 20
-8.5235021422764632
 30
0.0
 40
0.0737895492597202
 50
37.1928008475246514
 51
91.7931573421695788
  0
ARC
  5
143EC
  8
0
 10
123.6972427444094933
 20
-8.5255127919251734
 30
0.0
 40
0.0771156913360524
 50
3.7413049373928589
 51
37.1928008475257883
  0
ARC
  5
143ED
  8
0
 10
123.6957198282104997
 20
-8.5256123770219716
 30
0.0
 40
0.0786418600490471
 50
316.5836254388212865
 51
3.7413049373924521
  0
ARC
  5
143EE
  8
0
 10
123.7002150205917985
 20
-8.525799701993094
 30
0.0
 40
0.0760964927344279
 50
91.9818434214132594
 51
148.8163511957748142
  0
ARC
  5
143EF
  8
0
 10
123.7035999268669997
 20
-8.5278483540322352
 30
0.0
 40
0.0800530778364234
 50
148.8163511957731089
 51
190.741414547698696
  0
ARC
  5
143F0
  8
0
 10
123.6987177861690981
 20
-8.5287744994958388
 30
0.0
 40
0.075083868320412
 50
190.7414145476992928
 51
224.2022780977185903
  0
ARC
  5
143F1
  8
0
 10
123.6965399733386022
 20
-8.4919113645472262
 30
0.0
 40
0.0415584713821026
 50
245.4551835647922928
 51
298.1717037438924081
  0
CIRCLE
  5
143F2
  8
0
 10
123.9787606845628005
 20
-8.3806863184866813
 30
0.0
 40
0.0241558043965635
  0
ARC
  5
143F3
  8
0
 10
123.9798486788453999
 20
-8.3766294713240725
 30
0.0
 40
0.0682971401041462
 50
10.9556924283802903
 51
90.8746813414759913
  0
ARC
  5
143F4
  8
0
 10
123.9857042998887948
 20
-8.3754959525112582
 30
0.0
 40
0.0623328159426635
 50
319.3072771496308064
 51
10.9556924283776898
  0
ARC
  5
143F5
  8
0
 10
123.9785224937848938
 20
-8.3693202115678105
 30
0.0
 40
0.0718047806340931
 50
270.9180893778836889
 51
319.3072771496293853
  0
ARC
  5
143F6
  8
0
 10
123.978540427928607
 20
-8.3704393431303412
 30
0.0
 40
0.0706855053829712
 50
220.260272776826497
 51
270.9180893778828931
  0
ARC
  5
143F7
  8
0
 10
123.9726534199176058
 20
-8.3754248755124081
 30
0.0
 40
0.062971077571794
 50
149.7745926208012861
 51
220.2602727768291118
  0
ARC
  5
143F8
  8
0
 10
123.9798233342961993
 20
-8.3796021228786941
 30
0.0
 40
0.0712690934645025
 50
90.8178265560973443
 51
149.7745926208010872
  0
ARC
  5
143F9
  8
0
 10
123.980441320732794
 20
-8.3594754766723867
 30
0.0
 40
0.0737895492597202
 50
37.1928008475246514
 51
91.7931573421695788
  0
ARC
  5
143FA
  8
0
 10
123.9777916964005016
 20
-8.3614861263210951
 30
0.0
 40
0.0771156913360524
 50
3.7413049373928589
 51
37.1928008475257883
  0
ARC
  5
143FB
  8
0
 10
123.9762687802015932
 20
-8.3615857114179022
 30
0.0
 40
0.0786418600490471
 50
316.5836254388212865
 51
3.7413049373924521
  0
ARC
  5
143FC
  8
0
 10
123.9807639725829063
 20
-8.3617730363890175
 30
0.0
 40
0.0760964927344279
 50
91.9818434214132594
 51
148.8163511957748142
  0
ARC
  5
143FD
  8
0
 10
123.9841488788579937
 20
-8.3638216884281604
 30
0.0
 40
0.0800530778364234
 50
148.8163511957731089
 51
190.741414547698696
  0
ARC
  5
143FE
  8
0
 10
123.9792667381601063
 20
-8.3647478338917693
 30
0.0
 40
0.075083868320412
 50
190.7414145476992928
 51
224.2022780977185903
  0
ARC
  5
143FF
  8
0
 10
123.9770889253296957
 20
-8.3278846989431514
 30
0.0
 40
0.0415584713821026
 50
245.4551835647922928
 51
298.1717037438924081
  0
CIRCLE
  5
14400
  8
0
 10
124.325083020800804
 20
-8.294931902495648
 30
0.0
 40
0.0241558043965635
  0
ARC
  5
14401
  8
0
 10
124.3261710150834034
 20
-8.2908750553330322
 30
0.0
 40
0.0682971401041462
 50
10.9556924283802903
 51
90.8746813414759913
  0
ARC
  5
14402
  8
0
 10
124.3320266361268978
 20
-8.2897415365202232
 30
0.0
 40
0.0623328159426635
 50
319.3072771496308064
 51
10.9556924283776898
  0
ARC
  5
14403
  8
0
 10
124.3248448300228972
 20
-8.2835657955767772
 30
0.0
 40
0.0718047806340931
 50
270.9180893778836889
 51
319.3072771496293853
  0
ARC
  5
14404
  8
0
 10
124.3248627641665962
 20
-8.2846849271393097
 30
0.0
 40
0.0706855053829712
 50
220.260272776826497
 51
270.9180893778828931
  0
ARC
  5
14405
  8
0
 10
124.3189757561556945
 20
-8.2896704595213748
 30
0.0
 40
0.062971077571794
 50
149.7745926208012861
 51
220.2602727768291118
  0
ARC
  5
14406
  8
0
 10
124.3261456705343022
 20
-8.2938477068876608
 30
0.0
 40
0.0712690934645025
 50
90.8178265560973443
 51
149.7745926208010872
  0
ARC
  5
14407
  8
0
 10
124.3267636569707975
 20
-8.2737210606813534
 30
0.0
 40
0.0737895492597202
 50
37.1928008475246514
 51
91.7931573421695788
  0
ARC
  5
14408
  8
0
 10
124.324114032638505
 20
-8.2757317103300636
 30
0.0
 40
0.0771156913360524
 50
3.7413049373928589
 51
37.1928008475257883
  0
ARC
  5
14409
  8
0
 10
124.3225911164395967
 20
-8.2758312954268618
 30
0.0
 40
0.0786418600490471
 50
316.5836254388212865
 51
3.7413049373924521
  0
ARC
  5
1440A
  8
0
 10
124.3270863088208955
 20
-8.2760186203979771
 30
0.0
 40
0.0760964927344279
 50
91.9818434214132594
 51
148.8163511957748142
  0
ARC
  5
1440B
  8
0
 10
124.3304712150960967
 20
-8.2780672724371271
 30
0.0
 40
0.0800530778364234
 50
148.8163511957731089
 51
190.741414547698696
  0
ARC
  5
1440C
  8
0
 10
124.3255890743980956
 20
-8.2789934179007361
 30
0.0
 40
0.075083868320412
 50
190.7414145476992928
 51
224.2022780977185903
  0
ARC
  5
1440D
  8
0
 10
124.3234112615676992
 20
-8.2421302829521181
 30
0.0
 40
0.0415584713821026
 50
245.4551835647922928
 51
298.1717037438924081
  0
CIRCLE
  5
1440E
  8
0
 10
124.2764990038941022
 20
-8.6537194728807094
 30
0.0
 40
0.0241558043965635
  0
ARC
  5
1440F
  8
0
 10
124.2775869981767016
 20
-8.6496626257181077
 30
0.0
 40
0.0682971401041462
 50
10.9556924283802903
 51
90.8746813414759913
  0
ARC
  5
14410
  8
0
 10
124.2834426192200965
 20
-8.6485291069052934
 30
0.0
 40
0.0623328159426635
 50
319.3072771496308064
 51
10.9556924283776898
  0
ARC
  5
14411
  8
0
 10
124.2762608131161954
 20
-8.6423533659618386
 30
0.0
 40
0.0718047806340931
 50
270.9180893778836889
 51
319.3072771496293853
  0
ARC
  5
14412
  8
0
 10
124.2762787472598944
 20
-8.6434724975243782
 30
0.0
 40
0.0706855053829712
 50
220.260272776826497
 51
270.9180893778828931
  0
ARC
  5
14413
  8
0
 10
124.2703917392488933
 20
-8.6484580299064433
 30
0.0
 40
0.062971077571794
 50
149.7745926208012861
 51
220.2602727768291118
  0
ARC
  5
14414
  8
0
 10
124.277561653627501
 20
-8.6526352772727293
 30
0.0
 40
0.0712690934645025
 50
90.8178265560973443
 51
149.7745926208010872
  0
ARC
  5
14415
  8
0
 10
124.2781796400640957
 20
-8.6325086310664219
 30
0.0
 40
0.0737895492597202
 50
37.1928008475246514
 51
91.7931573421695788
  0
ARC
  5
14416
  8
0
 10
124.2755300157318032
 20
-8.6345192807151321
 30
0.0
 40
0.0771156913360524
 50
3.7413049373928589
 51
37.1928008475257883
  0
ARC
  5
14417
  8
0
 10
124.2740070995328949
 20
-8.6346188658119303
 30
0.0
 40
0.0786418600490471
 50
316.5836254388212865
 51
3.7413049373924521
  0
ARC
  5
14418
  8
0
 10
124.2785022919140943
 20
-8.6348061907830527
 30
0.0
 40
0.0760964927344279
 50
91.9818434214132594
 51
148.8163511957748142
  0
ARC
  5
14419
  8
0
 10
124.2818871981892954
 20
-8.6368548428221956
 30
0.0
 40
0.0800530778364234
 50
148.8163511957731089
 51
190.741414547698696
  0
ARC
  5
1441A
  8
0
 10
124.2770050574913938
 20
-8.6377809882857974
 30
0.0
 40
0.075083868320412
 50
190.7414145476992928
 51
224.2022780977185903
  0
ARC
  5
1441B
  8
0
 10
124.2748272446608979
 20
-8.6009178533371866
 30
0.0
 40
0.0415584713821026
 50
245.4551835647922928
 51
298.1717037438924081
  0
CIRCLE
  5
1441C
  8
0
 10
123.9743688505563028
 20
-8.7503081988180895
 30
0.0
 40
0.0241558043965635
  0
ARC
  5
1441D
  8
0
 10
123.9754568448390017
 20
-8.7462513516554878
 30
0.0
 40
0.0682971401041462
 50
10.9556924283802903
 51
90.8746813414759913
  0
ARC
  5
1441E
  8
0
 10
123.9813124658823966
 20
-8.7451178328426735
 30
0.0
 40
0.0623328159426635
 50
319.3072771496308064
 51
10.9556924283776898
  0
ARC
  5
1441F
  8
0
 10
123.9741306597783961
 20
-8.7389420918992187
 30
0.0
 40
0.0718047806340931
 50
270.9180893778836889
 51
319.3072771496293853
  0
ARC
  5
14420
  8
0
 10
123.9741485939221946
 20
-8.7400612234617583
 30
0.0
 40
0.0706855053829712
 50
220.260272776826497
 51
270.9180893778828931
  0
ARC
  5
14421
  8
0
 10
123.9682615859111934
 20
-8.7450467558438234
 30
0.0
 40
0.062971077571794
 50
149.7745926208012861
 51
220.2602727768291118
  0
ARC
  5
14422
  8
0
 10
123.9754315002898011
 20
-8.7492240032101094
 30
0.0
 40
0.0712690934645025
 50
90.8178265560973443
 51
149.7745926208010872
  0
ARC
  5
14423
  8
0
 10
123.9760494867263958
 20
-8.7290973570038002
 30
0.0
 40
0.0737895492597202
 50
37.1928008475246514
 51
91.7931573421695788
  0
ARC
  5
14424
  8
0
 10
123.9733998623941034
 20
-8.7311080066525122
 30
0.0
 40
0.0771156913360524
 50
3.7413049373928589
 51
37.1928008475257883
  0
ARC
  5
14425
  8
0
 10
123.971876946195195
 20
-8.7312075917493104
 30
0.0
 40
0.0786418600490471
 50
316.5836254388212865
 51
3.7413049373924521
  0
ARC
  5
14426
  8
0
 10
123.9763721385763944
 20
-8.7313949167204328
 30
0.0
 40
0.0760964927344279
 50
91.9818434214132594
 51
148.8163511957748142
  0
ARC
  5
14427
  8
0
 10
123.9797570448515955
 20
-8.7334435687595757
 30
0.0
 40
0.0800530778364234
 50
148.8163511957731089
 51
190.741414547698696
  0
ARC
  5
14428
  8
0
 10
123.9748749041536939
 20
-8.7343697142231775
 30
0.0
 40
0.075083868320412
 50
190.7414145476992928
 51
224.2022780977185903
  0
ARC
  5
14429
  8
0
 10
123.972697091323198
 20
-8.6975065792745667
 30
0.0
 40
0.0415584713821026
 50
245.4551835647922928
 51
298.1717037438924081
  0
CIRCLE
  5
1442A
  8
0
 10
124.6248910224513935
 20
-8.6444003983026221
 30
0.0
 40
0.0241558043965635
  0
ARC
  5
1442B
  8
0
 10
124.6259790167341066
 20
-8.6403435511400062
 30
0.0
 40
0.0682971401041462
 50
10.9556924283802903
 51
90.8746813414759913
  0
ARC
  5
1442C
  8
0
 10
124.6318346377775015
 20
-8.6392100323271972
 30
0.0
 40
0.0623328159426635
 50
319.3072771496308064
 51
10.9556924283776898
  0
ARC
  5
1442D
  8
0
 10
124.6246528316735009
 20
-8.6330342913837512
 30
0.0
 40
0.0718047806340931
 50
270.9180893778836889
 51
319.3072771496293853
  0
ARC
  5
1442E
  8
0
 10
124.6246707658172994
 20
-8.6341534229462837
 30
0.0
 40
0.0706855053829712
 50
220.260272776826497
 51
270.9180893778828931
  0
ARC
  5
1442F
  8
0
 10
124.6187837578062982
 20
-8.6391389553283489
 30
0.0
 40
0.062971077571794
 50
149.7745926208012861
 51
220.2602727768291118
  0
ARC
  5
14430
  8
0
 10
124.6259536721849059
 20
-8.6433162026946349
 30
0.0
 40
0.0712690934645025
 50
90.8178265560973443
 51
149.7745926208010872
  0
ARC
  5
14431
  8
0
 10
124.6265716586214012
 20
-8.6231895564883274
 30
0.0
 40
0.0737895492597202
 50
37.1928008475246514
 51
91.7931573421695788
  0
ARC
  5
14432
  8
0
 10
124.623922034289194
 20
-8.6252002061370376
 30
0.0
 40
0.0771156913360524
 50
3.7413049373928589
 51
37.1928008475257883
  0
ARC
  5
14433
  8
0
 10
124.6223991180902004
 20
-8.6252997912338358
 30
0.0
 40
0.0786418600490471
 50
316.5836254388212865
 51
3.7413049373924521
  0
ARC
  5
14434
  8
0
 10
124.6268943104714992
 20
-8.6254871162049511
 30
0.0
 40
0.0760964927344279
 50
91.9818434214132594
 51
148.8163511957748142
  0
ARC
  5
14435
  8
0
 10
124.6302792167467004
 20
-8.6275357682441012
 30
0.0
 40
0.0800530778364234
 50
148.8163511957731089
 51
190.741414547698696
  0
ARC
  5
14436
  8
0
 10
124.6253970760487988
 20
-8.6284619137077101
 30
0.0
 40
0.075083868320412
 50
190.7414145476992928
 51
224.2022780977185903
  0
ARC
  5
14437
  8
0
 10
124.6232192632183029
 20
-8.5915987787590922
 30
0.0
 40
0.0415584713821026
 50
245.4551835647922928
 51
298.1717037438924081
  0
CIRCLE
  5
14438
  8
0
 10
124.4922004941739004
 20
-8.9814202657936164
 30
0.0
 40
0.0241558043965635
  0
ARC
  5
14439
  8
0
 10
124.4932884884564999
 20
-8.9773634186310147
 30
0.0
 40
0.0682971401041462
 50
10.9556924283802903
 51
90.8746813414759913
  0
ARC
  5
1443A
  8
0
 10
124.4991441094999942
 20
-8.9762298998182004
 30
0.0
 40
0.0623328159426635
 50
319.3072771496308064
 51
10.9556924283776898
  0
ARC
  5
1443B
  8
0
 10
124.4919623033959937
 20
-8.9700541588747456
 30
0.0
 40
0.0718047806340931
 50
270.9180893778836889
 51
319.3072771496293853
  0
ARC
  5
1443C
  8
0
 10
124.4919802375398064
 20
-8.9711732904372852
 30
0.0
 40
0.0706855053829712
 50
220.260272776826497
 51
270.9180893778828931
  0
ARC
  5
1443D
  8
0
 10
124.4860932295288052
 20
-8.9761588228193503
 30
0.0
 40
0.062971077571794
 50
149.7745926208012861
 51
220.2602727768291118
  0
ARC
  5
1443E
  8
0
 10
124.4932631439073987
 20
-8.9803360701856363
 30
0.0
 40
0.0712690934645025
 50
90.8178265560973443
 51
149.7745926208010872
  0
ARC
  5
1443F
  8
0
 10
124.4938811303438939
 20
-8.9602094239793288
 30
0.0
 40
0.0737895492597202
 50
37.1928008475246514
 51
91.7931573421695788
  0
ARC
  5
14440
  8
0
 10
124.491231506011701
 20
-8.9622200736280391
 30
0.0
 40
0.0771156913360524
 50
3.7413049373928589
 51
37.1928008475257883
  0
ARC
  5
14441
  8
0
 10
124.4897085898126932
 20
-8.9623196587248373
 30
0.0
 40
0.0786418600490471
 50
316.5836254388212865
 51
3.7413049373924521
  0
ARC
  5
14442
  8
0
 10
124.4942037821940062
 20
-8.9625069836959597
 30
0.0
 40
0.0760964927344279
 50
91.9818434214132594
 51
148.8163511957748142
  0
ARC
  5
14443
  8
0
 10
124.4975886884691931
 20
-8.9645556357351026
 30
0.0
 40
0.0800530778364234
 50
148.8163511957731089
 51
190.741414547698696
  0
ARC
  5
14444
  8
0
 10
124.4927065477713057
 20
-8.9654817811987044
 30
0.0
 40
0.075083868320412
 50
190.7414145476992928
 51
224.2022780977185903
  0
ARC
  5
14445
  8
0
 10
124.4905287349407956
 20
-8.9286186462500936
 30
0.0
 40
0.0415584713821026
 50
245.4551835647922928
 51
298.1717037438924081
  0
CIRCLE
  5
14446
  8
0
 10
124.1890213629701947
 20
-9.0149302170547401
 30
0.0
 40
0.0241558043965635
  0
ARC
  5
14447
  8
0
 10
124.1901093572528936
 20
-9.0108733698921384
 30
0.0
 40
0.0682971401041462
 50
10.9556924283802903
 51
90.8746813414759913
  0
ARC
  5
14448
  8
0
 10
124.1959649782963027
 20
-9.0097398510793241
 30
0.0
 40
0.0623328159426635
 50
319.3072771496308064
 51
10.9556924283776898
  0
ARC
  5
14449
  8
0
 10
124.1887831721924016
 20
-9.0035641101358692
 30
0.0
 40
0.0718047806340931
 50
270.9180893778836889
 51
319.3072771496293853
  0
ARC
  5
1444A
  8
0
 10
124.1888011063361006
 20
-9.0046832416984088
 30
0.0
 40
0.0706855053829712
 50
220.260272776826497
 51
270.9180893778828931
  0
ARC
  5
1444B
  8
0
 10
124.1829140983250994
 20
-9.0096687740804722
 30
0.0
 40
0.062971077571794
 50
149.7745926208012861
 51
220.2602727768291118
  0
ARC
  5
1444C
  8
0
 10
124.1900840127036929
 20
-9.0138460214467582
 30
0.0
 40
0.0712690934645025
 50
90.8178265560973443
 51
149.7745926208010872
  0
ARC
  5
1444D
  8
0
 10
124.1907019991403018
 20
-8.9937193752404525
 30
0.0
 40
0.0737895492597202
 50
37.1928008475246514
 51
91.7931573421695788
  0
ARC
  5
1444E
  8
0
 10
124.1880523748079952
 20
-8.9957300248891627
 30
0.0
 40
0.0771156913360524
 50
3.7413049373928589
 51
37.1928008475257883
  0
ARC
  5
1444F
  8
0
 10
124.1865294586091011
 20
-8.9958296099859592
 30
0.0
 40
0.0786418600490471
 50
316.5836254388212865
 51
3.7413049373924521
  0
ARC
  5
14450
  8
0
 10
124.1910246509903004
 20
-8.9960169349570833
 30
0.0
 40
0.0760964927344279
 50
91.9818434214132594
 51
148.8163511957748142
  0
ARC
  5
14451
  8
0
 10
124.1944095572655016
 20
-8.9980655869962263
 30
0.0
 40
0.0800530778364234
 50
148.8163511957731089
 51
190.741414547698696
  0
ARC
  5
14452
  8
0
 10
124.1895274165676
 20
-8.9989917324598281
 30
0.0
 40
0.075083868320412
 50
190.7414145476992928
 51
224.2022780977185903
  0
ARC
  5
14453
  8
0
 10
124.1873496037372036
 20
-8.9621285975112173
 30
0.0
 40
0.0415584713821026
 50
245.4551835647922928
 51
298.1717037438924081
  0
CIRCLE
  5
14454
  8
0
 10
124.3243288789132066
 20
-9.3301677581677893
 30
0.0
 40
0.0241558043965635
  0
ARC
  5
14455
  8
0
 10
124.325416873195806
 20
-9.3261109110051876
 30
0.0
 40
0.0682971401041462
 50
10.9556924283802903
 51
90.8746813414759913
  0
ARC
  5
14456
  8
0
 10
124.3312724942393004
 20
-9.3249773921923733
 30
0.0
 40
0.0623328159426635
 50
319.3072771496308064
 51
10.9556924283776898
  0
ARC
  5
14457
  8
0
 10
124.3240906881352998
 20
-9.3188016512489185
 30
0.0
 40
0.0718047806340931
 50
270.9180893778836889
 51
319.3072771496293853
  0
ARC
  5
14458
  8
0
 10
124.3241086222789988
 20
-9.3199207828114581
 30
0.0
 40
0.0706855053829712
 50
220.260272776826497
 51
270.9180893778828931
  0
ARC
  5
14459
  8
0
 10
124.3182216142680971
 20
-9.3249063151935232
 30
0.0
 40
0.062971077571794
 50
149.7745926208012861
 51
220.2602727768291118
  0
ARC
  5
1445A
  8
0
 10
124.3253915286467048
 20
-9.3290835625598092
 30
0.0
 40
0.0712690934645025
 50
90.8178265560973443
 51
149.7745926208010872
  0
ARC
  5
1445B
  8
0
 10
124.3260095150832001
 20
-9.3089569163535018
 30
0.0
 40
0.0737895492597202
 50
37.1928008475246514
 51
91.7931573421695788
  0
ARC
  5
1445C
  8
0
 10
124.3233598907509929
 20
-9.3109675660022102
 30
0.0
 40
0.0771156913360524
 50
3.7413049373928589
 51
37.1928008475257883
  0
ARC
  5
1445D
  8
0
 10
124.3218369745519993
 20
-9.3110671510990102
 30
0.0
 40
0.0786418600490471
 50
316.5836254388212865
 51
3.7413049373924521
  0
ARC
  5
1445E
  8
0
 10
124.3263321669332981
 20
-9.3112544760701326
 30
0.0
 40
0.0760964927344279
 50
91.9818434214132594
 51
148.8163511957748142
  0
ARC
  5
1445F
  8
0
 10
124.3297170732084993
 20
-9.3133031281092755
 30
0.0
 40
0.0800530778364234
 50
148.8163511957731089
 51
190.741414547698696
  0
ARC
  5
14460
  8
0
 10
124.3248349325105977
 20
-9.3142292735728773
 30
0.0
 40
0.075083868320412
 50
190.7414145476992928
 51
224.2022780977185903
  0
ARC
  5
14461
  8
0
 10
124.3226571196801018
 20
-9.2773661386242665
 30
0.0
 40
0.0415584713821026
 50
245.4551835647922928
 51
298.1717037438924081
  0
CIRCLE
  5
14462
  8
0
 10
124.6154388868881
 20
-9.3427519139495612
 30
0.0
 40
0.0241558043965635
  0
ARC
  5
14463
  8
0
 10
124.6165268811707989
 20
-9.3386950667869542
 30
0.0
 40
0.0682971401041462
 50
10.9556924283802903
 51
90.8746813414759913
  0
ARC
  5
14464
  8
0
 10
124.6223825022141938
 20
-9.3375615479741452
 30
0.0
 40
0.0623328159426635
 50
319.3072771496308064
 51
10.9556924283776898
  0
ARC
  5
14465
  8
0
 10
124.6152006961101932
 20
-9.3313858070306921
 30
0.0
 40
0.0718047806340931
 50
270.9180893778836889
 51
319.3072771496293853
  0
ARC
  5
14466
  8
0
 10
124.6152186302540059
 20
-9.3325049385932317
 30
0.0
 40
0.0706855053829712
 50
220.260272776826497
 51
270.9180893778828931
  0
ARC
  5
14467
  8
0
 10
124.6093316222430047
 20
-9.3374904709752968
 30
0.0
 40
0.062971077571794
 50
149.7745926208012861
 51
220.2602727768291118
  0
ARC
  5
14468
  8
0
 10
124.6165015366215982
 20
-9.3416677183415828
 30
0.0
 40
0.0712690934645025
 50
90.8178265560973443
 51
149.7745926208010872
  0
ARC
  5
14469
  8
0
 10
124.617119523058193
 20
-9.3215410721352754
 30
0.0
 40
0.0737895492597202
 50
37.1928008475246514
 51
91.7931573421695788
  0
ARC
  5
1446A
  8
0
 10
124.6144698987259005
 20
-9.3235517217839856
 30
0.0
 40
0.0771156913360524
 50
3.7413049373928589
 51
37.1928008475257883
  0
ARC
  5
1446B
  8
0
 10
124.6129469825270064
 20
-9.3236513068807767
 30
0.0
 40
0.0786418600490471
 50
316.5836254388212865
 51
3.7413049373924521
  0
ARC
  5
1446C
  8
0
 10
124.6174421749082057
 20
-9.3238386318518991
 30
0.0
 40
0.0760964927344279
 50
91.9818434214132594
 51
148.8163511957748142
  0
ARC
  5
1446D
  8
0
 10
124.6208270811834069
 20
-9.3258872838910492
 30
0.0
 40
0.0800530778364234
 50
148.8163511957731089
 51
190.741414547698696
  0
ARC
  5
1446E
  8
0
 10
124.6159449404855053
 20
-9.3268134293546492
 30
0.0
 40
0.075083868320412
 50
190.7414145476992928
 51
224.2022780977185903
  0
ARC
  5
1446F
  8
0
 10
124.6137671276549952
 20
-9.2899502944060401
 30
0.0
 40
0.0415584713821026
 50
245.4551835647922928
 51
298.1717037438924081
  0
CIRCLE
  5
14470
  8
0
 10
124.826921318754998
 20
-9.0670706273324129
 30
0.0
 40
0.0241558043965635
  0
ARC
  5
14471
  8
0
 10
124.8280093130376969
 20
-9.0630137801698112
 30
0.0
 40
0.0682971401041462
 50
10.9556924283802903
 51
90.8746813414759913
  0
ARC
  5
14472
  8
0
 10
124.833864934081106
 20
-9.0618802613569969
 30
0.0
 40
0.0623328159426635
 50
319.3072771496308064
 51
10.9556924283776898
  0
ARC
  5
14473
  8
0
 10
124.8266831279771054
 20
-9.055704520413542
 30
0.0
 40
0.0718047806340931
 50
270.9180893778836889
 51
319.3072771496293853
  0
ARC
  5
14474
  8
0
 10
124.8267010621209039
 20
-9.0568236519760816
 30
0.0
 40
0.0706855053829712
 50
220.260272776826497
 51
270.9180893778828931
  0
ARC
  5
14475
  8
0
 10
124.8208140541099027
 20
-9.0618091843581468
 30
0.0
 40
0.062971077571794
 50
149.7745926208012861
 51
220.2602727768291118
  0
ARC
  5
14476
  8
0
 10
124.8279839684884962
 20
-9.0659864317244327
 30
0.0
 40
0.0712690934645025
 50
90.8178265560973443
 51
149.7745926208010872
  0
ARC
  5
14477
  8
0
 10
124.8286019549250057
 20
-9.0458597855181253
 30
0.0
 40
0.0737895492597202
 50
37.1928008475246514
 51
91.7931573421695788
  0
ARC
  5
14478
  8
0
 10
124.8259523305927985
 20
-9.0478704351668355
 30
0.0
 40
0.0771156913360524
 50
3.7413049373928589
 51
37.1928008475257883
  0
ARC
  5
14479
  8
0
 10
124.8244294143938049
 20
-9.0479700202636337
 30
0.0
 40
0.0786418600490471
 50
316.5836254388212865
 51
3.7413049373924521
  0
ARC
  5
1447A
  8
0
 10
124.8289246067751037
 20
-9.0481573452347561
 30
0.0
 40
0.0760964927344279
 50
91.9818434214132594
 51
148.8163511957748142
  0
ARC
  5
1447B
  8
0
 10
124.8323095130503049
 20
-9.0502059972738991
 30
0.0
 40
0.0800530778364234
 50
148.8163511957731089
 51
190.741414547698696
  0
ARC
  5
1447C
  8
0
 10
124.8274273723524033
 20
-9.0511321427375009
 30
0.0
 40
0.075083868320412
 50
190.7414145476992928
 51
224.2022780977185903
  0
ARC
  5
1447D
  8
0
 10
124.8252495595218932
 20
-9.0142690077888901
 30
0.0
 40
0.0415584713821026
 50
245.4551835647922928
 51
298.1717037438924081
  0
CIRCLE
  5
1447E
  8
0
 10
124.9181190292736972
 20
-9.5135799134654349
 30
0.0
 40
0.0241558043965635
  0
ARC
  5
1447F
  8
0
 10
124.9192070235563961
 20
-9.5095230663028332
 30
0.0
 40
0.0682971401041462
 50
10.9556924283802903
 51
90.8746813414759913
  0
ARC
  5
14480
  8
0
 10
124.9250626445998051
 20
-9.5083895474900189
 30
0.0
 40
0.0623328159426635
 50
319.3072771496308064
 51
10.9556924283776898
  0
ARC
  5
14481
  8
0
 10
124.9178808384958046
 20
-9.502213806546564
 30
0.0
 40
0.0718047806340931
 50
270.9180893778836889
 51
319.3072771496293853
  0
ARC
  5
14482
  8
0
 10
124.9178987726396031
 20
-9.5033329381091036
 30
0.0
 40
0.0706855053829712
 50
220.260272776826497
 51
270.9180893778828931
  0
ARC
  5
14483
  8
0
 10
124.9120117646286019
 20
-9.5083184704911687
 30
0.0
 40
0.062971077571794
 50
149.7745926208012861
 51
220.2602727768291118
  0
ARC
  5
14484
  8
0
 10
124.9191816790071954
 20
-9.5124957178574547
 30
0.0
 40
0.0712690934645025
 50
90.8178265560973443
 51
149.7745926208010872
  0
ARC
  5
14485
  8
0
 10
124.9197996654437048
 20
-9.4923690716511473
 30
0.0
 40
0.0737895492597202
 50
37.1928008475246514
 51
91.7931573421695788
  0
ARC
  5
14486
  8
0
 10
124.9171500411114977
 20
-9.4943797212998575
 30
0.0
 40
0.0771156913360524
 50
3.7413049373928589
 51
37.1928008475257883
  0
ARC
  5
14487
  8
0
 10
124.9156271249125041
 20
-9.4944793063966557
 30
0.0
 40
0.0786418600490471
 50
316.5836254388212865
 51
3.7413049373924521
  0
ARC
  5
14488
  8
0
 10
124.9201223172938029
 20
-9.4946666313677781
 30
0.0
 40
0.0760964927344279
 50
91.9818434214132594
 51
148.8163511957748142
  0
ARC
  5
14489
  8
0
 10
124.9235072235690041
 20
-9.4967152834069211
 30
0.0
 40
0.0800530778364234
 50
148.8163511957731089
 51
190.741414547698696
  0
ARC
  5
1448A
  8
0
 10
124.9186250828711024
 20
-9.4976414288705229
 30
0.0
 40
0.075083868320412
 50
190.7414145476992928
 51
224.2022780977185903
  0
ARC
  5
1448B
  8
0
 10
124.9164472700406066
 20
-9.4607782939219121
 30
0.0
 40
0.0415584713821026
 50
245.4551835647922928
 51
298.1717037438924081
  0
CIRCLE
  5
1448C
  8
0
 10
124.6421855242635957
 20
-9.7428486704085344
 30
0.0
 40
0.0241558043965635
  0
ARC
  5
1448D
  8
0
 10
124.6432735185462946
 20
-9.7387918232459327
 30
0.0
 40
0.0682971401041462
 50
10.9556924283802903
 51
90.8746813414759913
  0
ARC
  5
1448E
  8
0
 10
124.6491291395897036
 20
-9.7376583044331184
 30
0.0
 40
0.0623328159426635
 50
319.3072771496308064
 51
10.9556924283776898
  0
ARC
  5
1448F
  8
0
 10
124.6419473334857031
 20
-9.7314825634896636
 30
0.0
 40
0.0718047806340931
 50
270.9180893778836889
 51
319.3072771496293853
  0
ARC
  5
14490
  8
0
 10
124.6419652676295016
 20
-9.7326016950522032
 30
0.0
 40
0.0706855053829712
 50
220.260272776826497
 51
270.9180893778828931
  0
ARC
  5
14491
  8
0
 10
124.6360782596185004
 20
-9.7375872274342683
 30
0.0
 40
0.062971077571794
 50
149.7745926208012861
 51
220.2602727768291118
  0
ARC
  5
14492
  8
0
 10
124.6432481739970939
 20
-9.7417644748005543
 30
0.0
 40
0.0712690934645025
 50
90.8178265560973443
 51
149.7745926208010872
  0
ARC
  5
14493
  8
0
 10
124.6438661604337028
 20
-9.7216378285942469
 30
0.0
 40
0.0737895492597202
 50
37.1928008475246514
 51
91.7931573421695788
  0
ARC
  5
14494
  8
0
 10
124.6412165361013962
 20
-9.7236484782429571
 30
0.0
 40
0.0771156913360524
 50
3.7413049373928589
 51
37.1928008475257883
  0
ARC
  5
14495
  8
0
 10
124.6396936199025021
 20
-9.7237480633397553
 30
0.0
 40
0.0786418600490471
 50
316.5836254388212865
 51
3.7413049373924521
  0
ARC
  5
14496
  8
0
 10
124.6441888122837014
 20
-9.7239353883108777
 30
0.0
 40
0.0760964927344279
 50
91.9818434214132594
 51
148.8163511957748142
  0
ARC
  5
14497
  8
0
 10
124.6475737185589026
 20
-9.7259840403500206
 30
0.0
 40
0.0800530778364234
 50
148.8163511957731089
 51
190.741414547698696
  0
ARC
  5
14498
  8
0
 10
124.642691577861001
 20
-9.7269101858136224
 30
0.0
 40
0.075083868320412
 50
190.7414145476992928
 51
224.2022780977185903
  0
ARC
  5
14499
  8
0
 10
124.6405137650305051
 20
-9.6900470508650116
 30
0.0
 40
0.0415584713821026
 50
245.4551835647922928
 51
298.1717037438924081
  0
CIRCLE
  5
1449A
  8
0
 10
124.3669563796835007
 20
-9.6609383352619886
 30
0.0
 40
0.0241558043965635
  0
ARC
  5
1449B
  8
0
 10
124.3680443739661001
 20
-9.6568814880993852
 30
0.0
 40
0.0682971401041462
 50
10.9556924283802903
 51
90.8746813414759913
  0
ARC
  5
1449C
  8
0
 10
124.373899995009495
 20
-9.6557479692865726
 30
0.0
 40
0.0623328159426635
 50
319.3072771496308064
 51
10.9556924283776898
  0
ARC
  5
1449D
  8
0
 10
124.3667181889055939
 20
-9.6495722283431178
 30
0.0
 40
0.0718047806340931
 50
270.9180893778836889
 51
319.3072771496293853
  0
ARC
  5
1449E
  8
0
 10
124.3667361230492929
 20
-9.6506913599056574
 30
0.0
 40
0.0706855053829712
 50
220.260272776826497
 51
270.9180893778828931
  0
ARC
  5
1449F
  8
0
 10
124.360849115038306
 20
-9.6556768922877225
 30
0.0
 40
0.062971077571794
 50
149.7745926208012861
 51
220.2602727768291118
  0
ARC
  5
144A0
  8
0
 10
124.3680190294168995
 20
-9.6598541396540085
 30
0.0
 40
0.0712690934645025
 50
90.8178265560973443
 51
149.7745926208010872
  0
ARC
  5
144A1
  8
0
 10
124.3686370158534942
 20
-9.6397274934477011
 30
0.0
 40
0.0737895492597202
 50
37.1928008475246514
 51
91.7931573421695788
  0
ARC
  5
144A2
  8
0
 10
124.3659873915212017
 20
-9.6417381430964113
 30
0.0
 40
0.0771156913360524
 50
3.7413049373928589
 51
37.1928008475257883
  0
ARC
  5
144A3
  8
0
 10
124.3644644753222934
 20
-9.6418377281932095
 30
0.0
 40
0.0786418600490471
 50
316.5836254388212865
 51
3.7413049373924521
  0
ARC
  5
144A4
  8
0
 10
124.368959667703507
 20
-9.6420250531643301
 30
0.0
 40
0.0760964927344279
 50
91.9818434214132594
 51
148.8163511957748142
  0
ARC
  5
144A5
  8
0
 10
124.3723445739786939
 20
-9.6440737052034748
 30
0.0
 40
0.0800530778364234
 50
148.8163511957731089
 51
190.741414547698696
  0
ARC
  5
144A6
  8
0
 10
124.3674624332808065
 20
-9.6449998506670767
 30
0.0
 40
0.075083868320412
 50
190.7414145476992928
 51
224.2022780977185903
  0
ARC
  5
144A7
  8
0
 10
124.3652846204503959
 20
-9.6081367157184658
 30
0.0
 40
0.0415584713821026
 50
245.4551835647922928
 51
298.1717037438924081
  0
CIRCLE
  5
144A8
  8
0
 10
124.3265184055890984
 20
-9.9842488689504592
 30
0.0
 40
0.0241558043965635
  0
ARC
  5
144A9
  8
0
 10
124.3276063998716978
 20
-9.9801920217878575
 30
0.0
 40
0.0682971401041462
 50
10.9556924283802903
 51
90.8746813414759913
  0
ARC
  5
144AA
  8
0
 10
124.3334620209151069
 20
-9.9790585029750432
 30
0.0
 40
0.0623328159426635
 50
319.3072771496308064
 51
10.9556924283776898
  0
ARC
  5
144AB
  8
0
 10
124.3262802148112058
 20
-9.9728827620315883
 30
0.0
 40
0.0718047806340931
 50
270.9180893778836889
 51
319.3072771496293853
  0
ARC
  5
144AC
  8
0
 10
124.3262981489549048
 20
-9.9740018935941261
 30
0.0
 40
0.0706855053829712
 50
220.260272776826497
 51
270.9180893778828931
  0
ARC
  5
144AD
  8
0
 10
124.3204111409439037
 20
-9.978987425976193
 30
0.0
 40
0.062971077571794
 50
149.7745926208012861
 51
220.2602727768291118
  0
ARC
  5
144AE
  8
0
 10
124.3275810553225966
 20
-9.983164673342479
 30
0.0
 40
0.0712690934645025
 50
90.8178265560973443
 51
149.7745926208010872
  0
ARC
  5
144AF
  8
0
 10
124.3281990417591061
 20
-9.9630380271361716
 30
0.0
 40
0.0737895492597202
 50
37.1928008475246514
 51
91.7931573421695788
  0
ARC
  5
144B0
  8
0
 10
124.3255494174267994
 20
-9.9650486767848818
 30
0.0
 40
0.0771156913360524
 50
3.7413049373928589
 51
37.1928008475257883
  0
ARC
  5
144B1
  8
0
 10
124.3240265012279053
 20
-9.96514826188168
 30
0.0
 40
0.0786418600490471
 50
316.5836254388212865
 51
3.7413049373924521
  0
ARC
  5
144B2
  8
0
 10
124.3285216936091047
 20
-9.9653355868528024
 30
0.0
 40
0.0760964927344279
 50
91.9818434214132594
 51
148.8163511957748142
  0
ARC
  5
144B3
  8
0
 10
124.3319065998843058
 20
-9.9673842388919454
 30
0.0
 40
0.0800530778364234
 50
148.8163511957731089
 51
190.741414547698696
  0
ARC
  5
144B4
  8
0
 10
124.3270244591864042
 20
-9.9683103843555472
 30
0.0
 40
0.075083868320412
 50
190.7414145476992928
 51
224.2022780977185903
  0
ARC
  5
144B5
  8
0
 10
124.3248466463559936
 20
-9.9314472494069364
 30
0.0
 40
0.0415584713821026
 50
245.4551835647922928
 51
298.1717037438924081
  0
CIRCLE
  5
144B6
  8
0
 10
124.5666542123258012
 20
-10.12656435150015
 30
0.0
 40
0.0241558043965635
  0
ARC
  5
144B7
  8
0
 10
124.5677422066085001
 20
-10.1225075043375501
 30
0.0
 40
0.0682971401041462
 50
10.9556924283802903
 51
90.8746813414759913
  0
ARC
  5
144B8
  8
0
 10
124.5735978276518949
 20
-10.1213739855247304
 30
0.0
 40
0.0623328159426635
 50
319.3072771496308064
 51
10.9556924283776898
  0
ARC
  5
144B9
  8
0
 10
124.5664160215478944
 20
-10.1151982445812791
 30
0.0
 40
0.0718047806340931
 50
270.9180893778836889
 51
319.3072771496293853
  0
ARC
  5
144BA
  8
0
 10
124.5664339556917071
 20
-10.1163173761438205
 30
0.0
 40
0.0706855053829712
 50
220.260272776826497
 51
270.9180893778828931
  0
ARC
  5
144BB
  8
0
 10
124.5605469476807059
 20
-10.1213029085258803
 30
0.0
 40
0.062971077571794
 50
149.7745926208012861
 51
220.2602727768291118
  0
ARC
  5
144BC
  8
0
 10
124.5677168620592994
 20
-10.1254801558921699
 30
0.0
 40
0.0712690934645025
 50
90.8178265560973443
 51
149.7745926208010872
  0
ARC
  5
144BD
  8
0
 10
124.5683348484957946
 20
-10.1053535096858607
 30
0.0
 40
0.0737895492597202
 50
37.1928008475246514
 51
91.7931573421695788
  0
ARC
  5
144BE
  8
0
 10
124.5656852241636017
 20
-10.1073641593345709
 30
0.0
 40
0.0771156913360524
 50
3.7413049373928589
 51
37.1928008475257883
  0
ARC
  5
144BF
  8
0
 10
124.5641623079645939
 20
-10.1074637444313709
 30
0.0
 40
0.0786418600490471
 50
316.5836254388212865
 51
3.7413049373924521
  0
ARC
  5
144C0
  8
0
 10
124.5686575003459069
 20
-10.1076510694024897
 30
0.0
 40
0.0760964927344279
 50
91.9818434214132594
 51
148.8163511957748142
  0
ARC
  5
144C1
  8
0
 10
124.5720424066210938
 20
-10.1096997214416309
 30
0.0
 40
0.0800530778364234
 50
148.8163511957731089
 51
190.741414547698696
  0
ARC
  5
144C2
  8
0
 10
124.5671602659232065
 20
-10.1106258669052398
 30
0.0
 40
0.075083868320412
 50
190.7414145476992928
 51
224.2022780977185903
  0
ARC
  5
144C3
  8
0
 10
124.5649824530926963
 20
-10.0737627319566307
 30
0.0
 40
0.0415584713821026
 50
245.4551835647922928
 51
298.1717037438924081
  0
CIRCLE
  5
144C4
  8
0
 10
124.8908398505596011
 20
-9.9730443876529602
 30
0.0
 40
0.0241558043965635
  0
ARC
  5
144C5
  8
0
 10
124.8919278448422006
 20
-9.9689875404903461
 30
0.0
 40
0.0682971401041462
 50
10.9556924283802903
 51
90.8746813414759913
  0
ARC
  5
144C6
  8
0
 10
124.8977834658856949
 20
-9.9678540216775389
 30
0.0
 40
0.0623328159426635
 50
319.3072771496308064
 51
10.9556924283776898
  0
ARC
  5
144C7
  8
0
 10
124.8906016597816944
 20
-9.9616782807340911
 30
0.0
 40
0.0718047806340931
 50
270.9180893778836889
 51
319.3072771496293853
  0
ARC
  5
144C8
  8
0
 10
124.8906195939253934
 20
-9.9627974122966236
 30
0.0
 40
0.0706855053829712
 50
220.260272776826497
 51
270.9180893778828931
  0
ARC
  5
144C9
  8
0
 10
124.8847325859145059
 20
-9.9677829446786888
 30
0.0
 40
0.062971077571794
 50
149.7745926208012861
 51
220.2602727768291118
  0
ARC
  5
144CA
  8
0
 10
124.8919025002930994
 20
-9.9719601920449747
 30
0.0
 40
0.0712690934645025
 50
90.8178265560973443
 51
149.7745926208010872
  0
ARC
  5
144CB
  8
0
 10
124.8925204867295946
 20
-9.9518335458386673
 30
0.0
 40
0.0737895492597202
 50
37.1928008475246514
 51
91.7931573421695788
  0
ARC
  5
144CC
  8
0
 10
124.8898708623974017
 20
-9.9538441954873775
 30
0.0
 40
0.0771156913360524
 50
3.7413049373928589
 51
37.1928008475257883
  0
ARC
  5
144CD
  8
0
 10
124.8883479461983939
 20
-9.9539437805841757
 30
0.0
 40
0.0786418600490471
 50
316.5836254388212865
 51
3.7413049373924521
  0
ARC
  5
144CE
  8
0
 10
124.8928431385797069
 20
-9.954131105555291
 30
0.0
 40
0.0760964927344279
 50
91.9818434214132594
 51
148.8163511957748142
  0
ARC
  5
144CF
  8
0
 10
124.8962280448547943
 20
-9.9561797575944411
 30
0.0
 40
0.0800530778364234
 50
148.8163511957731089
 51
190.741414547698696
  0
ARC
  5
144D0
  8
0
 10
124.891345904156907
 20
-9.9571059030580482
 30
0.0
 40
0.075083868320412
 50
190.7414145476992928
 51
224.2022780977185903
  0
ARC
  5
144D1
  8
0
 10
124.8891680913264963
 20
-9.9202427681094321
 30
0.0
 40
0.0415584713821026
 50
245.4551835647922928
 51
298.1717037438924081
  0
CIRCLE
  5
144D2
  8
0
 10
124.1914455401897044
 20
-10.3012001629675201
 30
0.0
 40
0.0241558043965635
  0
ARC
  5
144D3
  8
0
 10
124.1925335344724033
 20
-10.2971433158049095
 30
0.0
 40
0.0682971401041462
 50
10.9556924283802903
 51
90.8746813414759913
  0
ARC
  5
144D4
  8
0
 10
124.1983891555157982
 20
-10.2960097969921005
 30
0.0
 40
0.0623328159426635
 50
319.3072771496308064
 51
10.9556924283776898
  0
ARC
  5
144D5
  8
0
 10
124.1912073494118971
 20
-10.2898340560486492
 30
0.0
 40
0.0718047806340931
 50
270.9180893778836889
 51
319.3072771496293853
  0
ARC
  5
144D6
  8
0
 10
124.1912252835555961
 20
-10.2909531876111799
 30
0.0
 40
0.0706855053829712
 50
220.260272776826497
 51
270.9180893778828931
  0
ARC
  5
144D7
  8
0
 10
124.1853382755445949
 20
-10.2959387199932504
 30
0.0
 40
0.062971077571794
 50
149.7745926208012861
 51
220.2602727768291118
  0
ARC
  5
144D8
  8
0
 10
124.1925081899232026
 20
-10.3001159673595293
 30
0.0
 40
0.0712690934645025
 50
90.8178265560973443
 51
149.7745926208010872
  0
ARC
  5
144D9
  8
0
 10
124.1931261763597973
 20
-10.2799893211532307
 30
0.0
 40
0.0737895492597202
 50
37.1928008475246514
 51
91.7931573421695788
  0
ARC
  5
144DA
  8
0
 10
124.1904765520275049
 20
-10.2819999708019392
 30
0.0
 40
0.0771156913360524
 50
3.7413049373928589
 51
37.1928008475257883
  0
ARC
  5
144DB
  8
0
 10
124.1889536358285966
 20
-10.2820995558987391
 30
0.0
 40
0.0786418600490471
 50
316.5836254388212865
 51
3.7413049373924521
  0
ARC
  5
144DC
  8
0
 10
124.1934488282097959
 20
-10.2822868808698598
 30
0.0
 40
0.0760964927344279
 50
91.9818434214132594
 51
148.8163511957748142
  0
ARC
  5
144DD
  8
0
 10
124.1968337344849971
 20
-10.2843355329089992
 30
0.0
 40
0.0800530778364234
 50
148.8163511957731089
 51
190.741414547698696
  0
ARC
  5
144DE
  8
0
 10
124.1919515937870955
 20
-10.2852616783725992
 30
0.0
 40
0.075083868320412
 50
190.7414145476992928
 51
224.2022780977185903
  0
ARC
  5
144DF
  8
0
 10
124.1897737809566991
 20
-10.2483985434239901
 30
0.0
 40
0.0415584713821026
 50
245.4551835647922928
 51
298.1717037438924081
  0
CIRCLE
  5
144E0
  8
0
 10
123.3740260633235977
 20
-10.9016367052117893
 30
0.0
 40
0.0241558043965635
  0
ARC
  5
144E1
  8
0
 10
123.3751140576062966
 20
-10.8975798580491805
 30
0.0
 40
0.0682971401041462
 50
10.9556924283802903
 51
90.8746813414759913
  0
ARC
  5
144E2
  8
0
 10
123.3809696786497057
 20
-10.8964463392363697
 30
0.0
 40
0.0623328159426635
 50
319.3072771496308064
 51
10.9556924283776898
  0
ARC
  5
144E3
  8
0
 10
123.3737878725457051
 20
-10.8902705982929202
 30
0.0
 40
0.0718047806340931
 50
270.9180893778836889
 51
319.3072771496293853
  0
ARC
  5
144E4
  8
0
 10
123.3738058066895036
 20
-10.8913897298554492
 30
0.0
 40
0.0706855053829712
 50
220.260272776826497
 51
270.9180893778828931
  0
ARC
  5
144E5
  8
0
 10
123.3679187986785024
 20
-10.8963752622375196
 30
0.0
 40
0.062971077571794
 50
149.7745926208012861
 51
220.2602727768291118
  0
ARC
  5
144E6
  8
0
 10
123.3750887130570959
 20
-10.9005525096038003
 30
0.0
 40
0.0712690934645025
 50
90.8178265560973443
 51
149.7745926208010872
  0
ARC
  5
144E7
  8
0
 10
123.3757066994936054
 20
-10.8804258633975
 30
0.0
 40
0.0737895492597202
 50
37.1928008475246514
 51
91.7931573421695788
  0
ARC
  5
144E8
  8
0
 10
123.3730570751613982
 20
-10.8824365130462102
 30
0.0
 40
0.0771156913360524
 50
3.7413049373928589
 51
37.1928008475257883
  0
ARC
  5
144E9
  8
0
 10
123.3715341589624046
 20
-10.8825360981429995
 30
0.0
 40
0.0786418600490471
 50
316.5836254388212865
 51
3.7413049373924521
  0
ARC
  5
144EA
  8
0
 10
123.3760293513437034
 20
-10.8827234231141201
 30
0.0
 40
0.0760964927344279
 50
91.9818434214132594
 51
148.8163511957748142
  0
ARC
  5
144EB
  8
0
 10
123.3794142576189046
 20
-10.8847720751532702
 30
0.0
 40
0.0800530778364234
 50
148.8163511957731089
 51
190.741414547698696
  0
ARC
  5
144EC
  8
0
 10
123.374532116921003
 20
-10.8856982206168702
 30
0.0
 40
0.075083868320412
 50
190.7414145476992928
 51
224.2022780977185903
  0
ARC
  5
144ED
  8
0
 10
123.3723543040905071
 20
-10.8488350856682594
 30
0.0
 40
0.0415584713821026
 50
245.4551835647922928
 51
298.1717037438924081
  0
CIRCLE
  5
144EE
  8
0
 10
123.4202929376068028
 20
-11.1364413015995396
 30
0.0
 40
0.0241558043965635
  0
ARC
  5
144EF
  8
0
 10
123.4213809318895017
 20
-11.1323844544369308
 30
0.0
 40
0.0682971401041462
 50
10.9556924283802903
 51
90.8746813414759913
  0
ARC
  5
144F0
  8
0
 10
123.4272365529328965
 20
-11.13125093562412
 30
0.0
 40
0.0623328159426635
 50
319.3072771496308064
 51
10.9556924283776898
  0
ARC
  5
144F1
  8
0
 10
123.420054746828896
 20
-11.1250751946806705
 30
0.0
 40
0.0718047806340931
 50
270.9180893778836889
 51
319.3072771496293853
  0
ARC
  5
144F2
  8
0
 10
123.4200726809726945
 20
-11.1261943262431995
 30
0.0
 40
0.0706855053829712
 50
220.260272776826497
 51
270.9180893778828931
  0
ARC
  5
144F3
  8
0
 10
123.4141856729616933
 20
-11.1311798586252699
 30
0.0
 40
0.062971077571794
 50
149.7745926208012861
 51
220.2602727768291118
  0
ARC
  5
144F4
  8
0
 10
123.421355587340301
 20
-11.1353571059915506
 30
0.0
 40
0.0712690934645025
 50
90.8178265560973443
 51
149.7745926208010872
  0
ARC
  5
144F5
  8
0
 10
123.4219735737768957
 20
-11.1152304597852503
 30
0.0
 40
0.0737895492597202
 50
37.1928008475246514
 51
91.7931573421695788
  0
ARC
  5
144F6
  8
0
 10
123.4193239494446033
 20
-11.1172411094339605
 30
0.0
 40
0.0771156913360524
 50
3.7413049373928589
 51
37.1928008475257883
  0
ARC
  5
144F7
  8
0
 10
123.4178010332455955
 20
-11.1173406945307498
 30
0.0
 40
0.0786418600490471
 50
316.5836254388212865
 51
3.7413049373924521
  0
ARC
  5
144F8
  8
0
 10
123.4222962256268943
 20
-11.1175280195018704
 30
0.0
 40
0.0760964927344279
 50
91.9818434214132594
 51
148.8163511957748142
  0
ARC
  5
144F9
  8
0
 10
123.4256811319020954
 20
-11.1195766715410205
 30
0.0
 40
0.0800530778364234
 50
148.8163511957731089
 51
190.741414547698696
  0
ARC
  5
144FA
  8
0
 10
123.4207989912041938
 20
-11.1205028170046205
 30
0.0
 40
0.075083868320412
 50
190.7414145476992928
 51
224.2022780977185903
  0
ARC
  5
144FB
  8
0
 10
123.4186211783736979
 20
-11.0836396820560097
 30
0.0
 40
0.0415584713821026
 50
245.4551835647922928
 51
298.1717037438924081
  0
CIRCLE
  5
144FC
  8
0
 10
123.2518263496802007
 20
-11.4237557636990203
 30
0.0
 40
0.0241558043965635
  0
ARC
  5
144FD
  8
0
 10
123.2529143439628996
 20
-11.4196989165364098
 30
0.0
 40
0.0682971401041462
 50
10.9556924283802903
 51
90.8746813414759913
  0
ARC
  5
144FE
  8
0
 10
123.2587699650062945
 20
-11.4185653977236008
 30
0.0
 40
0.0623328159426635
 50
319.3072771496308064
 51
10.9556924283776898
  0
ARC
  5
144FF
  8
0
 10
123.2515881589022939
 20
-11.4123896567801495
 30
0.0
 40
0.0718047806340931
 50
270.9180893778836889
 51
319.3072771496297833
  0
ARC
  5
14500
  8
0
 10
123.2516060930459929
 20
-11.4135087883426891
 30
0.0
 40
0.0706855053829712
 50
220.260272776826497
 51
270.9180893778828931
  0
ARC
  5
14501
  8
0
 10
123.2457190850351054
 20
-11.4184943207247507
 30
0.0
 40
0.062971077571794
 50
149.7745926208012861
 51
220.2602727768291118
  0
ARC
  5
14502
  8
0
 10
123.2528889994136989
 20
-11.4226715680910402
 30
0.0
 40
0.0712690934645025
 50
90.8178265560973443
 51
149.7745926208010872
  0
ARC
  5
14503
  8
0
 10
123.2535069858501942
 20
-11.4025449218847292
 30
0.0
 40
0.0737895492597202
 50
37.1928008475246514
 51
91.7931573421695788
  0
ARC
  5
14504
  8
0
 10
123.2508573615180012
 20
-11.4045555715334395
 30
0.0
 40
0.0771156913360524
 50
3.7413049373928589
 51
37.1928008475257883
  0
ARC
  5
14505
  8
0
 10
123.2493344453189934
 20
-11.4046551566302394
 30
0.0
 40
0.0786418600490471
 50
316.5836254388212865
 51
3.7413049373924521
  0
ARC
  5
14506
  8
0
 10
123.2538296377003064
 20
-11.40484248160136
 30
0.0
 40
0.0760964927344279
 50
91.9818434214132594
 51
148.8163511957748142
  0
ARC
  5
14507
  8
0
 10
123.2572145439754934
 20
-11.4068911336404994
 30
0.0
 40
0.0800530778364234
 50
148.8163511957731089
 51
190.741414547698696
  0
ARC
  5
14508
  8
0
 10
123.252332403277606
 20
-11.4078172791041101
 30
0.0
 40
0.075083868320412
 50
190.7414145476992928
 51
224.2022780977185903
  0
ARC
  5
14509
  8
0
 10
123.2501545904470959
 20
-11.3709541441554993
 30
0.0
 40
0.0415584713821026
 50
245.4551835647922928
 51
298.1717037438924081
  0
CIRCLE
  5
1450A
  8
0
 10
123.7298875119740984
 20
-11.3209388504280692
 30
0.0
 40
0.0241558043965635
  0
ARC
  5
1450B
  8
0
 10
123.7309755062567973
 20
-11.3168820032654605
 30
0.0
 40
0.0682971401041462
 50
10.9556924283802903
 51
90.8746813414759913
  0
ARC
  5
1450C
  8
0
 10
123.7368311273002064
 20
-11.3157484844526497
 30
0.0
 40
0.0623328159426635
 50
319.3072771496308064
 51
10.9556924283776898
  0
ARC
  5
1450D
  8
0
 10
123.7296493211962058
 20
-11.3095727435091895
 30
0.0
 40
0.0718047806340931
 50
270.9180893778836889
 51
319.3072771496297833
  0
ARC
  5
1450E
  8
0
 10
123.7296672553400043
 20
-11.3106918750717291
 30
0.0
 40
0.0706855053829712
 50
220.260272776826497
 51
270.9180893778828931
  0
ARC
  5
1450F
  8
0
 10
123.7237802473290031
 20
-11.3156774074537996
 30
0.0
 40
0.062971077571794
 50
149.7745926208012861
 51
220.2602727768291118
  0
ARC
  5
14510
  8
0
 10
123.7309501617075966
 20
-11.3198546548200802
 30
0.0
 40
0.0712690934645025
 50
90.8178265560973443
 51
149.7745926208010872
  0
ARC
  5
14511
  8
0
 10
123.7315681481442056
 20
-11.2997280086137692
 30
0.0
 40
0.0737895492597202
 50
37.1928008475246514
 51
91.7931573421695788
  0
ARC
  5
14512
  8
0
 10
123.7289185238118989
 20
-11.3017386582624901
 30
0.0
 40
0.0771156913360524
 50
3.7413049373928589
 51
37.1928008475257883
  0
ARC
  5
14513
  8
0
 10
123.7273956076130048
 20
-11.3018382433592794
 30
0.0
 40
0.0786418600490471
 50
316.5836254388212865
 51
3.7413049373924521
  0
ARC
  5
14514
  8
0
 10
123.7318907999942041
 20
-11.3020255683304001
 30
0.0
 40
0.0760964927344279
 50
91.9818434214132594
 51
148.8163511957748142
  0
ARC
  5
14515
  8
0
 10
123.7352757062694053
 20
-11.3040742203695501
 30
0.0
 40
0.0800530778364234
 50
148.8163511957731089
 51
190.741414547698696
  0
ARC
  5
14516
  8
0
 10
123.7303935655715037
 20
-11.3050003658331502
 30
0.0
 40
0.075083868320412
 50
190.7414145476992928
 51
224.2022780977185903
  0
ARC
  5
14517
  8
0
 10
123.7282157527409936
 20
-11.2681372308845393
 30
0.0
 40
0.0415584713821026
 50
245.4551835647922928
 51
298.1717037438924081
  0
CIRCLE
  5
14518
  8
0
 10
123.8092365964336068
 20
-11.0066437654479898
 30
0.0
 40
0.0241558043965635
  0
ARC
  5
14519
  8
0
 10
123.8103245907162062
 20
-11.0025869182853793
 30
0.0
 40
0.0682971401041462
 50
10.9556924283802903
 51
90.8746813414759913
  0
ARC
  5
1451A
  8
0
 10
123.8161802117597006
 20
-11.0014533994725703
 30
0.0
 40
0.0623328159426635
 50
319.3072771496308064
 51
10.9556924283776898
  0
ARC
  5
1451B
  8
0
 10
123.8089984056557
 20
-10.9952776585291208
 30
0.0
 40
0.0718047806340931
 50
270.9180893778836889
 51
319.3072771496293853
  0
ARC
  5
1451C
  8
0
 10
123.8090163397994985
 20
-10.9963967900916604
 30
0.0
 40
0.0706855053829712
 50
220.260272776826497
 51
270.9180893778828931
  0
ARC
  5
1451D
  8
0
 10
123.8031293317884973
 20
-11.0013823224737202
 30
0.0
 40
0.062971077571794
 50
149.7745926208012861
 51
220.2602727768291118
  0
ARC
  5
1451E
  8
0
 10
123.810299246167105
 20
-11.0055595698400097
 30
0.0
 40
0.0712690934645025
 50
90.8178265560973443
 51
149.7745926208010872
  0
ARC
  5
1451F
  8
0
 10
123.8109172326036003
 20
-10.9854329236337005
 30
0.0
 40
0.0737895492597202
 50
37.1928008475246514
 51
91.7931573421695788
  0
ARC
  5
14520
  8
0
 10
123.8082676082713931
 20
-10.9874435732824107
 30
0.0
 40
0.0771156913360524
 50
3.7413049373928589
 51
37.1928008475257883
  0
ARC
  5
14521
  8
0
 10
123.8067446920723995
 20
-10.9875431583792107
 30
0.0
 40
0.0786418600490471
 50
316.5836254388212865
 51
3.7413049373924521
  0
ARC
  5
14522
  8
0
 10
123.8112398844536983
 20
-10.9877304833503295
 30
0.0
 40
0.0760964927344279
 50
91.9818434214132594
 51
148.8163511957748142
  0
ARC
  5
14523
  8
0
 10
123.8146247907288995
 20
-10.9897791353894707
 30
0.0
 40
0.0800530778364234
 50
148.8163511957731089
 51
190.741414547698696
  0
ARC
  5
14524
  8
0
 10
123.8097426500309979
 20
-10.9907052808530796
 30
0.0
 40
0.075083868320412
 50
190.7414145476992928
 51
224.2022780977185903
  0
ARC
  5
14525
  8
0
 10
123.807564837200502
 20
-10.9538421459044599
 30
0.0
 40
0.0415584713821026
 50
245.4551835647922928
 51
298.1717037438924081
  0
CIRCLE
  5
14526
  8
0
 10
124.1293532497608965
 20
-11.08758237752604
 30
0.0
 40
0.0241558043965635
  0
ARC
  5
14527
  8
0
 10
124.1304412440434959
 20
-11.0835255303634295
 30
0.0
 40
0.0682971401041462
 50
10.9556924283802903
 51
90.8746813414759913
  0
ARC
  5
14528
  8
0
 10
124.136296865086905
 20
-11.0823920115506205
 30
0.0
 40
0.0623328159426635
 50
319.3072771496308064
 51
10.9556924283776898
  0
ARC
  5
14529
  8
0
 10
124.1291150589830039
 20
-11.0762162706071692
 30
0.0
 40
0.0718047806340931
 50
270.9180893778836889
 51
319.3072771496293853
  0
ARC
  5
1452A
  8
0
 10
124.1291329931267029
 20
-11.0773354021696999
 30
0.0
 40
0.0706855053829712
 50
220.260272776826497
 51
270.9180893778828931
  0
ARC
  5
1452B
  8
0
 10
124.1232459851157017
 20
-11.0823209345517704
 30
0.0
 40
0.062971077571794
 50
149.7745926208012861
 51
220.2602727768291118
  0
ARC
  5
1452C
  8
0
 10
124.1304158994942952
 20
-11.0864981819180493
 30
0.0
 40
0.0712690934645025
 50
90.8178265560973443
 51
149.7745926208010872
  0
ARC
  5
1452D
  8
0
 10
124.1310338859309041
 20
-11.0663715357117507
 30
0.0
 40
0.0737895492597202
 50
37.1928008475246514
 51
91.7931573421695788
  0
ARC
  5
1452E
  8
0
 10
124.1283842615985975
 20
-11.0683821853604591
 30
0.0
 40
0.0771156913360524
 50
3.7413049373928589
 51
37.1928008475257883
  0
ARC
  5
1452F
  8
0
 10
124.1268613453997034
 20
-11.0684817704572502
 30
0.0
 40
0.0786418600490471
 50
316.5836254388212865
 51
3.7413049373924521
  0
ARC
  5
14530
  8
0
 10
124.1313565377809027
 20
-11.0686690954283709
 30
0.0
 40
0.0760964927344279
 50
91.9818434214132594
 51
148.8163511957748142
  0
ARC
  5
14531
  8
0
 10
124.1347414440561039
 20
-11.0707177474675191
 30
0.0
 40
0.0800530778364234
 50
148.8163511957731089
 51
190.741414547698696
  0
ARC
  5
14532
  8
0
 10
124.1298593033582023
 20
-11.0716438929311298
 30
0.0
 40
0.075083868320412
 50
190.7414145476992928
 51
224.2022780977185903
  0
ARC
  5
14533
  8
0
 10
124.1276814905277064
 20
-11.0347807579825101
 30
0.0
 40
0.0415584713821026
 50
245.4551835647922928
 51
298.1717037438924081
  0
CIRCLE
  5
14534
  8
0
 10
123.696300597917201
 20
-10.7839049756810592
 30
0.0
 40
0.0241558043965635
  0
ARC
  5
14535
  8
0
 10
123.6973885921998999
 20
-10.7798481285184504
 30
0.0
 40
0.0682971401041462
 50
10.9556924283802903
 51
90.8746813414759913
  0
ARC
  5
14536
  8
0
 10
123.7032442132432948
 20
-10.7787146097056308
 30
0.0
 40
0.0623328159426635
 50
319.3072771496308064
 51
10.9556924283776898
  0
ARC
  5
14537
  8
0
 10
123.6960624071392942
 20
-10.7725388687621795
 30
0.0
 40
0.0718047806340931
 50
270.9180893778836889
 51
319.3072771496293853
  0
ARC
  5
14538
  8
0
 10
123.6960803412831069
 20
-10.7736580003247209
 30
0.0
 40
0.0706855053829712
 50
220.260272776826497
 51
270.9180893778828931
  0
ARC
  5
14539
  8
0
 10
123.6901933332721057
 20
-10.7786435327067895
 30
0.0
 40
0.062971077571794
 50
149.7745926208012861
 51
220.2602727768291118
  0
ARC
  5
1453A
  8
0
 10
123.6973632476506992
 20
-10.7828207800730702
 30
0.0
 40
0.0712690934645025
 50
90.8178265560973443
 51
149.7745926208010872
  0
ARC
  5
1453B
  8
0
 10
123.6979812340871945
 20
-10.7626941338667592
 30
0.0
 40
0.0737895492597202
 50
37.1928008475246514
 51
91.7931573421695788
  0
ARC
  5
1453C
  8
0
 10
123.6953316097550015
 20
-10.7647047835154694
 30
0.0
 40
0.0771156913360524
 50
3.7413049373928589
 51
37.1928008475257883
  0
ARC
  5
1453D
  8
0
 10
123.6938086935559937
 20
-10.7648043686122694
 30
0.0
 40
0.0786418600490471
 50
316.5836254388212865
 51
3.7413049373924521
  0
ARC
  5
1453E
  8
0
 10
123.6983038859373067
 20
-10.76499169358339
 30
0.0
 40
0.0760964927344279
 50
91.9818434214132594
 51
148.8163511957748142
  0
ARC
  5
1453F
  8
0
 10
123.7016887922124937
 20
-10.7670403456225401
 30
0.0
 40
0.0800530778364234
 50
148.8163511957731089
 51
190.741414547698696
  0
ARC
  5
14540
  8
0
 10
123.6968066515146063
 20
-10.7679664910861401
 30
0.0
 40
0.075083868320412
 50
190.7414145476992928
 51
224.2022780977185903
  0
ARC
  5
14541
  8
0
 10
123.6946288386840962
 20
-10.7311033561375293
 30
0.0
 40
0.0415584713821026
 50
245.4551835647922928
 51
298.1717037438924081
  0
CIRCLE
  5
14542
  8
0
 10
123.9715865655385016
 20
-10.5714648260031705
 30
0.0
 40
0.0241558043965635
  0
ARC
  5
14543
  8
0
 10
123.9726745598211011
 20
-10.5674079788405599
 30
0.0
 40
0.0682971401041462
 50
10.9556924283802903
 51
90.8746813414759913
  0
ARC
  5
14544
  8
0
 10
123.9785301808644959
 20
-10.5662744600277492
 30
0.0
 40
0.0623328159426635
 50
319.3072771496308064
 51
10.9556924283776898
  0
ARC
  5
14545
  8
0
 10
123.9713483747605949
 20
-10.5600987190842996
 30
0.0
 40
0.0718047806340931
 50
270.9180893778836889
 51
319.3072771496293853
  0
ARC
  5
14546
  8
0
 10
123.9713663089042939
 20
-10.5612178506468304
 30
0.0
 40
0.0706855053829712
 50
220.260272776826497
 51
270.9180893778828931
  0
ARC
  5
14547
  8
0
 10
123.9654793008933069
 20
-10.5662033830289008
 30
0.0
 40
0.062971077571794
 50
149.7745926208012861
 51
220.2602727768291118
  0
ARC
  5
14548
  8
0
 10
123.9726492152719999
 20
-10.5703806303951797
 30
0.0
 40
0.0712690934645025
 50
90.8178265560973443
 51
149.7745926208010872
  0
ARC
  5
14549
  8
0
 10
123.9732672017084951
 20
-10.5502539841888705
 30
0.0
 40
0.0737895492597202
 50
37.1928008475246514
 51
91.7931573421695788
  0
ARC
  5
1454A
  8
0
 10
123.9706175773762027
 20
-10.5522646338375896
 30
0.0
 40
0.0771156913360524
 50
3.7413049373928589
 51
37.1928008475257883
  0
ARC
  5
1454B
  8
0
 10
123.9690946611772944
 20
-10.5523642189343807
 30
0.0
 40
0.0786418600490471
 50
316.5836254388212865
 51
3.7413049373924521
  0
ARC
  5
1454C
  8
0
 10
123.9735898535584937
 20
-10.5525515439054995
 30
0.0
 40
0.0760964927344279
 50
91.9818434214132594
 51
148.8163511957748142
  0
ARC
  5
1454D
  8
0
 10
123.9769747598336949
 20
-10.5546001959446496
 30
0.0
 40
0.0800530778364234
 50
148.8163511957731089
 51
190.741414547698696
  0
ARC
  5
1454E
  8
0
 10
123.9720926191357933
 20
-10.5555263414082496
 30
0.0
 40
0.075083868320412
 50
190.7414145476992928
 51
224.2022780977185903
  0
ARC
  5
1454F
  8
0
 10
123.9699148063053968
 20
-10.5186632064596406
 30
0.0
 40
0.0415584713821026
 50
245.4551835647922928
 51
298.1717037438924081
  0
CIRCLE
  5
14550
  8
0
 10
124.1238705263680941
 20
-10.7647670186923605
 30
0.0
 40
0.0241558043965635
  0
ARC
  5
14551
  8
0
 10
124.1249585206506936
 20
-10.76071017152975
 30
0.0
 40
0.0682971401041462
 50
10.9556924283802903
 51
90.8746813414759913
  0
ARC
  5
14552
  8
0
 10
124.1308141416942021
 20
-10.7595766527169392
 30
0.0
 40
0.0623328159426635
 50
319.3072771496308064
 51
10.9556924283776898
  0
ARC
  5
14553
  8
0
 10
124.1236323355902016
 20
-10.7534009117734897
 30
0.0
 40
0.0718047806340931
 50
270.9180893778836889
 51
319.3072771496293853
  0
ARC
  5
14554
  8
0
 10
124.1236502697339006
 20
-10.7545200433360293
 30
0.0
 40
0.0706855053829712
 50
220.260272776826497
 51
270.9180893778828931
  0
ARC
  5
14555
  8
0
 10
124.1177632617229989
 20
-10.7595055757180909
 30
0.0
 40
0.062971077571794
 50
149.7745926208012861
 51
220.2602727768291118
  0
ARC
  5
14556
  8
0
 10
124.1249331761016066
 20
-10.7636828230843804
 30
0.0
 40
0.0712690934645025
 50
90.8178265560973443
 51
149.7745926208010872
  0
ARC
  5
14557
  8
0
 10
124.1255511625381018
 20
-10.7435561768780694
 30
0.0
 40
0.0737895492597202
 50
37.1928008475246514
 51
91.7931573421695788
  0
ARC
  5
14558
  8
0
 10
124.1229015382057952
 20
-10.7455668265267796
 30
0.0
 40
0.0771156913360524
 50
3.7413049373928589
 51
37.1928008475257883
  0
ARC
  5
14559
  8
0
 10
124.1213786220069011
 20
-10.7456664116235796
 30
0.0
 40
0.0786418600490471
 50
316.5836254388212865
 51
3.7413049373924521
  0
ARC
  5
1455A
  8
0
 10
124.1258738143881999
 20
-10.7458537365947002
 30
0.0
 40
0.0760964927344279
 50
91.9818434214132594
 51
148.8163511957748142
  0
ARC
  5
1455B
  8
0
 10
124.129258720663401
 20
-10.7479023886338396
 30
0.0
 40
0.0800530778364234
 50
148.8163511957731089
 51
190.741414547698696
  0
ARC
  5
1455C
  8
0
 10
124.1243765799654
 20
-10.7488285340974503
 30
0.0
 40
0.075083868320412
 50
190.7414145476992928
 51
224.2022780977185903
  0
ARC
  5
1455D
  8
0
 10
124.1221987671350035
 20
-10.7119653991488306
 30
0.0
 40
0.0415584713821026
 50
245.4551835647922928
 51
298.1717037438924081
  0
CIRCLE
  5
1455E
  8
0
 10
124.4817724441412992
 20
-10.78308142420153
 30
0.0
 40
0.0241558043965635
  0
ARC
  5
1455F
  8
0
 10
124.4828604384239981
 20
-10.7790245770389195
 30
0.0
 40
0.0682971401041462
 50
10.9556924283802903
 51
90.8746813414759913
  0
ARC
  5
14560
  8
0
 10
124.4887160594673929
 20
-10.7778910582261105
 30
0.0
 40
0.0623328159426635
 50
319.3072771496308064
 51
10.9556924283776898
  0
ARC
  5
14561
  8
0
 10
124.4815342533634066
 20
-10.7717153172826592
 30
0.0
 40
0.0718047806340931
 50
270.9180893778836889
 51
319.3072771496293853
  0
ARC
  5
14562
  8
0
 10
124.4815521875072051
 20
-10.7728344488451899
 30
0.0
 40
0.0706855053829712
 50
220.260272776826497
 51
270.9180893778828931
  0
ARC
  5
14563
  8
0
 10
124.4756651794962039
 20
-10.7778199812272604
 30
0.0
 40
0.062971077571794
 50
149.7745926208012861
 51
220.2602727768291118
  0
ARC
  5
14564
  8
0
 10
124.4828350938747974
 20
-10.7819972285935393
 30
0.0
 40
0.0712690934645025
 50
90.8178265560973443
 51
149.7745926208010872
  0
ARC
  5
14565
  8
0
 10
124.4834530803113068
 20
-10.7618705823872407
 30
0.0
 40
0.0737895492597202
 50
37.1928008475246514
 51
91.7931573421695788
  0
ARC
  5
14566
  8
0
 10
124.4808034559790997
 20
-10.7638812320359492
 30
0.0
 40
0.0771156913360524
 50
3.7413049373928589
 51
37.1928008475257883
  0
ARC
  5
14567
  8
0
 10
124.4792805397801061
 20
-10.7639808171327491
 30
0.0
 40
0.0786418600490471
 50
316.5836254388212865
 51
3.7413049373924521
  0
ARC
  5
14568
  8
0
 10
124.4837757321614049
 20
-10.7641681421038609
 30
0.0
 40
0.0760964927344279
 50
91.9818434214132594
 51
148.8163511957748142
  0
ARC
  5
14569
  8
0
 10
124.4871606384366061
 20
-10.7662167941430091
 30
0.0
 40
0.0800530778364234
 50
148.8163511957731089
 51
190.741414547698696
  0
ARC
  5
1456A
  8
0
 10
124.4822784977387045
 20
-10.7671429396066092
 30
0.0
 40
0.075083868320412
 50
190.7414145476992928
 51
224.2022780977185903
  0
ARC
  5
1456B
  8
0
 10
124.4801006849081944
 20
-10.7302798046580001
 30
0.0
 40
0.0415584713821026
 50
245.4551835647922928
 51
298.1717037438924081
  0
CIRCLE
  5
1456C
  8
0
 10
124.3781540220596042
 20
-10.4692955965529606
 30
0.0
 40
0.0241558043965635
  0
ARC
  5
1456D
  8
0
 10
124.3792420163422037
 20
-10.46523874939035
 30
0.0
 40
0.0682971401041462
 50
10.9556924283802903
 51
90.8746813414759913
  0
ARC
  5
1456E
  8
0
 10
124.3850976373855985
 20
-10.4641052305775393
 30
0.0
 40
0.0623328159426635
 50
319.3072771496308064
 51
10.9556924283776898
  0
ARC
  5
1456F
  8
0
 10
124.3779158312816975
 20
-10.4579294896340897
 30
0.0
 40
0.0718047806340931
 50
270.9180893778836889
 51
319.3072771496293853
  0
ARC
  5
14570
  8
0
 10
124.3779337654253965
 20
-10.4590486211966205
 30
0.0
 40
0.0706855053829712
 50
220.260272776826497
 51
270.9180893778828931
  0
ARC
  5
14571
  8
0
 10
124.3720467574144948
 20
-10.4640341535786892
 30
0.0
 40
0.062971077571794
 50
149.7745926208012861
 51
220.2602727768291118
  0
ARC
  5
14572
  8
0
 10
124.3792166717931025
 20
-10.4682114009449805
 30
0.0
 40
0.0712690934645025
 50
90.8178265560973443
 51
149.7745926208010872
  0
ARC
  5
14573
  8
0
 10
124.3798346582295977
 20
-10.4480847547386695
 30
0.0
 40
0.0737895492597202
 50
37.1928008475246514
 51
91.7931573421695788
  0
ARC
  5
14574
  8
0
 10
124.3771850338974048
 20
-10.4500954043873797
 30
0.0
 40
0.0771156913360524
 50
3.7413049373928589
 51
37.1928008475257883
  0
ARC
  5
14575
  8
0
 10
124.375662117698397
 20
-10.4501949894841797
 30
0.0
 40
0.0786418600490471
 50
316.5836254388212865
 51
3.7413049373924521
  0
ARC
  5
14576
  8
0
 10
124.3801573100795963
 20
-10.4503823144552896
 30
0.0
 40
0.0760964927344279
 50
91.9818434214132594
 51
148.8163511957748142
  0
ARC
  5
14577
  8
0
 10
124.3835422163548969
 20
-10.4524309664944397
 30
0.0
 40
0.0800530778364234
 50
148.8163511957731089
 51
190.741414547698696
  0
ARC
  5
14578
  8
0
 10
124.3786600756568959
 20
-10.4533571119580504
 30
0.0
 40
0.075083868320412
 50
190.7414145476992928
 51
224.2022780977185903
  0
ARC
  5
14579
  8
0
 10
124.3764822628264994
 20
-10.4164939770094307
 30
0.0
 40
0.0415584713821026
 50
245.4551835647922928
 51
298.1717037438924081
  0
CIRCLE
  5
1457A
  8
0
 10
124.7390966076019936
 20
-10.3983216566073509
 30
0.0
 40
0.0241558043965635
  0
ARC
  5
1457B
  8
0
 10
124.740184601884593
 20
-10.3942648094447403
 30
0.0
 40
0.0682971401041462
 50
10.9556924283802903
 51
90.8746813414759913
  0
ARC
  5
1457C
  8
0
 10
124.7460402229281016
 20
-10.3931312906319295
 30
0.0
 40
0.0623328159426635
 50
319.3072771496308064
 51
10.9556924283776898
  0
ARC
  5
1457D
  8
0
 10
124.738858416824101
 20
-10.38695554968848
 30
0.0
 40
0.0718047806340931
 50
270.9180893778836889
 51
319.3072771496293853
  0
ARC
  5
1457E
  8
0
 10
124.7388763509678
 20
-10.3880746812510196
 30
0.0
 40
0.0706855053829712
 50
220.260272776826497
 51
270.9180893778828931
  0
ARC
  5
1457F
  8
0
 10
124.7329893429568983
 20
-10.3930602136330794
 30
0.0
 40
0.062971077571794
 50
149.7745926208012861
 51
220.2602727768291118
  0
ARC
  5
14580
  8
0
 10
124.740159257335506
 20
-10.3972374609993707
 30
0.0
 40
0.0712690934645025
 50
90.8178265560973443
 51
149.7745926208010872
  0
ARC
  5
14581
  8
0
 10
124.7407772437720013
 20
-10.3771108147930597
 30
0.0
 40
0.0737895492597202
 50
37.1928008475246514
 51
91.7931573421695788
  0
ARC
  5
14582
  8
0
 10
124.7381276194397941
 20
-10.37912146444177
 30
0.0
 40
0.0771156913360524
 50
3.7413049373928589
 51
37.1928008475257883
  0
ARC
  5
14583
  8
0
 10
124.7366047032408005
 20
-10.3792210495385699
 30
0.0
 40
0.0786418600490471
 50
316.5836254388212865
 51
3.7413049373924521
  0
ARC
  5
14584
  8
0
 10
124.7410998956220993
 20
-10.3794083745096906
 30
0.0
 40
0.0760964927344279
 50
91.9818434214132594
 51
148.8163511957748142
  0
ARC
  5
14585
  8
0
 10
124.7444848018973005
 20
-10.38145702654883
 30
0.0
 40
0.0800530778364234
 50
148.8163511957731089
 51
190.741414547698696
  0
ARC
  5
14586
  8
0
 10
124.7396026611992994
 20
-10.3823831720124407
 30
0.0
 40
0.075083868320412
 50
190.7414145476992928
 51
224.2022780977185903
  0
ARC
  5
14587
  8
0
 10
124.737424848368903
 20
-10.3455200370638298
 30
0.0
 40
0.0415584713821026
 50
245.4551835647922928
 51
298.1717037438924081
  0
ARC
  5
14588
  8
0
 10
123.0414589407554047
 20
-9.6119948353274083
 30
0.0
 40
1.0922737989703399
 50
269.3090270530153134
 51
330.4524018481217809
  0
ARC
  5
14589
  8
0
 10
123.1147667878698968
 20
-9.6535508516107882
 30
0.0
 40
1.0080067061172959
 50
330.4524018481217809
 51
21.5276010729453589
  0
ARC
  5
1458A
  8
0
 10
123.0392747094204964
 20
-9.69467120102248
 30
0.0
 40
1.093372513287548
 50
22.0804622496427108
 51
90.5778911857912448
  0
LINE
  5
1458B
  8
0
 10
122.9775653244603006
 20
-12.1452993879601205
 30
0.0
 11
123.0790080912647966
 21
-12.1452993879601205
 31
0.0
  0
ARC
  5
1458C
  8
0
 10
123.0693329032492045
 20
-10.1260131972214396
 30
0.0
 40
0.0365936573209071
 50
235.7324876966677039
 51
304.3137099681762834
  0
ARC
  5
1458D
  8
0
 10
123.0708187294827951
 20
-10.1889397623923497
 30
0.0
 40
0.0378924921618703
 50
267.7527410447610237
 51
92.2472589552389195
  0
ARC
  5
1458E
  8
0
 10
123.0678543899601038
 20
-10.1889397623923497
 30
0.0
 40
0.0378922049689754
 50
87.7638344757198325
 51
272.2361655242793859
  0
ARC
  5
1458F
  8
0
 10
123.4416720161205063
 20
-10.3348908346883306
 30
0.0
 40
0.0755622981964944
 50
197.2055344851482914
 51
342.7944674619772059
  0
ARC
  5
14590
  8
0
 10
123.4416720168832029
 20
-10.3797768110037598
 30
0.0
 40
0.0756167134390026
 50
17.3381894694441883
 51
162.661812477681508
  0
ARC
  5
14591
  8
0
 10
123.4416720167844943
 20
-10.3739649729611703
 30
0.0
 40
0.0740927096811787
 50
166.9559071560761936
 51
13.0440947910757306
  0
LINE
  5
14592
  8
0
 10
123.3969727376125007
 20
-10.3273143859423406
 30
0.0
 11
123.4074397091124951
 21
-10.3220518040423404
 31
0.0
  0
LINE
  5
14593
  8
0
 10
123.4074397091124951
 20
-10.3220518040423404
 30
0.0
 11
123.4165597097125016
 21
-10.3388291220423501
 31
0.0
  0
LINE
  5
14594
  8
0
 10
123.4165597097125016
 20
-10.3388291220423501
 30
0.0
 11
123.4060927383125943
 21
-10.3440917039423397
 31
0.0
  0
LINE
  5
14595
  8
0
 10
123.4060927383125943
 20
-10.3440917039423397
 30
0.0
 11
123.3969727376125007
 21
-10.3273143859423406
 31
0.0
  0
ARC
  5
14596
  8
0
 10
122.6323993739829064
 20
-16.9024649417053894
 30
0.0
 40
0.0103674062311091
 50
115.8906534113091027
 51
239.4795573509967994
  0
ARC
  5
14597
  8
0
 10
122.6323405865301055
 20
-16.9738847877852415
 30
0.0
 40
0.0103406158387175
 50
115.5491937403641032
 51
240.2300987440553115
  0
ARC
  5
14598
  8
0
 10
113.6042832108399949
 20
174.8678134431860087
 30
0.0
 40
192.0269423258565951
 50
272.7044542719851847
 51
272.9215655268924934
  0
ARC
  5
14599
  8
0
 10
132.4045330569408918
 20
-207.7865367247258064
 30
0.0
 40
191.0324302573191915
 50
92.7042033019652365
 51
92.9224448950973141
  0
ARC
  5
1459A
  8
0
 10
123.424213662366796
 20
-16.9381902565823097
 30
0.0
 40
0.0103621863211331
 50
295.6021110507638241
 51
64.0622120682112239
  0
LINE
  5
1459B
  8
0
 10
122.6649028078124957
 20
-16.8738333769423505
 30
0.0
 11
122.6278723938124955
 21
-16.8931381221779091
 31
0.0
  0
LINE
  5
1459C
  8
0
 10
122.6271343307625017
 20
-16.9113959232779116
 30
0.0
 11
122.6649028078124957
 21
-16.9311314077779116
 31
0.0
  0
LINE
  5
1459D
  8
0
 10
122.6649028078124957
 20
-16.9311314077779116
 30
0.0
 11
122.6649028078121972
 21
-16.9452511575778892
 31
0.0
  0
LINE
  5
1459E
  8
0
 10
122.6649028078121972
 20
-16.9452511575778892
 30
0.0
 11
122.6278808248124932
 21
-16.9645553257779085
 31
0.0
  0
LINE
  5
1459F
  8
0
 10
122.6272062842625985
 20
-16.982860715377921
 30
0.0
 11
122.6649028078125951
 21
-17.0025515146779114
 31
0.0
  0
LINE
  5
145A0
  8
0
 10
123.3916744613125047
 20
-16.9095406722779202
 30
0.0
 11
123.4287460305884991
 21
-16.9288718584555902
 31
0.0
  0
LINE
  5
145A1
  8
0
 10
123.3916744613125047
 20
-16.9668370342779085
 30
0.0
 11
123.4286913597125022
 21
-16.9475350482779099
 31
0.0
  0
LINE
  5
145A2
  8
0
 10
122.6220069841553055
 20
-16.9735040019084202
 30
0.0
 11
123.4345758042290981
 21
-16.9382206108373587
 31
0.0
  0
ARC
  5
145A3
  8
0
 10
122.6323405865649931
 20
-17.0453048947034098
 30
0.0
 40
0.0103406158387175
 50
115.5491937403641032
 51
240.2300987440553115
  0
ARC
  5
145A4
  8
0
 10
113.6042832108748968
 20
174.7963933362678119
 30
0.0
 40
192.0269423258565951
 50
272.7044542719851847
 51
272.9215655268924934
  0
ARC
  5
145A5
  8
0
 10
132.4045330569757937
 20
-207.8579568316440032
 30
0.0
 40
191.0324302573191915
 50
92.7042033019652365
 51
92.9224448950973141
  0
ARC
  5
145A6
  8
0
 10
123.4242136624016979
 20
-17.009610363500471
 30
0.0
 40
0.0103621863211331
 50
295.6021110507638241
 51
64.0622120682112239
  0
LINE
  5
145A7
  8
0
 10
122.6649028078473975
 20
-17.0025515146960799
 30
0.0
 11
122.6649028078469996
 21
-17.0166712644960505
 31
0.0
  0
LINE
  5
145A8
  8
0
 10
122.6649028078469996
 20
-17.0166712644960505
 30
0.0
 11
122.627880824847395
 21
-17.0359754326960804
 31
0.0
  0
LINE
  5
145A9
  8
0
 10
122.6272062842974009
 20
-17.0542808222960893
 30
0.0
 11
122.6649028078473975
 21
-17.0739716215960691
 31
0.0
  0
LINE
  5
145AA
  8
0
 10
123.3916744613474066
 20
-16.9809607791960815
 30
0.0
 11
123.4287460306233015
 21
-17.0002919653737514
 31
0.0
  0
LINE
  5
145AB
  8
0
 10
123.3916744613474066
 20
-17.0382571411960804
 30
0.0
 11
123.428691359747404
 21
-17.0189551551960783
 31
0.0
  0
LINE
  5
145AC
  8
0
 10
122.6220410166973949
 20
-17.0456834236960795
 30
0.0
 11
123.4345758042639005
 21
-17.0096407177555307
 31
0.0
  0
ARC
  5
145AD
  8
0
 10
122.3143988500092973
 20
0.8197909368511525
 30
0.0
 40
17.9046096972740116
 50
271.5671377739017771
 51
273.4494272041127942
  0
ARC
  5
145AE
  8
0
 10
122.2314846791312988
 20
3.1877360972916828
 30
0.0
 40
20.3305442338436393
 50
271.6138540284861165
 51
273.2714377766486109
  0
ARC
  5
145AF
  8
0
 10
123.424213662366796
 20
-17.0810304704022293
 30
0.0
 40
0.0103621863211331
 50
295.6021110507638241
 51
64.0622120682112239
  0
LINE
  5
145B0
  8
0
 10
123.3916744613125047
 20
-17.0523808860978292
 30
0.0
 11
123.4287460305884991
 21
-17.0717120722754991
 31
0.0
  0
LINE
  5
145B1
  8
0
 10
123.3916744613125047
 20
-17.1096772480978387
 30
0.0
 11
123.4286913597125022
 21
-17.0903752620978295
 31
0.0
  0
LINE
  5
145B2
  8
0
 10
122.7260326884352963
 20
-17.1103367571126199
 30
0.0
 11
123.4345758042290981
 21
-17.081060824657289
 31
0.0
  0
LINE
  5
145B3
  8
0
 10
123.3916744613125047
 20
-17.1635574622423484
 30
0.0
 11
123.3916744613125047
 21
-17.1096772480978387
 31
0.0
  0
LINE
  5
145B4
  8
0
 10
123.3916744613125047
 20
-17.0523808860978292
 30
0.0
 11
123.3916744613474066
 21
-17.0382571411960591
 31
0.0
  0
LINE
  5
145B5
  8
0
 10
123.391674461346895
 20
-16.9809607791960708
 30
0.0
 11
123.3916744613125047
 21
-16.9668370342778907
 31
0.0
  0
LINE
  5
145B6
  8
0
 10
122.6649028078473975
 20
-17.0739716215960691
 30
0.0
 11
122.6649028077626014
 21
-17.1635574622423484
 31
0.0
  0
ARC
  5
145B7
  8
0
 10
122.6845878470771964
 20
-17.1635574623277414
 30
0.0
 40
0.0196850393146102
 50
179.9999997514644008
 51
270.0000001029486043
  0
ARC
  5
145B8
  8
0
 10
123.3719894220125042
 20
-17.1635574622423484
 30
0.0
 40
0.0196850394000006
 50
270.0000000000105729
 51
359.9999999999985789
  0
LINE
  5
145B9
  8
0
 10
122.6845878471125957
 20
-17.1832425016423507
 30
0.0
 11
123.3719894220125042
 21
-17.1832425016423507
 31
0.0
  0
ARC
  5
145BA
  8
0
 10
122.7372235759098942
 20
-17.1098807286126302
 30
0.0
 40
0.0112004937941109
 50
137.6800926679235886
 51
222.3190920654421916
  0
LINE
  5
145BB
  8
0
 10
122.7289418643125032
 20
-17.1023398709423518
 30
0.0
 11
122.8040595543125022
 21
-17.0781218131423387
 31
0.0
  0
LINE
  5
145BC
  8
0
 10
122.7289419620124988
 20
-17.1174216409423501
 30
0.0
 11
122.8040596745509987
 21
-17.1347459118302297
 31
0.0
  0
ARC
  5
145BD
  8
0
 10
123.4057721457357957
 20
-16.8701308229637696
 30
0.0
 40
0.0102583328871514
 50
300.7569717210366775
 51
71.4077619336116101
  0
ARC
  5
145BE
  8
0
 10
124.9369118634301969
 20
-58.669947682709342
 30
0.0
 40
41.800607760908072
 50
92.1412392692437692
 51
93.115761206449065
  0
ARC
  5
145BF
  8
0
 10
122.992462104017207
 20
-20.5461849638576908
 30
0.0
 40
3.6869311453361528
 50
91.4335947147691854
 51
95.0970690837297923
  0
LINE
  5
145C0
  8
0
 10
122.6649028078124957
 20
-16.7862650439423504
 30
0.0
 11
122.6649028078124957
 21
-16.8738333769423505
 31
0.0
  0
LINE
  5
145C1
  8
0
 10
122.9002212171125024
 20
-16.8604078559423485
 30
0.0
 11
123.409042819354994
 21
-16.8604078559423485
 31
0.0
  0
LINE
  5
145C2
  8
0
 10
123.3751167260126067
 20
-16.8985267692423484
 30
0.0
 11
123.4110182331125003
 21
-16.8789462617423496
 31
0.0
  0
LINE
  5
145C3
  8
0
 10
123.3916744613125047
 20
-16.8604078559423485
 30
0.0
 11
123.3916744613125047
 21
-16.7862650439423504
 31
0.0
  0
LINE
  5
145C4
  8
0
 10
122.5355951438125999
 20
-16.7862650439423504
 30
0.0
 11
123.5208428450466016
 21
-16.7862650439423504
 31
0.0
  0
LINE
  5
145C5
  8
0
 10
122.5222663170709012
 20
-16.5903213269423517
 30
0.0
 11
123.5343109520111966
 21
-16.5903213269423517
 31
0.0
  0
ARC
  5
145C6
  8
0
 10
123.5200034515207932
 20
-16.6877726278253107
 30
0.0
 40
0.0984959928832807
 50
270.4882867529481132
 51
81.6476806318409558
  0
ARC
  5
145C7
  8
0
 10
122.5368105451869951
 20
-16.687757170881099
 30
0.0
 40
0.0985153706563203
 50
98.489844009669639
 51
269.2931140047796816
  0
LINE
  5
145C8
  8
0
 10
122.6220404282945964
 20
-16.9020461861823392
 30
0.0
 11
123.4159727303694041
 21
-16.8690438699950498
 31
0.0
  0
ARC
  5
145C9
  8
0
 10
139.0905120010203007
 20
-13.9660317873522093
 30
0.0
 40
16.6854521753833289
 50
172.5820135449087047
 51
188.3586596280570973
  0
ARC
  5
145CA
  8
0
 10
106.9660579851958033
 20
-13.9660314714296803
 30
0.0
 40
16.6854594269537984
 50
351.6413429341581036
 51
7.418010405240465
  0
ARC
  5
145CB
  8
0
 10
121.8995370336329955
 20
-16.4350965259961512
 30
0.0
 40
0.6841495754701827
 50
354.2333622645949163
 51
3.6466324139652202
  0
ARC
  5
145CC
  8
0
 10
122.402483278368905
 20
-16.4842402668555899
 30
0.0
 40
0.1788182500603898
 50
338.2675503393500094
 51
353.7080445696167885
  0
ARC
  5
145CD
  8
0
 10
122.5106651969943954
 20
-16.5299936744528999
 30
0.0
 40
0.0614329849666802
 50
280.8852050738645971
 51
340.5480825293778935
  0
ARC
  5
145CE
  8
0
 10
124.3197068230667952
 20
-16.4354000947364085
 30
0.0
 40
0.8465656930332023
 50
177.033102621426309
 51
183.854397877367802
  0
ARC
  5
145CF
  8
0
 10
123.6548046068706981
 20
-16.4825574287766194
 30
0.0
 40
0.1800128555593956
 50
183.1047655388425142
 51
203.4449584836877136
  0
ARC
  5
145D0
  8
0
 10
123.5430730380684992
 20
-16.53383393860571
 30
0.0
 40
0.0571629179903368
 50
200.849198531858093
 51
261.1827883096879077
  0
ARC
  5
145D1
  8
0
 10
123.0711825172520975
 20
-10.1921760082423507
 30
0.0
 40
0.0492570939929239
 50
267.8480087438181272
 51
92.1519912561819581
  0
ARC
  5
145D2
  8
0
 10
123.0674832599834048
 20
-10.1921760082423507
 30
0.0
 40
0.0492570939925325
 50
87.8480087559324403
 51
272.1519912440675739
  0
ARC
  5
145D3
  8
0
 10
123.0693153460003941
 20
-10.1804070680985905
 30
0.0
 40
0.0350591494856689
 50
157.7498649834724915
 51
22.5059612230052402
  0
ARC
  5
145D4
  8
0
 10
123.0692799972773059
 20
-10.1796421061837297
 30
0.0
 40
0.03961024014235
 50
188.5855639739959884
 51
352.102793953033995
  0
ARC
  5
145D5
  8
0
 10
123.0703909815786972
 20
-10.1866095750442707
 30
0.0
 40
0.079992017085874
 50
42.2280811741674214
 51
183.990286755088988
  0
ARC
  5
145D6
  8
0
 10
123.0695465624942955
 20
-10.1953240960380302
 30
0.0
 40
0.0790164225643936
 50
6.3837318018826519
 51
177.7166784363664078
  0
ARC
  5
145D7
  8
0
 10
123.0693254062903037
 20
-10.1891462222450304
 30
0.0
 40
0.0787908046349835
 50
182.2037692793375072
 51
1.8966409589115429
  0
ARC
  5
145D8
  8
0
 10
123.0780621399330954
 20
-10.1867222119432395
 30
0.0
 40
0.070011147072197
 50
0.1503336188171207
 51
42.5685873581481218
  0
ARC
  5
145D9
  8
0
 10
123.2597714700221019
 20
-10.0216556902209692
 30
0.0
 40
0.0365936573209071
 50
235.7324876966675902
 51
304.3137099681762834
  0
ARC
  5
145DA
  8
0
 10
123.2612572962557067
 20
-10.0845822553918794
 30
0.0
 40
0.0378924921618703
 50
267.7527410447610237
 51
92.2472589552389195
  0
ARC
  5
145DB
  8
0
 10
123.2582929567330012
 20
-10.0845822553918794
 30
0.0
 40
0.0378922049689754
 50
87.7638344757198325
 51
272.2361655242793859
  0
ARC
  5
145DC
  8
0
 10
123.2616210840248954
 20
-10.0878185012418697
 30
0.0
 40
0.0492570939929239
 50
267.8480087438181272
 51
92.1519912561819581
  0
ARC
  5
145DD
  8
0
 10
123.2579218267563022
 20
-10.0878185012418697
 30
0.0
 40
0.0492570939925325
 50
87.8480087559324403
 51
272.1519912440675739
  0
ARC
  5
145DE
  8
0
 10
123.2597539127733057
 20
-10.0760495610981202
 30
0.0
 40
0.0350591494856689
 50
157.7498649834724915
 51
22.5059612230052402
  0
ARC
  5
145DF
  8
0
 10
123.2597185640502033
 20
-10.0752845991832594
 30
0.0
 40
0.03961024014235
 50
188.5855639739959884
 51
352.102793953033995
  0
ARC
  5
145E0
  8
0
 10
123.2605213478455966
 20
-10.0820635703323607
 30
0.0
 40
0.0796979560798197
 50
48.5922667316596417
 51
184.1408899979547016
  0
ARC
  5
145E1
  8
0
 10
123.2607031203817058
 20
-10.0916875073652097
 30
0.0
 40
0.0797655651787841
 50
18.2844942192389688
 51
177.2197934913303072
  0
ARC
  5
145E2
  8
0
 10
123.2597639730632011
 20
-10.0847887152445495
 30
0.0
 40
0.0787908046349891
 50
182.2037692793419978
 51
13.3005184312273101
  0
ARC
  5
145E3
  8
0
 10
123.2738175210526066
 20
-10.0790036889830308
 30
0.0
 40
0.0638283366316842
 50
11.1485914951518907
 51
51.8626604702726368
  0
ARC
  5
145E4
  8
0
 10
123.4496705352910055
 20
-9.9154074916859507
 30
0.0
 40
0.0365936573209071
 50
235.7324876966675902
 51
304.3137099681762834
  0
ARC
  5
145E5
  8
0
 10
123.4511563615245962
 20
-9.9783340568568555
 30
0.0
 40
0.0378924921618703
 50
267.7527410447610237
 51
92.2472589552389195
  0
ARC
  5
145E6
  8
0
 10
123.4481920220019049
 20
-9.9783340568568555
 30
0.0
 40
0.0378922049689754
 50
87.7638344757198325
 51
272.2361655242793859
  0
ARC
  5
145E7
  8
0
 10
123.4515201492938985
 20
-9.9815703027068512
 30
0.0
 40
0.0492570939929239
 50
267.8480087438181272
 51
92.1519912561819581
  0
ARC
  5
145E8
  8
0
 10
123.4478208920253053
 20
-9.9815703027068512
 30
0.0
 40
0.0492570939925325
 50
87.8480087559324403
 51
272.1519912440675739
  0
ARC
  5
145E9
  8
0
 10
123.4496529780421952
 20
-9.9698013625630963
 30
0.0
 40
0.0350591494856689
 50
157.7498649834724915
 51
22.5059612230052402
  0
ARC
  5
145EA
  8
0
 10
123.449617629319107
 20
-9.9690364006482355
 30
0.0
 40
0.03961024014235
 50
188.5855639739959884
 51
352.102793953033995
  0
ARC
  5
145EB
  8
0
 10
123.450492543533997
 20
-9.9758594872959705
 30
0.0
 40
0.0797667278340892
 50
16.7424088888831513
 51
184.105543708254487
  0
ARC
  5
145EC
  8
0
 10
123.4498841945360965
 20
-9.9847183905025396
 30
0.0
 40
0.0790164225643936
 50
6.3837318018826519
 51
177.7166784363664078
  0
ARC
  5
145ED
  8
0
 10
123.4496630383321047
 20
-9.9785405167095327
 30
0.0
 40
0.0787908046349835
 50
182.2037692793375072
 51
1.8966409589115429
  0
ARC
  5
145EE
  8
0
 10
123.4462702714447033
 20
-9.9752092548018751
 30
0.0
 40
0.0821435933619431
 50
359.4953080895692779
 51
11.0968927196767506
  0
ARC
  5
145EF
  8
0
 10
123.4504602175308037
 20
-9.3554517681105835
 30
0.0
 40
0.0365936573209071
 50
235.7324876966675902
 51
304.3137099681762834
  0
ARC
  5
145F0
  8
0
 10
123.4519460437643943
 20
-9.4183783332814883
 30
0.0
 40
0.0378924921618703
 50
267.7527410447610237
 51
92.2472589552389195
  0
ARC
  5
145F1
  8
0
 10
123.448981704241703
 20
-9.4183783332814883
 30
0.0
 40
0.0378922049689754
 50
87.7638344757198325
 51
272.2361655242793859
  0
ARC
  5
145F2
  8
0
 10
123.4523098315336966
 20
-9.4216145791314858
 30
0.0
 40
0.0492570939929239
 50
267.8480087438181272
 51
92.1519912561819581
  0
ARC
  5
145F3
  8
0
 10
123.4486105742651034
 20
-9.4216145791314858
 30
0.0
 40
0.0492570939925325
 50
87.8480087559324403
 51
272.1519912440675739
  0
ARC
  5
145F4
  8
0
 10
123.4504426602819933
 20
-9.4098456389877327
 30
0.0
 40
0.0350591494856689
 50
157.7498649834724915
 51
22.5059612230052402
  0
ARC
  5
145F5
  8
0
 10
123.4504073115589051
 20
-9.4090806770728683
 30
0.0
 40
0.03961024014235
 50
188.5855639739959884
 51
352.102793953033995
  0
ARC
  5
145F6
  8
0
 10
123.4409241838800995
 20
-9.4109393760563265
 30
0.0
 40
0.0700225153727361
 50
163.803022902268907
 51
188.769158396721906
  0
ARC
  5
145F7
  8
0
 10
123.4506738767758947
 20
-9.4247626669271725
 30
0.0
 40
0.0790164225643936
 50
6.3837318018826519
 51
177.7166784363664078
  0
ARC
  5
145F8
  8
0
 10
123.4504527205719029
 20
-9.4185847931341655
 30
0.0
 40
0.0787908046349835
 50
182.2037692793375072
 51
1.8966409589115429
  0
ARC
  5
145F9
  8
0
 10
123.4411644847894962
 20
-9.4195845263495492
 30
0.0
 40
0.0881097554030633
 50
2.3464922718042338
 51
25.8608700258207094
  0
ARC
  5
145FA
  8
0
 10
123.260214796415795
 20
-9.2506692393722183
 30
0.0
 40
0.0365936573209071
 50
235.7324876966675902
 51
304.3137099681762834
  0
ARC
  5
145FB
  8
0
 10
123.2617006226494993
 20
-9.3135958045431231
 30
0.0
 40
0.0378924921618703
 50
267.7527410447610237
 51
92.2472589552389195
  0
ARC
  5
145FC
  8
0
 10
123.2587362831266944
 20
-9.3135958045431231
 30
0.0
 40
0.0378922049689754
 50
87.7638344757198325
 51
272.2361655242793859
  0
ARC
  5
145FD
  8
0
 10
123.2620644104187022
 20
-9.3168320503931206
 30
0.0
 40
0.0492570939929239
 50
267.8480087438181272
 51
92.1519912561819581
  0
ARC
  5
145FE
  8
0
 10
123.2583651531500948
 20
-9.3168320503931206
 30
0.0
 40
0.0492570939925325
 50
87.8480087559324403
 51
272.1519912440675739
  0
ARC
  5
145FF
  8
0
 10
123.2601972391670984
 20
-9.3050631102493622
 30
0.0
 40
0.0350591494856689
 50
157.7498649834724915
 51
22.5059612230052402
  0
ARC
  5
14600
  8
0
 10
123.2601618904438965
 20
-9.3042981483345031
 30
0.0
 40
0.03961024014235
 50
188.5855639739959884
 51
352.102793953033995
  0
ARC
  5
14601
  8
0
 10
123.2598650823744038
 20
-9.3123484993634591
 30
0.0
 40
0.0785184271392989
 50
132.4170196348958939
 51
183.2734781251693903
  0
ARC
  5
14602
  8
0
 10
123.2604284556609002
 20
-9.3199801381888072
 30
0.0
 40
0.0790164225643936
 50
6.3837318018826519
 51
177.7166784363664078
  0
ARC
  5
14603
  8
0
 10
123.2602072994568942
 20
-9.3138022643958003
 30
0.0
 40
0.0787908046349835
 50
182.2037692793375072
 51
1.8966409589115429
  0
ARC
  5
14604
  8
0
 10
123.2611911423227014
 20
-9.3040070244980377
 30
0.0
 40
0.0780952542593823
 50
354.7192829824946898
 51
134.0396054438157023
  0
ARC
  5
14605
  8
0
 10
123.0713919681789008
 20
-9.1470093868714422
 30
0.0
 40
0.0365936573209071
 50
235.7324876966675902
 51
304.3137099681762834
  0
ARC
  5
14606
  8
0
 10
123.0728777944125056
 20
-9.2099359520423452
 30
0.0
 40
0.0378924921618703
 50
267.7527410447610237
 51
92.2472589552389195
  0
ARC
  5
14607
  8
0
 10
123.0699134548898002
 20
-9.2099359520423452
 30
0.0
 40
0.0378922049689754
 50
87.7638344757198325
 51
272.2361655242793859
  0
ARC
  5
14608
  8
0
 10
123.0732415821817938
 20
-9.2131721978923462
 30
0.0
 40
0.0492570939929239
 50
267.8480087438181272
 51
92.1519912561819581
  0
ARC
  5
14609
  8
0
 10
123.0695423249132006
 20
-9.2131721978923462
 30
0.0
 40
0.0492570939925325
 50
87.8480087559324403
 51
272.1519912440675739
  0
ARC
  5
1460A
  8
0
 10
123.0713744109301047
 20
-9.2014032577485914
 30
0.0
 40
0.0350591494856689
 50
157.7498649834724915
 51
22.5059612230052402
  0
ARC
  5
1460B
  8
0
 10
123.0713390622070023
 20
-9.2006382958337252
 30
0.0
 40
0.03961024014235
 50
188.5855639739959884
 51
352.102793953033995
  0
ARC
  5
1460C
  8
0
 10
123.0661973163425955
 20
-9.1974982915265606
 30
0.0
 40
0.0751970315304917
 50
133.3142872309427105
 51
192.0308209365994117
  0
ARC
  5
1460D
  8
0
 10
123.0708413075679033
 20
-9.2155528497388541
 30
0.0
 40
0.0782256001941124
 50
9.1429649106668194
 51
178.2560392920028107
  0
ARC
  5
1460E
  8
0
 10
123.0705496217638029
 20
-9.2110416659420409
 30
0.0
 40
0.0779268106122081
 50
181.5666712769840103
 51
5.8323329256858933
  0
ARC
  5
1460F
  8
0
 10
123.0698199541142941
 20
-9.1990790677395289
 30
0.0
 40
0.0783575085697062
 50
357.0417799085640809
 51
94.5391636593374756
  0
ARC
  5
14610
  8
0
 10
122.5644143215788944
 20
-9.4218317323714391
 30
0.0
 40
0.0365936573209071
 50
235.7324876966675902
 51
304.3137099681762834
  0
ARC
  5
14611
  8
0
 10
122.5659001478124992
 20
-9.4847582975423492
 30
0.0
 40
0.0378924921618703
 50
267.7527410447610237
 51
92.2472589552389195
  0
ARC
  5
14612
  8
0
 10
122.5629358082897937
 20
-9.4847582975423457
 30
0.0
 40
0.0378922049689754
 50
87.7638344757198325
 51
272.2361655242793859
  0
ARC
  5
14613
  8
0
 10
122.5662639355818015
 20
-9.4879945433923467
 30
0.0
 40
0.0492570939929239
 50
267.8480087438181272
 51
92.1519912561819581
  0
ARC
  5
14614
  8
0
 10
122.5625646783131941
 20
-9.4879945433923467
 30
0.0
 40
0.0492570939925325
 50
87.8480087559324403
 51
272.1519912440675739
  0
ARC
  5
14615
  8
0
 10
122.5643967643300982
 20
-9.4762256032485901
 30
0.0
 40
0.0350591494856689
 50
157.7498649834724915
 51
22.5059612230052402
  0
ARC
  5
14616
  8
0
 10
122.5643614156069958
 20
-9.4754606413337292
 30
0.0
 40
0.03961024014235
 50
188.5855639739959884
 51
352.102793953033995
  0
ARC
  5
14617
  8
0
 10
122.5795140408933008
 20
-9.4844883689549349
 30
0.0
 40
0.0939052248477725
 50
148.7230151452953919
 51
182.1397712136752034
  0
ARC
  5
14618
  8
0
 10
122.5651908219896029
 20
-9.4917077670283092
 30
0.0
 40
0.0796031793824419
 50
6.8338027267636416
 51
177.3263721282878862
  0
ARC
  5
14619
  8
0
 10
122.5649256172901005
 20
-9.4844059423838374
 30
0.0
 40
0.0793325293544214
 50
182.5926549060536104
 51
1.567519948997919
  0
ARC
  5
1461A
  8
0
 10
122.564173524541701
 20
-9.4814729130409532
 30
0.0
 40
0.0800585694328894
 50
359.4540115520139238
 51
107.3687207395511933
  0
ARC
  5
1461B
  8
0
 10
122.5642420648697026
 20
-9.6349859287935171
 30
0.0
 40
0.0365936573209071
 50
235.7324876966675902
 51
304.3137099681762834
  0
ARC
  5
1461C
  8
0
 10
122.5657278911032932
 20
-9.6979124939644237
 30
0.0
 40
0.0378924921618703
 50
267.7527410447610237
 51
92.2472589552389195
  0
ARC
  5
1461D
  8
0
 10
122.562763551580602
 20
-9.6979124939644237
 30
0.0
 40
0.0378922049689754
 50
87.7638344757198325
 51
272.2361655242793859
  0
ARC
  5
1461E
  8
0
 10
122.5660916788725956
 20
-9.7011487398144212
 30
0.0
 40
0.0492570939929239
 50
267.8480087438181272
 51
92.1519912561819581
  0
ARC
  5
1461F
  8
0
 10
122.5623924216039029
 20
-9.7011487398144212
 30
0.0
 40
0.0492570939925325
 50
87.8480087559324403
 51
272.1519912440675739
  0
ARC
  5
14620
  8
0
 10
122.5642245076209065
 20
-9.6893797996706681
 30
0.0
 40
0.0350591494856689
 50
157.7498649834724915
 51
22.5059612230052402
  0
ARC
  5
14621
  8
0
 10
122.5641891588977046
 20
-9.6886148377558037
 30
0.0
 40
0.03961024014235
 50
188.5855639739959884
 51
352.102793953033995
  0
ARC
  5
14622
  8
0
 10
122.5588173118127031
 20
-9.6897756136384388
 30
0.0
 40
0.0741921653239804
 50
104.6678745704644058
 51
188.8177986837625042
  0
ARC
  5
14623
  8
0
 10
122.5644557241147936
 20
-9.7042968276101078
 30
0.0
 40
0.0790164225643936
 50
6.3837318018826519
 51
177.7166784363664078
  0
ARC
  5
14624
  8
0
 10
122.5642345679108018
 20
-9.6981189538171009
 30
0.0
 40
0.0787908046349835
 50
182.2037692793375072
 51
1.89664095891134
  0
ARC
  5
14625
  8
0
 10
122.5623647779054011
 20
-9.6960518327313707
 30
0.0
 40
0.080619242172585
 50
0.3841948166506714
 51
71.3986162800106428
  0
ARC
  5
14626
  8
0
 10
122.566121827859007
 20
-9.8468826126285727
 30
0.0
 40
0.0365936573209071
 50
235.7324876966675902
 51
304.3137099681762834
  0
ARC
  5
14627
  8
0
 10
122.5676076540926971
 20
-9.9098091777994775
 30
0.0
 40
0.0378924921618703
 50
267.7527410447610237
 51
92.2472589552389195
  0
ARC
  5
14628
  8
0
 10
122.5646433145700058
 20
-9.9098091777994775
 30
0.0
 40
0.0378922049689754
 50
87.7638344757198325
 51
272.2361655242793859
  0
ARC
  5
14629
  8
0
 10
122.5679714418619
 20
-9.9130454236494732
 30
0.0
 40
0.0492570939929239
 50
267.8480087438181272
 51
92.1519912561819581
  0
ARC
  5
1462A
  8
0
 10
122.5642721845933067
 20
-9.9130454236494732
 30
0.0
 40
0.0492570939925325
 50
87.8480087559324403
 51
272.1519912440675739
  0
ARC
  5
1462B
  8
0
 10
122.5661042706101966
 20
-9.9012764835057183
 30
0.0
 40
0.0350591494856689
 50
157.7498649834724915
 51
22.5059612230052402
  0
ARC
  5
1462C
  8
0
 10
122.5660689218870942
 20
-9.9005115215908575
 30
0.0
 40
0.03961024014235
 50
188.5855639739959884
 51
352.102793953033995
  0
ARC
  5
1462D
  8
0
 10
122.560975225987093
 20
-9.9009276061916154
 30
0.0
 40
0.0745844067147156
 50
114.1183571864810062
 51
189.3503621683908875
  0
ARC
  5
1462E
  8
0
 10
122.566335487104098
 20
-9.9161935114451616
 30
0.0
 40
0.0790164225643936
 50
6.3837318018826519
 51
177.7166784363664078
  0
ARC
  5
1462F
  8
0
 10
122.5661143309002057
 20
-9.9100156376521547
 30
0.0
 40
0.0787908046349835
 50
182.2037692793375072
 51
1.89664095891134
  0
ARC
  5
14630
  8
0
 10
122.5658364655490971
 20
-9.9053368373918182
 30
0.0
 40
0.079052639939772
 50
358.4987407059683164
 51
79.1370208736566099
  0
ARC
  5
14631
  8
0
 10
122.563583931132797
 20
-9.9138339851204478
 30
0.0
 40
0.0814418620068944
 50
78.6115173886823442
 51
113.9767812914363958
  0
ARC
  5
14632
  8
0
 10
122.5613522989555975
 20
-9.7031123349942163
 30
0.0
 40
0.0814655631724703
 50
70.8468419008159742
 51
104.7188299624575052
  0
ARC
  5
14633
  8
0
 10
123.4508373710627041
 20
-9.4198874708147713
 30
0.0
 40
0.0802448923901717
 50
123.6064314404980991
 51
159.7137068617385864
  0
ARC
  5
14634
  8
0
 10
123.4509790776933045
 20
-9.4111437554308708
 30
0.0
 40
0.0784804162252821
 50
27.7228768737865394
 51
124.5931077198488026
  0
ARC
  5
14635
  8
0
 10
123.1890166777158981
 20
-10.5611991884375698
 30
0.0
 40
0.0442513366610766
 50
18.1483241548228591
 51
162.5759175542063986
  0
ARC
  5
14636
  8
0
 10
123.1889733538760936
 20
-10.5543444599969707
 30
0.0
 40
0.0426597199669157
 50
171.3771274831557037
 51
9.3471142258743924
  0
ARC
  5
14637
  8
0
 10
123.1888446128359931
 20
-10.5342547253589807
 30
0.0
 40
0.0442223804874938
 50
198.0385490598773117
 51
342.7717020265806127
  0
ARC
  5
14638
  8
0
 10
123.1895587070569036
 20
-10.5673660567222907
 30
0.0
 40
0.079594511493973
 50
64.3218061401149583
 51
134.927982065606102
  0
ARC
  5
14639
  8
0
 10
123.1895488235012976
 20
-10.5618641684149406
 30
0.0
 40
0.0795456928083934
 50
64.2969978863787048
 51
134.953007567705896
  0
ARC
  5
1463A
  8
0
 10
123.1828955881373986
 20
-10.5561978114050508
 30
0.0
 40
0.0686471866724519
 50
175.7730046477352062
 51
251.5821006115191949
  0
ARC
  5
1463B
  8
0
 10
123.1974609333906017
 20
-10.5565318943386295
 30
0.0
 40
0.0661228157278004
 50
308.6409310807882775
 51
26.5039870632555008
  0
ARC
  5
1463C
  8
0
 10
123.0282059111421944
 20
-9.6046194141111272
 30
0.0
 40
1.0386326267619239
 50
243.2541777570368993
 51
277.4959474821229719
  0
ARC
  5
1463D
  8
0
 10
123.0371392851010057
 20
-9.6289879304498385
 30
0.0
 40
1.0130141565864319
 50
281.6237566415978222
 51
316.4579110335079122
  0
ARC
  5
1463E
  8
0
 10
123.089198337915505
 20
-9.6751983080890032
 30
0.0
 40
0.9431161432481356
 50
320.9916624436770007
 51
357.5472862235570233
  0
ARC
  5
1463F
  8
0
 10
123.089029319978593
 20
-9.6802239771513676
 30
0.0
 40
0.9432872925838397
 50
2.4543881846598721
 51
39.0032513629728612
  0
ARC
  5
14640
  8
0
 10
123.0367399393356038
 20
-9.7270993970612771
 30
0.0
 40
1.013799030631134
 50
43.5548652650251782
 51
78.3611512070571905
  0
ARC
  5
14641
  8
0
 10
123.0282068428819997
 20
-9.7507221826458981
 30
0.0
 40
1.038606453901999
 50
82.5026795239417936
 51
116.7453640023566948
  0
ARC
  5
14642
  8
0
 10
122.9959218367436051
 20
-9.6974243350807434
 30
0.0
 40
0.9760973863602488
 50
121.0396295824895958
 51
156.7504550221810007
  0
ARC
  5
14643
  8
0
 10
122.9549498375398002
 20
-9.6776838805730065
 30
0.0
 40
0.9305882421298864
 50
161.5570365807031976
 51
198.4417611584644874
  0
ARC
  5
14644
  8
0
 10
122.9957865718301946
 20
-9.6580575558717463
 30
0.0
 40
0.9759281653088203
 50
203.2454015465606005
 51
238.9626049729195927
  0
ARC
  5
14645
  8
0
 10
122.5562894557689049
 20
-10.4498970969601501
 30
0.0
 40
0.0654153242388998
 50
131.4989152289984986
 51
210.2556349592049116
  0
ARC
  5
14646
  8
0
 10
122.5646516300412969
 20
-10.4592960258093193
 30
0.0
 40
0.0776489742307235
 50
24.9831009775446802
 51
96.9362798890436181
  0
ARC
  5
14647
  8
0
 10
122.565424666187198
 20
-10.4552489675906894
 30
0.0
 40
0.0441833538505687
 50
16.3478291192284395
 51
161.4556965894315113
  0
ARC
  5
14648
  8
0
 10
122.5655498213207011
 20
-10.4487203387499097
 30
0.0
 40
0.0426826946671083
 50
169.8478757249434921
 51
7.9556499837160191
  0
ARC
  5
14649
  8
0
 10
122.565926118751193
 20
-10.4287418991310705
 30
0.0
 40
0.0441953689887123
 50
196.4068225552499882
 51
341.4350804805233111
  0
ARC
  5
1464A
  8
0
 10
122.1580684804767003
 20
-9.9871864916550699
 30
0.0
 40
0.0441833538505687
 50
16.3478291192284395
 51
161.4556965894315113
  0
ARC
  5
1464B
  8
0
 10
122.1581936356101039
 20
-9.9806578628142866
 30
0.0
 40
0.0426826946671083
 50
169.8478757249434921
 51
7.9556499837160191
  0
ARC
  5
1464C
  8
0
 10
122.1585699330406953
 20
-9.9606794231954492
 30
0.0
 40
0.0441953689887123
 50
196.4068225552499882
 51
341.4350804805233111
  0
ARC
  5
1464D
  8
0
 10
122.1578105172329032
 20
-9.3800828371206251
 30
0.0
 40
0.0441833538505687
 50
16.3478291192284395
 51
161.4556965894315113
  0
ARC
  5
1464E
  8
0
 10
122.1579356723664063
 20
-9.3735542082798418
 30
0.0
 40
0.0426826946671083
 50
169.8478757249434921
 51
7.9556499837160191
  0
ARC
  5
1464F
  8
0
 10
122.1583119697969977
 20
-9.3535757686610026
 30
0.0
 40
0.0441953689887123
 50
196.4068225552499882
 51
341.4350804805233111
  0
ARC
  5
14650
  8
0
 10
122.5655181006917047
 20
-8.9137845637410535
 30
0.0
 40
0.0441833538505687
 50
16.3478291192284395
 51
161.4556965894315113
  0
ARC
  5
14651
  8
0
 10
122.5656432558251936
 20
-8.9072559349002702
 30
0.0
 40
0.0426826946671083
 50
169.8478757249434921
 51
7.9556499837160191
  0
ARC
  5
14652
  8
0
 10
122.5660195532556997
 20
-8.8872774952814311
 30
0.0
 40
0.0441953689887123
 50
196.4068225552499882
 51
341.4350804805233111
  0
ARC
  5
14653
  8
0
 10
123.1877574840270029
 20
-8.8089735635679922
 30
0.0
 40
0.0441833538505687
 50
16.3478291192284395
 51
161.4556965894315113
  0
ARC
  5
14654
  8
0
 10
123.1878826391604065
 20
-8.8024449347272071
 30
0.0
 40
0.0426826946671083
 50
169.8478757249434921
 51
7.9556499837160191
  0
ARC
  5
14655
  8
0
 10
123.1882589365909979
 20
-8.7824664951083733
 30
0.0
 40
0.0441953689887123
 50
196.4068225552499882
 51
341.4350804805233111
  0
ARC
  5
14656
  8
0
 10
123.739772353257294
 20
-9.1117482623168282
 30
0.0
 40
0.0441833538505687
 50
16.3478291192284395
 51
161.4556965894315113
  0
ARC
  5
14657
  8
0
 10
123.739897508390797
 20
-9.1052196334760467
 30
0.0
 40
0.0426826946671083
 50
169.8478757249434921
 51
7.9556499837160191
  0
ARC
  5
14658
  8
0
 10
123.7402738058213032
 20
-9.0852411938572075
 30
0.0
 40
0.0441953689887123
 50
196.4068225552499882
 51
341.4350804805233111
  0
ARC
  5
14659
  8
0
 10
123.9540442016245976
 20
-9.6838417126271565
 30
0.0
 40
0.0441833538505687
 50
16.3478291192284395
 51
161.4556965894315113
  0
ARC
  5
1465A
  8
0
 10
123.9541693567580012
 20
-9.6773130837863732
 30
0.0
 40
0.0426826946671083
 50
169.8478757249434921
 51
7.9556499837160191
  0
ARC
  5
1465B
  8
0
 10
123.9545456541886068
 20
-9.6573346441675341
 30
0.0
 40
0.0441953689887123
 50
196.4068225552499882
 51
341.4350804805233111
  0
ARC
  5
1465C
  8
0
 10
123.7396368103593005
 20
-10.2591881589184393
 30
0.0
 40
0.0441833538505687
 50
16.3478291192284395
 51
161.4556965894315113
  0
ARC
  5
1465D
  8
0
 10
123.7397619654928036
 20
-10.2526595300776595
 30
0.0
 40
0.0426826946671083
 50
169.8478757249434921
 51
7.9556499837160191
  0
ARC
  5
1465E
  8
0
 10
123.740138262923395
 20
-10.2326810904588203
 30
0.0
 40
0.0441953689887123
 50
196.4068225552499882
 51
341.4350804805233111
  0
ARC
  5
1465F
  8
0
 10
122.5696024929738996
 20
-10.4491344379129796
 30
0.0
 40
0.0716014268981118
 50
268.6996286855442122
 51
342.7773482848555773
  0
ARC
  5
14660
  8
0
 10
123.6310690051219012
 20
-10.7974890880265697
 30
0.0
 40
0.7817266954739736
 50
137.2604181994686883
 51
147.7458806263281872
  0
ARC
  5
14661
  8
0
 10
123.623208777865301
 20
-10.7960367154288406
 30
0.0
 40
0.8206405291202779
 50
137.9238925350169893
 51
147.824758880114814
  0
ARC
  5
14662
  8
0
 10
123.6226143506842021
 20
-10.7891336102619793
 30
0.0
 40
0.8199383219669304
 50
138.2391594752324124
 51
147.5804702951722049
  0
ARC
  5
14663
  8
0
 10
123.6933705036116038
 20
-10.8644200350410696
 30
0.0
 40
0.9235845131984017
 50
123.6416751615399932
 51
127.617759598300907
  0
ARC
  5
14664
  8
0
 10
123.6907640322089037
 20
-10.8672684327373208
 30
0.0
 40
0.919090567593807
 50
123.5561425415889971
 51
127.6285085360512994
  0
ARC
  5
14665
  8
0
 10
123.6893462183811039
 20
-10.8592994055111998
 30
0.0
 40
0.8668827592330663
 50
124.0529716176503001
 51
128.6480775301664039
  0
ARC
  5
14666
  8
0
 10
123.7192030464124031
 20
-10.9143154436420904
 30
0.0
 40
0.9741390447997178
 50
110.7310793042987029
 51
114.6293106042002989
  0
ARC
  5
14667
  8
0
 10
123.7192605635802067
 20
-10.9078971246147898
 30
0.0
 40
0.9742481490391874
 50
110.8337040899832004
 51
114.6301161585958965
  0
ARC
  5
14668
  8
0
 10
123.7137053271779052
 20
-10.8838745141283404
 30
0.0
 40
0.9495541862947536
 50
92.2144500049295885
 51
101.347133023341101
  0
ARC
  5
14669
  8
0
 10
123.7136800422164953
 20
-10.8904163116852502
 30
0.0
 40
0.9495729140706425
 50
91.9895993463908184
 51
101.3453487283621968
  0
ARC
  5
1466A
  8
0
 10
123.7116138201082975
 20
-10.8862815937808897
 30
0.0
 40
0.9006496666956291
 50
92.0279332221802377
 51
102.0189036346144036
  0
ARC
  5
1466B
  8
0
 10
121.8172438634125996
 20
-9.6946628418423657
 30
0.0
 40
0.7265236439999625
 50
328.4015147310998941
 51
339.4317422240002884
  0
ARC
  5
1466C
  8
0
 10
121.8188999624717042
 20
-9.7020076895471696
 30
0.0
 40
0.7246841725965789
 50
328.2569718083680073
 51
339.7921054109626766
  0
ARC
  5
1466D
  8
0
 10
121.8229339344854054
 20
-9.7023231359856226
 30
0.0
 40
0.7681397391182831
 50
328.1674678620190093
 51
338.5258756576092765
  0
ARC
  5
1466E
  8
0
 10
122.3818466643013068
 20
-10.2179544473325503
 30
0.0
 40
0.1448595947854714
 50
49.7008028402807369
 51
68.3956536116788385
  0
ARC
  5
1466F
  8
0
 10
122.8931160735204031
 20
-10.4757697047509293
 30
0.0
 40
0.1220065747417105
 50
51.1349497452662192
 51
73.0922377396092315
  0
ARC
  5
14670
  8
0
 10
123.7014942282063004
 20
-10.8709043514156001
 30
0.0
 40
0.882859735832204
 50
109.8920069074244026
 51
114.3628688492259045
  0
ARC
  5
14671
  8
0
 10
124.9360460270622042
 20
-10.3839941545166194
 30
0.0
 40
1.234220890082034
 50
147.7168265621276078
 51
153.2863577466515892
  0
ARC
  5
14672
  8
0
 10
124.9414239118189016
 20
-10.3923438235605996
 30
0.0
 40
1.240332576515156
 50
147.5695990949508882
 51
153.2789155627336015
  0
ARC
  5
14673
  8
0
 10
123.8112465740458958
 20
-9.9614359782852162
 30
0.0
 40
0.1287516748499007
 50
59.2540085001401167
 51
80.0237732555219452
  0
ARC
  5
14674
  8
0
 10
124.9387711099276999
 20
-10.3881266363747997
 30
0.0
 40
1.1899368081427499
 50
147.6153804222124961
 51
153.1553514306716011
  0
ARC
  5
14675
  8
0
 10
123.9505767316265974
 20
-9.6736936855218154
 30
0.0
 40
0.0788848788364127
 50
257.7975666807890889
 51
327.4646263073939281
  0
ARC
  5
14676
  8
0
 10
123.9484417981680053
 20
-9.6828955761815365
 30
0.0
 40
0.0697704292857981
 50
140.5964954099439126
 51
219.4035036397145859
  0
ARC
  5
14677
  8
0
 10
123.9563507052574067
 20
-9.6820972962041623
 30
0.0
 40
0.0736719649135504
 50
34.4788019318857906
 51
107.7403409696327969
  0
ARC
  5
14678
  8
0
 10
124.7977562721004006
 20
-9.0391559061870836
 30
0.0
 40
1.084047871616719
 50
207.3740937624914125
 51
213.571283652373296
  0
ARC
  5
14679
  8
0
 10
124.8067213377289022
 20
-9.0346495805414726
 30
0.0
 40
1.046452872060303
 50
207.556154106304092
 51
213.4805505869543936
  0
ARC
  5
1467A
  8
0
 10
124.8066372500417032
 20
-9.0292495192492197
 30
0.0
 40
1.0463582593137131
 50
207.801047474947211
 51
213.4810114732337922
  0
ARC
  5
1467B
  8
0
 10
123.9563263957768982
 20
-9.6767310264678947
 30
0.0
 40
0.0737390845727608
 50
34.5197345533035715
 51
107.7038285239980979
  0
ARC
  5
1467C
  8
0
 10
123.6547569094973937
 20
-8.5704510060977483
 30
0.0
 40
0.8682272623748465
 50
261.6378504801986082
 51
271.7135495698418026
  0
ARC
  5
1467D
  8
0
 10
123.6567101669067057
 20
-8.5679434787316211
 30
0.0
 40
0.818118519917869
 50
260.4125716526522751
 51
271.4847314915417087
  0
ARC
  5
1467E
  8
0
 10
123.6567370006124946
 20
-8.5743771846423087
 30
0.0
 40
0.8182084175000369
 50
260.4118532770605725
 51
271.611098279799819
  0
ARC
  5
1467F
  8
0
 10
124.8566397859543997
 20
-9.0181718772334065
 30
0.0
 40
1.1468288908246631
 50
188.1786679140155059
 51
194.3150531200668922
  0
ARC
  5
14680
  8
0
 10
123.8099396407118036
 20
-9.4212808945891311
 30
0.0
 40
0.135849987262033
 50
98.1485710408880863
 51
118.3558650019189002
  0
ARC
  5
14681
  8
0
 10
124.8603071630945038
 20
-9.0162833309957833
 30
0.0
 40
1.1033005502395941
 50
188.2558178152200128
 51
194.1931093027241957
  0
ARC
  5
14682
  8
0
 10
124.858285717412798
 20
-9.0112765805422903
 30
0.0
 40
1.1012337250002739
 50
188.5285150969008896
 51
194.196866950109893
  0
ARC
  5
14683
  8
0
 10
123.7357164889004935
 20
-9.1060997489050486
 30
0.0
 40
0.0760142964611878
 50
295.4990291289291235
 51
7.6354289132344686
  0
ARC
  5
14684
  8
0
 10
123.7391011981905962
 20
-9.1065812470407632
 30
0.0
 40
0.0770587680481619
 50
73.9177787639686841
 51
145.4559380861122122
  0
ARC
  5
14685
  8
0
 10
123.7390944496248011
 20
-9.1120159081035155
 30
0.0
 40
0.0770475983782758
 50
73.9102601216667949
 51
145.4591535481424955
  0
ARC
  5
14686
  8
0
 10
123.7335477340320011
 20
-9.1110321418415658
 30
0.0
 40
0.071315897754786
 50
181.9553550431517976
 51
260.2517543352965959
  0
ARC
  5
14687
  8
0
 10
124.0546980105984005
 20
-7.800025550127323
 30
0.0
 40
1.370810431675016
 50
248.2352455070104043
 51
253.3651041109255004
  0
ARC
  5
14688
  8
0
 10
123.9823401699602954
 20
-8.0266932844868712
 30
0.0
 40
1.0858057352250381
 50
247.5357293004852863
 51
253.5937025011857031
  0
ARC
  5
14689
  8
0
 10
123.9890555359738045
 20
-8.0035322731302152
 30
0.0
 40
1.1047472267031859
 50
247.6317748332193958
 51
253.5182959663854092
  0
ARC
  5
1468A
  8
0
 10
123.1894019023068978
 20
-8.8049301604753225
 30
0.0
 40
0.075240050782136
 50
111.9913065919221964
 51
185.0638672555060111
  0
ARC
  5
1468B
  8
0
 10
123.1903639532285979
 20
-8.8037389462719204
 30
0.0
 40
0.0735869520460602
 50
334.2696776699381758
 51
48.8662424427639976
  0
ARC
  5
1468C
  8
0
 10
123.9923429104448047
 20
-8.0009866698508176
 30
0.0
 40
1.1085459469108909
 50
228.5357005438532951
 51
234.4338832296193118
  0
ARC
  5
1468D
  8
0
 10
124.0476908452901057
 20
-7.9402889852445879
 30
0.0
 40
1.194769283556756
 50
228.5410814589299946
 51
234.1183208414877015
  0
ARC
  5
1468E
  8
0
 10
123.9928181928491
 20
-8.0058386749698691
 30
0.0
 40
1.156718434024893
 50
228.3487132754432025
 51
234.5379453488403101
  0
ARC
  5
1468F
  8
0
 10
123.4434389113124979
 20
-8.9986695176423552
 30
0.0
 40
0.1318388651000179
 50
136.6516406985016943
 51
157.3909738599986952
  0
ARC
  5
14690
  8
0
 10
122.6910183285273064
 20
-7.7619971815223892
 30
0.0
 40
1.126723216059303
 50
286.1166859316256819
 51
292.0586518278385029
  0
ARC
  5
14691
  8
0
 10
122.6915359193527024
 20
-7.7688055554059998
 30
0.0
 40
1.1252650378186371
 50
286.1101794881013234
 51
292.0762388058016086
  0
ARC
  5
14692
  8
0
 10
122.6863436915857051
 20
-7.756639351470433
 30
0.0
 40
1.1856232493216521
 50
286.0600755713546732
 51
292.1504981130669876
  0
ARC
  5
14693
  8
0
 10
123.1885251360327942
 20
-8.8046428816480429
 30
0.0
 40
0.0745222377467707
 50
222.2609067149653015
 51
298.486408714365723
  0
ARC
  5
14694
  8
0
 10
123.7054546572247062
 20
-8.5670661085002173
 30
0.0
 40
0.8995902519474579
 50
210.2806275762013968
 51
219.807611702544591
  0
ARC
  5
14695
  8
0
 10
122.8866085200841951
 20
-8.894230239142292
 30
0.0
 40
0.1332334711276011
 50
288.3715529644376829
 51
308.7329278825558845
  0
ARC
  5
14696
  8
0
 10
123.6739598074670994
 20
-8.5801130500508513
 30
0.0
 40
0.8154996123374531
 50
210.6672875676578087
 51
221.54578421635361
  0
ARC
  5
14697
  8
0
 10
123.6478558845416984
 20
-8.6136099442201832
 30
0.0
 40
0.824979248935848
 50
231.3616230181939954
 51
235.7219284215532866
  0
ARC
  5
14698
  8
0
 10
123.6511484412521042
 20
-8.6092607723726147
 30
0.0
 40
0.7832850823952529
 50
230.0627623913549087
 51
235.4478197974094087
  0
ARC
  5
14699
  8
0
 10
123.6516851471554048
 20
-8.6020126952161391
 30
0.0
 40
0.7841938292933852
 50
230.043678160179212
 51
235.4459298629442117
  0
ARC
  5
1469A
  8
0
 10
123.6490524925225998
 20
-8.6105303592406681
 30
0.0
 40
0.7811604031814501
 50
246.5497993380598132
 51
251.9045261614691071
  0
ARC
  5
1469B
  8
0
 10
123.6717020134703944
 20
-8.5396572597433078
 30
0.0
 40
0.8493704851861071
 50
246.9150280573749967
 51
251.8005916277523966
  0
ARC
  5
1469C
  8
0
 10
123.6305385470811018
 20
-8.6509100321319679
 30
0.0
 40
0.783726358900358
 50
246.3760671360024901
 51
251.016106800187913
  0
ARC
  5
1469D
  8
0
 10
122.5641646810781964
 20
-8.912107699260801
 30
0.0
 40
0.0764407778331183
 50
14.9718524524663703
 51
87.1275106267998467
  0
ARC
  5
1469E
  8
0
 10
122.5652765944376057
 20
-8.9089173778304911
 30
0.0
 40
0.0743812437033109
 50
151.6726685307513947
 51
225.3059177577877961
  0
ARC
  5
1469F
  8
0
 10
122.5674083277830988
 20
-8.9113980382801827
 30
0.0
 40
0.0731581777708504
 50
260.466946656638811
 51
337.6134648895111923
  0
ARC
  5
146A0
  8
0
 10
122.6947354503231935
 20
-7.7716808706856488
 30
0.0
 40
1.169104067131097
 50
267.0737928846406817
 51
273.1909892207257826
  0
ARC
  5
146A1
  8
0
 10
122.6935674615159968
 20
-7.7678134041833751
 30
0.0
 40
1.1259196515370069
 50
267.1717062188649834
 51
273.1303809165185044
  0
ARC
  5
146A2
  8
0
 10
121.5502534213748049
 20
-8.4389713177994459
 30
0.0
 40
1.1430941717564
 50
325.3469235661228822
 51
331.5491982809708134
  0
ARC
  5
146A3
  8
0
 10
121.5473815091121992
 20
-8.4313524907639348
 30
0.0
 40
1.0990753259115129
 50
325.4620036577587143
 51
331.2647653132980281
  0
ARC
  5
146A4
  8
0
 10
121.5481157718189991
 20
-8.4372310728858224
 30
0.0
 40
1.098223482112433
 50
325.4589529974040261
 51
331.4682382697540106
  0
ARC
  5
146A5
  8
0
 10
122.3910587656842068
 20
-9.1794976080794726
 30
0.0
 40
0.1345509749237423
 50
42.3013780355145528
 51
62.7123970289925197
  0
ARC
  5
146A6
  8
0
 10
121.5679128478275004
 20
-8.4518555245444205
 30
0.0
 40
1.073601719358779
 50
306.1996318284978997
 51
312.1409731255633915
  0
ARC
  5
146A7
  8
0
 10
121.5728561671293022
 20
-8.4553584605458099
 30
0.0
 40
1.1151839849676151
 50
306.1075968803580736
 51
312.259613740425209
  0
ARC
  5
146A8
  8
0
 10
122.1614701832062053
 20
-9.3715051794790121
 30
0.0
 40
0.0777071479922655
 50
192.6858997366556139
 51
263.442059599012282
  0
ARC
  5
146A9
  8
0
 10
122.1567359621968052
 20
-9.3795703138000022
 30
0.0
 40
0.0762377452169847
 50
53.5946818963554605
 51
125.3803422732797941
  0
ARC
  5
146AA
  8
0
 10
122.1639771493237987
 20
-9.3789088037866257
 30
0.0
 40
0.0698132742148324
 50
299.6714023653681807
 51
18.8708185695754196
  0
ARC
  5
146AB
  8
0
 10
122.1967309441665037
 20
-9.6929953334319023
 30
0.0
 40
0.134023941346594
 50
80.7627440902037392
 51
101.0675390103890976
  0
ARC
  5
146AC
  8
0
 10
121.0452233840241973
 20
-9.6893736881821653
 30
0.0
 40
1.1800567438239551
 50
6.2595341920805243
 51
12.2213794248784993
  0
ARC
  5
146AD
  8
0
 10
121.045496420507007
 20
-9.6873123295565602
 30
0.0
 40
1.1325202666499281
 50
6.379928886725966
 51
12.1263338411811592
  0
ARC
  5
146AE
  8
0
 10
121.7195531568687983
 20
-9.7063274919281568
 30
0.0
 40
0.8253225231372976
 50
19.1390995799814583
 51
29.8829352823424088
  0
ARC
  5
146AF
  8
0
 10
121.7102831659125997
 20
-9.7059348544423223
 30
0.0
 40
0.8828410775999442
 50
19.9253757799996585
 51
29.4175260076002409
  0
ARC
  5
146B0
  8
0
 10
121.7666309506230959
 20
-9.6990955081258292
 30
0.0
 40
0.8246818156824119
 50
5.0741619420943911
 51
9.3678558033630122
  0
ARC
  5
146B1
  8
0
 10
121.752631870377499
 20
-9.6942330010281932
 30
0.0
 40
0.838778648978422
 50
5.1016446640122588
 51
8.8892501528169632
  0
ARC
  5
146B2
  8
0
 10
121.7549098351260994
 20
-9.6986769780339444
 30
0.0
 40
0.7892544769995032
 50
5.4059391963403067
 51
10.2258464201485797
  0
ARC
  5
146B3
  8
0
 10
121.805079785090598
 20
-9.6986385924962875
 30
0.0
 40
0.7389433475036169
 50
349.0170545832580729
 51
354.2110289644406862
  0
ARC
  5
146B4
  8
0
 10
121.7312702030852023
 20
-9.6793759906325771
 30
0.0
 40
0.8138311553145268
 50
349.1260546648780974
 51
353.3945610657027032
  0
ARC
  5
146B5
  8
0
 10
121.8059576939568984
 20
-9.6995590734958128
 30
0.0
 40
0.7853048935575468
 50
350.1429425784551199
 51
354.5863037195318839
  0
ARC
  5
146B6
  8
0
 10
121.1335164558500992
 20
-9.6865203880167847
 30
0.0
 40
1.0441489813776119
 50
347.417803301277786
 51
353.2521304664160198
  0
ARC
  5
146B7
  8
0
 10
122.1540651222568954
 20
-9.9843163196066591
 30
0.0
 40
0.0703540031460522
 50
91.2016814955428572
 51
166.5071984928316908
  0
ARC
  5
146B8
  8
0
 10
122.1663677559213994
 20
-9.9859448296306752
 30
0.0
 40
0.0678573538865019
 50
339.751840118456812
 51
61.7076894434688512
  0
ARC
  5
146B9
  8
0
 10
121.1388570490885002
 20
-9.6882271081943863
 30
0.0
 40
1.08606402563893
 50
347.3432868297899176
 51
353.4603955275719045
  0
ARC
  5
146BA
  8
0
 10
122.1611776639170017
 20
-9.9774671892774585
 30
0.0
 40
0.0784518635333103
 50
231.7300701966196925
 51
301.3347408053742811
  0
ARC
  5
146BB
  8
0
 10
121.4302349222297011
 20
-11.0394062494583007
 30
0.0
 40
1.2591541165610429
 50
46.9117759410521913
 51
52.200218639245783
  0
ARC
  5
146BC
  8
0
 10
121.4264531380781023
 20
-11.0468043127971303
 30
0.0
 40
1.3122062560032379
 50
46.7866886442013126
 51
52.2376728741252023
  0
ARC
  5
146BD
  8
0
 10
121.4272804279719935
 20
-11.0403749887751701
 30
0.0
 40
1.3109194941961411
 50
46.7834635587113326
 51
52.1605287927360024
  0
ARC
  5
146BE
  8
0
 10
121.5190305073904966
 20
-10.9644075859417303
 30
0.0
 40
1.142542429472164
 50
29.5512760375397292
 51
34.9653516620053679
  0
ARC
  5
146BF
  8
0
 10
121.5191690900371952
 20
-10.9685601806275503
 30
0.0
 40
1.1905100981005341
 50
29.50606066174673
 51
35.2124591836706173
  0
ARC
  5
146C0
  8
0
 10
121.5197667331123057
 20
-10.9627674409088804
 30
0.0
 40
1.1898177372854359
 50
29.5055959069285585
 51
35.0374326996310117
  0
ARC
  5
146C1
  8
0
 10
122.6559862701597012
 20
-11.8133743881904394
 30
0.0
 40
1.3870287428909021
 50
85.6686175845747897
 51
90.8654511127069355
  0
ARC
  5
146C2
  8
0
 10
122.6574263089280947
 20
-11.8012417582062596
 30
0.0
 40
1.3310469898976269
 50
85.8040768790409203
 51
90.8365566548040135
  0
ARC
  5
146C3
  8
0
 10
122.6665564472126988
 20
-11.7685592589417407
 30
0.0
 40
1.297193099499367
 50
69.8018710939841043
 51
74.8497526416002614
  0
ARC
  5
146C4
  8
0
 10
122.664822599392096
 20
-11.7829980168077402
 30
0.0
 40
1.355529512569309
 50
69.7791378524298125
 51
75.0460511960523036
  0
ARC
  5
146C5
  8
0
 10
122.6658080477327957
 20
-11.7745221479264597
 30
0.0
 40
1.3523427594623101
 50
69.7738993677153161
 51
75.0530194030851874
  0
ARC
  5
146C6
  8
0
 10
124.0458331773849068
 20
-11.4733800694680497
 30
0.0
 40
1.277231933812722
 50
124.5908980539134063
 51
130.0466308729604066
  0
ARC
  5
146C7
  8
0
 10
124.1447542588336006
 20
-11.6046469230272997
 30
0.0
 40
1.445941721166766
 50
124.8187053774655055
 51
129.5682712601490039
  0
ARC
  5
146C8
  8
0
 10
124.0290410242758981
 20
-11.4452096286482394
 30
0.0
 40
1.199833775560571
 50
124.7722993207519977
 51
129.9577302695072945
  0
ARC
  5
146C9
  8
0
 10
124.0903910258368938
 20
-11.5422599361120408
 30
0.0
 40
1.3149967444106709
 50
108.3861400917100042
 51
113.4876004045692071
  0
ARC
  5
146CA
  8
0
 10
124.0941565759798948
 20
-11.5483970680512709
 30
0.0
 40
1.371308025645523
 50
108.3579259364197043
 51
113.612075168810307
  0
ARC
  5
146CB
  8
0
 10
124.093787523812594
 20
-11.5528708637425606
 30
0.0
 40
1.370272120500226
 50
108.3560407392002958
 51
113.6141455013995056
  0
ARC
  5
146CC
  8
0
 10
123.4548809459170968
 20
-10.3724705682332896
 30
0.0
 40
0.1172446211184364
 50
18.0284330317815495
 51
39.8516110017764618
  0
ARC
  5
146CD
  8
0
 10
123.7349885849363034
 20
-10.2468220178772498
 30
0.0
 40
0.0760785927719395
 50
218.7010609877821139
 51
289.5402763888544087
  0
ARC
  5
146CE
  8
0
 10
123.7443073380400023
 20
-10.2509639813088302
 30
0.0
 40
0.0674149171001033
 50
351.8632537765578832
 51
69.0360229652446122
  0
ARC
  5
146CF
  8
0
 10
123.7367478195666024
 20
-10.2575570385916599
 30
0.0
 40
0.074671472790835
 50
101.8125930658338945
 51
175.9791042756280888
  0
ARC
  5
146D0
  8
0
 10
123.7346945987951017
 20
-10.2495984402341005
 30
0.0
 40
0.0724855094205025
 50
100.4328651852922007
 51
182.1519081598885919
  0
ARC
  5
146D1
  8
0
 10
123.7432909103387004
 20
-10.2469457320176307
 30
0.0
 40
0.0691012025049835
 50
348.6811943894189199
 51
67.9458433154949688
  0
ARC
  5
146D2
  8
0
 10
124.8261064206947992
 20
-10.3442637739929602
 30
0.0
 40
1.116931209569594
 50
165.774344060672604
 51
171.4554249534756138
  0
ARC
  5
146D3
  8
0
 10
124.8273688733053035
 20
-10.3499831176981196
 30
0.0
 40
1.118224578089636
 50
165.522077548269209
 51
171.4884696001122109
  0
ARC
  5
146D4
  8
0
 10
124.8326542083129027
 20
-10.3485234840424205
 30
0.0
 40
1.0762612487003611
 50
165.7685966137435116
 51
171.4230047288990875
  0
ARC
  5
146D5
  8
0
 10
122.885913280104603
 20
-10.4299179567135702
 30
0.0
 40
0.0755622981964944
 50
197.2055344851482914
 51
342.7944674619772059
  0
ARC
  5
146D6
  8
0
 10
122.8859132808672996
 20
-10.4748039330290101
 30
0.0
 40
0.0756167134390026
 50
17.3381894694441883
 51
162.661812477681508
  0
ARC
  5
146D7
  8
0
 10
122.8859132807686052
 20
-10.4689920949864099
 30
0.0
 40
0.0740927096811787
 50
166.9559071560761936
 51
13.0440947910757306
  0
ARC
  5
146D8
  8
0
 10
122.3957233988486024
 20
-10.1612302368694998
 30
0.0
 40
0.0755622981964944
 50
197.2055344851482914
 51
342.7944674619772059
  0
ARC
  5
146D9
  8
0
 10
122.395723399611299
 20
-10.2061162131849397
 30
0.0
 40
0.0756167134390026
 50
17.3381894694441883
 51
162.661812477681508
  0
ARC
  5
146DA
  8
0
 10
122.3957233995125051
 20
-10.2003043751423501
 30
0.0
 40
0.0740927096811787
 50
166.9559071560761936
 51
13.0440947910757306
  0
ARC
  5
146DB
  8
0
 10
122.2012044061613949
 20
-9.6465571069210583
 30
0.0
 40
0.0755622981964944
 50
197.2055344851482914
 51
342.7944674619772059
  0
ARC
  5
146DC
  8
0
 10
122.2012044069241057
 20
-9.6914430832364964
 30
0.0
 40
0.0756167134390026
 50
17.3381894694441883
 51
162.661812477681508
  0
ARC
  5
146DD
  8
0
 10
122.2012044068253971
 20
-9.6856312451938997
 30
0.0
 40
0.0740927096811787
 50
166.9559071560761936
 51
13.0440947910757306
  0
ARC
  5
146DE
  8
0
 10
122.3947176771235945
 20
-9.1346038672554855
 30
0.0
 40
0.0755622981964944
 50
197.2055344851482914
 51
342.7944674619772059
  0
ARC
  5
146DF
  8
0
 10
122.3947176778863053
 20
-9.1794898435709236
 30
0.0
 40
0.0756167134390026
 50
17.3381894694441883
 51
162.661812477681508
  0
ARC
  5
146E0
  8
0
 10
122.3947176777874972
 20
-9.1736780055283251
 30
0.0
 40
0.0740927096811787
 50
166.9559071560761936
 51
13.0440947910757306
  0
ARC
  5
146E1
  8
0
 10
122.8851262887789062
 20
-8.8648266575263506
 30
0.0
 40
0.0755622981964944
 50
197.2055344851482914
 51
342.7944674619772059
  0
ARC
  5
146E2
  8
0
 10
122.8851262895416028
 20
-8.9097126338417887
 30
0.0
 40
0.0756167134390026
 50
17.3381894694441883
 51
162.661812477681508
  0
ARC
  5
146E3
  8
0
 10
122.8851262894427947
 20
-8.903900795799192
 30
0.0
 40
0.0740927096811787
 50
166.9559071560761936
 51
13.0440947910757306
  0
ARC
  5
146E4
  8
0
 10
123.4424308681486053
 20
-8.9593499270695052
 30
0.0
 40
0.0755622981964944
 50
197.2055344851482914
 51
342.7944674619772059
  0
ARC
  5
146E5
  8
0
 10
123.4424308689113019
 20
-9.0042359033849451
 30
0.0
 40
0.0756167134390026
 50
17.3381894694441883
 51
162.661812477681508
  0
ARC
  5
146E6
  8
0
 10
123.4424308688124938
 20
-8.9984240653423484
 30
0.0
 40
0.0740927096811787
 50
166.9559071560761936
 51
13.0440947910757306
  0
ARC
  5
146E7
  8
0
 10
123.8055120718481987
 20
-9.3747576508135921
 30
0.0
 40
0.0755622981964944
 50
197.2055344851482914
 51
342.7944674619772059
  0
ARC
  5
146E8
  8
0
 10
123.8055120726108953
 20
-9.4196436271290267
 30
0.0
 40
0.0756167134390026
 50
17.3381894694441883
 51
162.661812477681508
  0
ARC
  5
146E9
  8
0
 10
123.8055120725122009
 20
-9.41383178908643
 30
0.0
 40
0.0740927096811787
 50
166.9559071560761936
 51
13.0440947910757306
  0
ARC
  5
146EA
  8
0
 10
123.8057872975512055
 20
-9.9177791527942674
 30
0.0
 40
0.0755622981964944
 50
197.2055344851482914
 51
342.7944674619772059
  0
ARC
  5
146EB
  8
0
 10
123.8057872983139021
 20
-9.9626651291097055
 30
0.0
 40
0.0756167134390026
 50
17.3381894694441883
 51
162.661812477681508
  0
ARC
  5
146EC
  8
0
 10
123.805787298215094
 20
-9.9568532910671088
 30
0.0
 40
0.0740927096811787
 50
166.9559071560761936
 51
13.0440947910757306
  0
ARC
  5
146ED
  8
0
 10
122.8881885247453027
 20
-10.4740652939297192
 30
0.0
 40
0.0831075509151761
 50
267.60721919782128
 51
81.9969805368404252
  0
ARC
  5
146EE
  8
0
 10
122.8818136129820999
 20
-10.4734853670824908
 30
0.0
 40
0.0836654711888763
 50
77.6142671071725374
 51
271.9899326717987833
  0
ARC
  5
146EF
  8
0
 10
123.4444854473490949
 20
-10.3796369952093794
 30
0.0
 40
0.0831075509151761
 50
267.60721919782128
 51
81.9969805368404252
  0
ARC
  5
146F0
  8
0
 10
123.4381105355859063
 20
-10.3790570683621493
 30
0.0
 40
0.0836654711888763
 50
77.6142671071725374
 51
271.9899326717987833
  0
ARC
  5
146F1
  8
0
 10
123.8111581213125021
 20
-9.9625772628521219
 30
0.0
 40
0.0831075509151761
 50
267.60721919782128
 51
81.9969805368404252
  0
ARC
  5
146F2
  8
0
 10
123.8047832095492993
 20
-9.9619973360048846
 30
0.0
 40
0.0836654711888763
 50
77.6142671071725374
 51
271.9899326717987833
  0
ARC
  5
146F3
  8
0
 10
123.8098082472582036
 20
-9.4188110399227547
 30
0.0
 40
0.0831075509151761
 50
267.60721919782128
 51
81.9969805368404252
  0
ARC
  5
146F4
  8
0
 10
123.8034333354949013
 20
-9.4182311130755192
 30
0.0
 40
0.0836654711888763
 50
77.6142671071725374
 51
271.9899326717987833
  0
ARC
  5
146F5
  8
0
 10
123.4459779485625006
 20
-9.0038252068423503
 30
0.0
 40
0.0831075509151761
 50
267.60721919782128
 51
81.9969805368404252
  0
ARC
  5
146F6
  8
0
 10
123.4396030367992978
 20
-9.003245279995113
 30
0.0
 40
0.0836654711888763
 50
77.6142671071725374
 51
271.9899326717987833
  0
ARC
  5
146F7
  8
0
 10
122.8894936486125005
 20
-8.9067721885423481
 30
0.0
 40
0.0831075509151761
 50
267.60721919782128
 51
81.9969805368404252
  0
ARC
  5
146F8
  8
0
 10
122.8831187368492976
 20
-8.9061922616951108
 30
0.0
 40
0.0836654711888763
 50
77.6142671071725374
 51
271.9899326717987833
  0
ARC
  5
146F9
  8
0
 10
122.3994359087800063
 20
-9.1799694052443463
 30
0.0
 40
0.0831075509151761
 50
267.60721919782128
 51
81.9969805368404252
  0
ARC
  5
146FA
  8
0
 10
122.3930609970168035
 20
-9.1793894783971126
 30
0.0
 40
0.0836654711888763
 50
77.6142671071725374
 51
271.9899326717987833
  0
ARC
  5
146FB
  8
0
 10
122.2048480005435067
 20
-9.6910329373453052
 30
0.0
 40
0.0832519034542786
 50
264.9344641167012924
 51
84.5361333776676531
  0
ARC
  5
146FC
  8
0
 10
122.1984669883520951
 20
-9.6904449535545361
 30
0.0
 40
0.0835203647860208
 50
80.1358546585173031
 51
269.3347428801013734
  0
ARC
  5
146FD
  8
0
 10
122.3957233995125051
 20
-10.2003043751423501
 30
0.0
 40
0.0831075509151761
 50
267.60721919782128
 51
81.9969805368404252
  0
ARC
  5
146FE
  8
0
 10
122.3893484877493023
 20
-10.1997244482951093
 30
0.0
 40
0.0836654711888763
 50
77.6142671071725374
 51
271.9899326717987833
  0
LINE
  5
146FF
  8
0
 10
123.3983543329447059
 20
-10.3266197477093105
 30
0.0
 11
123.4060927383125943
 21
-10.3408554580423502
 31
0.0
  0
LINE
  5
14700
  8
0
 10
123.4060927383125943
 20
-10.3408554580423502
 30
0.0
 11
123.415178114434795
 21
-10.3362875143891699
 31
0.0
  0
LINE
  5
14701
  8
0
 10
123.4060927383125943
 20
-10.3408554580423502
 30
0.0
 11
123.4060927383125943
 21
-10.3440917039423397
 31
0.0
  0
LINE
  5
14702
  8
0
 10
123.4273185353625024
 20
-10.3112701063923495
 30
0.0
 11
123.4377855068624967
 21
-10.3060075244923492
 31
0.0
  0
LINE
  5
14703
  8
0
 10
123.4377855068624967
 20
-10.3060075244923492
 30
0.0
 11
123.4469055074625032
 21
-10.3227848424923394
 31
0.0
  0
LINE
  5
14704
  8
0
 10
123.4469055074625032
 20
-10.3227848424923394
 30
0.0
 11
123.4364385360624965
 21
-10.3280474243923504
 31
0.0
  0
LINE
  5
14705
  8
0
 10
123.4364385360624965
 20
-10.3280474243923504
 30
0.0
 11
123.4273185353625024
 21
-10.3112701063923495
 31
0.0
  0
LINE
  5
14706
  8
0
 10
123.4287001306946934
 20
-10.3105754681592998
 30
0.0
 11
123.4364385360624965
 21
-10.3248111784923502
 31
0.0
  0
LINE
  5
14707
  8
0
 10
123.4364385360624965
 20
-10.3248111784923502
 30
0.0
 11
123.4455239121847967
 21
-10.3202432348391699
 31
0.0
  0
LINE
  5
14708
  8
0
 10
123.4364385360624965
 20
-10.3248111784923502
 30
0.0
 11
123.4364385360624965
 21
-10.3280474243923504
 31
0.0
  0
LINE
  5
14709
  8
0
 10
123.4410980629624959
 20
-10.3342235422423503
 30
0.0
 11
123.4515650344625044
 21
-10.32896096034235
 31
0.0
  0
LINE
  5
1470A
  8
0
 10
123.4515650344625044
 20
-10.32896096034235
 30
0.0
 11
123.4606850350625962
 21
-10.3457382783423508
 31
0.0
  0
LINE
  5
1470B
  8
0
 10
123.4606850350625962
 20
-10.3457382783423508
 30
0.0
 11
123.4502180636625042
 21
-10.3510008602423405
 31
0.0
  0
LINE
  5
1470C
  8
0
 10
123.4502180636625042
 20
-10.3510008602423405
 30
0.0
 11
123.4410980629624959
 21
-10.3342235422423503
 31
0.0
  0
LINE
  5
1470D
  8
0
 10
123.442479658294701
 20
-10.3335289040093006
 30
0.0
 11
123.4502180636625042
 21
-10.3477646143423492
 31
0.0
  0
LINE
  5
1470E
  8
0
 10
123.4502180636625042
 20
-10.3477646143423492
 30
0.0
 11
123.4593034397848044
 21
-10.34319667068916
 31
0.0
  0
LINE
  5
1470F
  8
0
 10
123.4502180636625042
 20
-10.3477646143423492
 30
0.0
 11
123.4502180636625042
 21
-10.3510008602423405
 31
0.0
  0
LINE
  5
14710
  8
0
 10
123.4548775904625018
 20
-10.3571769780423395
 30
0.0
 11
123.4653445619624961
 21
-10.3519143961423392
 31
0.0
  0
LINE
  5
14711
  8
0
 10
123.4653445619624961
 20
-10.3519143961423392
 30
0.0
 11
123.4744645625625026
 21
-10.3686917141423507
 31
0.0
  0
LINE
  5
14712
  8
0
 10
123.4744645625625026
 20
-10.3686917141423507
 30
0.0
 11
123.4639975911624958
 21
-10.3739542960423492
 31
0.0
  0
LINE
  5
14713
  8
0
 10
123.4639975911624958
 20
-10.3739542960423492
 30
0.0
 11
123.4548775904625018
 21
-10.3571769780423395
 31
0.0
  0
LINE
  5
14714
  8
0
 10
123.4562591857947069
 20
-10.3564823398093004
 30
0.0
 11
123.4639975911624958
 21
-10.3707180501423402
 31
0.0
  0
LINE
  5
14715
  8
0
 10
123.4639975911624958
 20
-10.3707180501423402
 30
0.0
 11
123.473082967284796
 21
-10.3661501064891706
 31
0.0
  0
LINE
  5
14716
  8
0
 10
123.4639975911624958
 20
-10.3707180501423402
 30
0.0
 11
123.4639975911624958
 21
-10.3739542960423492
 31
0.0
  0
LINE
  5
14717
  8
0
 10
123.4097407386124985
 20
-10.3508026310423507
 30
0.0
 11
123.420207710112507
 21
-10.3455400491423397
 31
0.0
  0
LINE
  5
14718
  8
0
 10
123.420207710112507
 20
-10.3455400491423397
 30
0.0
 11
123.4293277107124993
 21
-10.3623173671423405
 31
0.0
  0
LINE
  5
14719
  8
0
 10
123.4293277107124993
 20
-10.3623173671423405
 30
0.0
 11
123.4188607393125068
 21
-10.3675799490423497
 31
0.0
  0
LINE
  5
1471A
  8
0
 10
123.4188607393125068
 20
-10.3675799490423497
 30
0.0
 11
123.4097407386124985
 21
-10.3508026310423507
 31
0.0
  0
LINE
  5
1471B
  8
0
 10
123.4111223339447037
 20
-10.3501079928092992
 30
0.0
 11
123.4188607393125068
 21
-10.3643437031423407
 31
0.0
  0
LINE
  5
1471C
  8
0
 10
123.4188607393125068
 20
-10.3643437031423407
 30
0.0
 11
123.427946115434807
 21
-10.3597757594891604
 31
0.0
  0
LINE
  5
1471D
  8
0
 10
123.4188607393125068
 20
-10.3643437031423407
 30
0.0
 11
123.4188607393125068
 21
-10.3675799490423497
 31
0.0
  0
LINE
  5
1471E
  8
0
 10
123.4225087396125957
 20
-10.37429087624235
 30
0.0
 11
123.4329757111125048
 21
-10.3690282943423497
 31
0.0
  0
LINE
  5
1471F
  8
0
 10
123.4329757111125048
 20
-10.3690282943423497
 30
0.0
 11
123.4420957117124971
 21
-10.3858056123423506
 31
0.0
  0
LINE
  5
14720
  8
0
 10
123.4420957117124971
 20
-10.3858056123423506
 30
0.0
 11
123.4316287403125045
 21
-10.3910681942423402
 31
0.0
  0
LINE
  5
14721
  8
0
 10
123.4316287403125045
 20
-10.3910681942423402
 30
0.0
 11
123.4225087396125957
 21
-10.37429087624235
 31
0.0
  0
LINE
  5
14722
  8
0
 10
123.4238903349447014
 20
-10.3735962380093003
 30
0.0
 11
123.4316287403125045
 21
-10.3878319483423507
 31
0.0
  0
LINE
  5
14723
  8
0
 10
123.4316287403125045
 20
-10.3878319483423507
 30
0.0
 11
123.4407141164348047
 21
-10.3832640046891598
 31
0.0
  0
LINE
  5
14724
  8
0
 10
123.4316287403125045
 20
-10.3878319483423507
 30
0.0
 11
123.4316287403125045
 21
-10.3910681942423402
 31
0.0
  0
LINE
  5
14725
  8
0
 10
123.4352914053578019
 20
-10.3978471818556599
 30
0.0
 11
123.4457583768577962
 21
-10.3925845999556596
 31
0.0
  0
LINE
  5
14726
  8
0
 10
123.4457583768577962
 20
-10.3925845999556596
 30
0.0
 11
123.4548427764753029
 21
-10.4092964257444702
 31
0.0
  0
LINE
  5
14727
  8
0
 10
123.4421430898953957
 20
-10.4104516644762199
 30
0.0
 11
123.4352914053578019
 21
-10.3978471818556599
 31
0.0
  0
LINE
  5
14728
  8
0
 10
123.436673000690007
 20
-10.3971525436226209
 30
0.0
 11
123.4438854560798973
 21
-10.4104207068733192
 31
0.0
  0
LINE
  5
14729
  8
0
 10
123.4465899582906019
 20
-10.4102929218845599
 30
0.0
 11
123.4534967821800961
 21
-10.4068203103024803
 31
0.0
  0
LINE
  5
1472A
  8
0
 10
123.4686571180624952
 20
-10.3801304138923491
 30
0.0
 11
123.4791240895625037
 21
-10.37486783199234
 31
0.0
  0
LINE
  5
1472B
  8
0
 10
123.4791240895625037
 20
-10.37486783199234
 30
0.0
 11
123.488244090162496
 21
-10.3916451499923497
 31
0.0
  0
LINE
  5
1472C
  8
0
 10
123.488244090162496
 20
-10.3916451499923497
 30
0.0
 11
123.4777771187625035
 21
-10.39690773189235
 31
0.0
  0
LINE
  5
1472D
  8
0
 10
123.4777771187625035
 20
-10.39690773189235
 30
0.0
 11
123.4686571180624952
 21
-10.3801304138923491
 31
0.0
  0
LINE
  5
1472E
  8
0
 10
123.4700387133947004
 20
-10.3794357756592994
 30
0.0
 11
123.4777771187625035
 21
-10.3936714859923498
 31
0.0
  0
LINE
  5
1472F
  8
0
 10
123.4777771187625035
 20
-10.3936714859923498
 30
0.0
 11
123.4868624948848037
 21
-10.3891035423391696
 31
0.0
  0
LINE
  5
14730
  8
0
 10
123.4777771187625035
 20
-10.3936714859923498
 30
0.0
 11
123.4777771187625035
 21
-10.39690773189235
 31
0.0
  0
LINE
  5
14731
  8
0
 10
123.3776890325125066
 20
-10.3661043226423502
 30
0.0
 11
123.3881560040125009
 21
-10.3608417407423499
 31
0.0
  0
LINE
  5
14732
  8
0
 10
123.3881560040125009
 20
-10.3608417407423499
 30
0.0
 11
123.3972760046124932
 21
-10.37761905874234
 31
0.0
  0
LINE
  5
14733
  8
0
 10
123.3972760046124932
 20
-10.37761905874234
 30
0.0
 11
123.3868090332125007
 21
-10.3828816406423492
 31
0.0
  0
LINE
  5
14734
  8
0
 10
123.3868090332125007
 20
-10.3828816406423492
 30
0.0
 11
123.3776890325125066
 21
-10.3661043226423502
 31
0.0
  0
LINE
  5
14735
  8
0
 10
123.3790706278446976
 20
-10.3654096844093093
 30
0.0
 11
123.3868090332125007
 21
-10.3796453947423402
 31
0.0
  0
LINE
  5
14736
  8
0
 10
123.3868090332125007
 20
-10.3796453947423402
 30
0.0
 11
123.3958944093348009
 21
-10.3750774510891706
 31
0.0
  0
LINE
  5
14737
  8
0
 10
123.3868090332125007
 20
-10.3796453947423402
 30
0.0
 11
123.3868090332125007
 21
-10.3828816406423492
 31
0.0
  0
LINE
  5
14738
  8
0
 10
123.4719532912125004
 20
-10.3168080801423496
 30
0.0
 11
123.4782940519983043
 21
-10.3136200736647101
 31
0.0
  0
LINE
  5
14739
  8
0
 10
123.486346229964397
 20
-10.3187677785831902
 30
0.0
 11
123.4915402633125012
 21
-10.3283228162423502
 31
0.0
  0
LINE
  5
1473A
  8
0
 10
123.4915402633125012
 20
-10.3283228162423502
 30
0.0
 11
123.4810732919124945
 21
-10.3335853981423398
 31
0.0
  0
LINE
  5
1473B
  8
0
 10
123.4810732919124945
 20
-10.3335853981423398
 30
0.0
 11
123.4719532912125004
 21
-10.3168080801423496
 31
0.0
  0
LINE
  5
1473C
  8
0
 10
123.4733348865447056
 20
-10.3161134419093106
 30
0.0
 11
123.4810732919124945
 21
-10.3303491522423503
 31
0.0
  0
LINE
  5
1473D
  8
0
 10
123.4810732919124945
 20
-10.3303491522423503
 30
0.0
 11
123.4901586680347947
 21
-10.32578120858917
 31
0.0
  0
LINE
  5
1473E
  8
0
 10
123.4810732919124945
 20
-10.3303491522423503
 30
0.0
 11
123.4810732919124945
 21
-10.3335853981423398
 31
0.0
  0
LINE
  5
1473F
  8
0
 10
123.4867201714125997
 20
-10.3391864385423506
 30
0.0
 11
123.497187142912594
 21
-10.3339238566423397
 31
0.0
  0
LINE
  5
14740
  8
0
 10
123.497187142912594
 20
-10.3339238566423397
 30
0.0
 11
123.5063071435125011
 21
-10.3507011746423405
 31
0.0
  0
LINE
  5
14741
  8
0
 10
123.5063071435125011
 20
-10.3507011746423405
 30
0.0
 11
123.4958401721124943
 21
-10.3559637565423497
 31
0.0
  0
LINE
  5
14742
  8
0
 10
123.4958401721124943
 20
-10.3559637565423497
 30
0.0
 11
123.4867201714125997
 21
-10.3391864385423506
 31
0.0
  0
LINE
  5
14743
  8
0
 10
123.4881017667447054
 20
-10.3384918003092992
 30
0.0
 11
123.4958401721124943
 21
-10.3527275106423406
 31
0.0
  0
LINE
  5
14744
  8
0
 10
123.4958401721124943
 20
-10.3527275106423406
 30
0.0
 11
123.5049255482347945
 21
-10.3481595669891693
 31
0.0
  0
LINE
  5
14745
  8
0
 10
123.4958401721124943
 20
-10.3527275106423406
 30
0.0
 11
123.4958401721124943
 21
-10.3559637565423497
 31
0.0
  0
LINE
  5
14746
  8
0
 10
123.3901616260124996
 20
-10.3897335972423406
 30
0.0
 11
123.4006285975124939
 21
-10.3844710153423492
 31
0.0
  0
LINE
  5
14747
  8
0
 10
123.4006285975124939
 20
-10.3844710153423492
 30
0.0
 11
123.4097485981125004
 21
-10.4012483333423393
 31
0.0
  0
LINE
  5
14748
  8
0
 10
123.4097485981125004
 20
-10.4012483333423393
 30
0.0
 11
123.4075933383715977
 21
-10.4023319544270993
 31
0.0
  0
LINE
  5
14749
  8
0
 10
123.3906435461129973
 20
-10.3906201461628491
 30
0.0
 11
123.3901616260124996
 21
-10.3897335972423406
 31
0.0
  0
LINE
  5
1474A
  8
0
 10
123.3915432213447048
 20
-10.3890389590093104
 30
0.0
 11
123.3939596580968043
 21
-10.39348427971888
 31
0.0
  0
LINE
  5
1474B
  8
0
 10
123.4044750474555059
 20
-10.4006635222635708
 30
0.0
 11
123.4083670028347939
 21
-10.3987067256891699
 31
0.0
  0
LINE
  5
1474C
  8
0
 10
123.499811983512501
 20
-10.3619456345423497
 30
0.0
 11
123.5102789550124953
 21
-10.3566830526423406
 31
0.0
  0
LINE
  5
1474D
  8
0
 10
123.5102789550124953
 20
-10.3566830526423406
 30
0.0
 11
123.5125985334203023
 21
-10.3609501910208497
 31
0.0
  0
LINE
  5
1474E
  8
0
 10
123.5063463270798962
 20
-10.3739663309828103
 30
0.0
 11
123.499811983512501
 21
-10.3619456345423497
 31
0.0
  0
LINE
  5
1474F
  8
0
 10
123.5011935788447062
 20
-10.3612509963093107
 30
0.0
 11
123.5072604546709982
 21
-10.3724117306963599
 31
0.0
  0
LINE
  5
14750
  8
0
 10
123.3714994972286974
 20
-10.3516040433610002
 30
0.0
 11
123.3749649771125974
 21
-10.3586867161423495
 31
0.0
  0
LINE
  5
14751
  8
0
 10
123.3749649771125974
 20
-10.3586867161423495
 30
0.0
 11
123.3856519108124985
 21
-10.3538502870423503
 31
0.0
  0
LINE
  5
14752
  8
0
 10
123.3856519108124985
 20
-10.3538502870423503
 30
0.0
 11
123.3782158373381037
 21
-10.3386526012381292
 31
0.0
  0
LINE
  5
14753
  8
0
 10
123.3722272243981024
 20
-10.3498551107176695
 30
0.0
 11
123.3749649771125974
 21
-10.3554504702423404
 31
0.0
  0
LINE
  5
14754
  8
0
 10
123.3749649771125974
 20
-10.3554504702423404
 30
0.0
 11
123.3843555112920995
 21
-10.35120073379945
 31
0.0
  0
LINE
  5
14755
  8
0
 10
123.3749649771125974
 20
-10.3554504702423404
 30
0.0
 11
123.3749649771125974
 21
-10.3586867161423495
 31
0.0
  0
LINE
  5
14756
  8
0
 10
123.463848457012503
 20
-10.3074821505423504
 30
0.0
 11
123.4663064118124964
 21
-10.3112070397423494
 31
0.0
  0
LINE
  5
14757
  8
0
 10
123.4663064118124964
 20
-10.3112070397423494
 30
0.0
 11
123.4663064118124964
 21
-10.3082853154411307
 31
0.0
  0
LINE
  5
14758
  8
0
 10
123.4663064118124964
 20
-10.3112070397423494
 30
0.0
 11
123.4693498666125038
 21
-10.3093495223423499
 31
0.0
  0
LINE
  5
14759
  8
0
 10
122.8557601794124992
 20
-10.4763035197423502
 30
0.0
 11
122.8520715708124982
 21
-10.4948998625423506
 31
0.0
  0
LINE
  5
1475A
  8
0
 10
122.8520715708124982
 20
-10.4948998625423506
 30
0.0
 11
122.863673388712499
 21
-10.4970283278423508
 31
0.0
  0
LINE
  5
1475B
  8
0
 10
122.863673388712499
 20
-10.4970283278423508
 30
0.0
 11
122.8673619973125
 21
-10.4784319850423504
 31
0.0
  0
LINE
  5
1475C
  8
0
 10
122.8673619973125
 20
-10.4784319850423504
 30
0.0
 11
122.8557601794124992
 21
-10.4763035197423502
 31
0.0
  0
LINE
  5
1475D
  8
0
 10
122.866744382712497
 20
-10.4783094804423502
 30
0.0
 11
122.863673388712499
 21
-10.4937920819423507
 31
0.0
  0
LINE
  5
1475E
  8
0
 10
122.863673388712499
 20
-10.4937920819423507
 30
0.0
 11
122.8526459589125039
 21
-10.4917689937423404
 31
0.0
  0
LINE
  5
1475F
  8
0
 10
122.863673388712499
 20
-10.4937920819423507
 30
0.0
 11
122.863673388712499
 21
-10.4970283278423508
 31
0.0
  0
LINE
  5
14760
  8
0
 10
122.860924231412497
 20
-10.4502686398423492
 30
0.0
 11
122.857235622812496
 21
-10.4688649826423408
 31
0.0
  0
LINE
  5
14761
  8
0
 10
122.857235622812496
 20
-10.4688649826423408
 30
0.0
 11
122.8688374407124968
 21
-10.4709934479423499
 31
0.0
  0
LINE
  5
14762
  8
0
 10
122.8688374407124968
 20
-10.4709934479423499
 30
0.0
 11
122.8725260493125973
 21
-10.4523971051423494
 31
0.0
  0
LINE
  5
14763
  8
0
 10
122.8725260493125973
 20
-10.4523971051423494
 30
0.0
 11
122.860924231412497
 21
-10.4502686398423492
 31
0.0
  0
LINE
  5
14764
  8
0
 10
122.8719084347124948
 20
-10.4522746005423492
 30
0.0
 11
122.8688374407124968
 21
-10.4677572020423497
 31
0.0
  0
LINE
  5
14765
  8
0
 10
122.8688374407124968
 20
-10.4677572020423497
 30
0.0
 11
122.8578100109125018
 21
-10.4657341138423501
 31
0.0
  0
LINE
  5
14766
  8
0
 10
122.8688374407124968
 20
-10.4677572020423497
 30
0.0
 11
122.8688374407124968
 21
-10.4709934479423499
 31
0.0
  0
LINE
  5
14767
  8
0
 10
122.8660882834124948
 20
-10.42423375994235
 30
0.0
 11
122.8623996748124938
 21
-10.4428301027423505
 31
0.0
  0
LINE
  5
14768
  8
0
 10
122.8623996748124938
 20
-10.4428301027423505
 30
0.0
 11
122.8740014927124946
 21
-10.4449585680423507
 31
0.0
  0
LINE
  5
14769
  8
0
 10
122.8740014927124946
 20
-10.4449585680423507
 30
0.0
 11
122.8776901013124956
 21
-10.4263622252423502
 31
0.0
  0
LINE
  5
1476A
  8
0
 10
122.8776901013124956
 20
-10.4263622252423502
 30
0.0
 11
122.8660882834124948
 21
-10.42423375994235
 31
0.0
  0
LINE
  5
1476B
  8
0
 10
122.8770724867125068
 20
-10.4262397206423501
 30
0.0
 11
122.8740014927124946
 21
-10.4417223221423505
 31
0.0
  0
LINE
  5
1476C
  8
0
 10
122.8740014927124946
 20
-10.4417223221423505
 30
0.0
 11
122.8629740629124996
 21
-10.4396992339423509
 31
0.0
  0
LINE
  5
1476D
  8
0
 10
122.8740014927124946
 20
-10.4417223221423505
 30
0.0
 11
122.8740014927124946
 21
-10.4449585680423507
 31
0.0
  0
LINE
  5
1476E
  8
0
 10
122.8707517124798017
 20
-10.4007228005096906
 30
0.0
 11
122.8675637267624978
 21
-10.4167952228423495
 31
0.0
  0
LINE
  5
1476F
  8
0
 10
122.8675637267624978
 20
-10.4167952228423495
 30
0.0
 11
122.8791655446624986
 21
-10.4189236881423497
 31
0.0
  0
LINE
  5
14770
  8
0
 10
122.8791655446624986
 20
-10.4189236881423497
 30
0.0
 11
122.8828541532624996
 21
-10.4003273453423493
 31
0.0
  0
LINE
  5
14771
  8
0
 10
122.8828541532624996
 20
-10.4003273453423493
 30
0.0
 11
122.8785815604930036
 21
-10.39954349702397
 31
0.0
  0
LINE
  5
14772
  8
0
 10
122.8822365386624966
 20
-10.4002048407423509
 30
0.0
 11
122.8791655446624986
 21
-10.4156874422423407
 31
0.0
  0
LINE
  5
14773
  8
0
 10
122.8791655446624986
 20
-10.4156874422423407
 30
0.0
 11
122.8681381148625036
 21
-10.4136643540423393
 31
0.0
  0
LINE
  5
14774
  8
0
 10
122.8791655446624986
 20
-10.4156874422423407
 30
0.0
 11
122.8791655446624986
 21
-10.4189236881423497
 31
0.0
  0
LINE
  5
14775
  8
0
 10
122.8256515143124972
 20
-10.4428149270423507
 30
0.0
 11
122.8211564184124995
 21
-10.4612464062423491
 31
0.0
  0
LINE
  5
14776
  8
0
 10
122.8211564184124995
 20
-10.4612464062423491
 30
0.0
 11
122.8326553818125007
 21
-10.4638402449423396
 31
0.0
  0
LINE
  5
14777
  8
0
 10
122.8326553818125007
 20
-10.4638402449423396
 30
0.0
 11
122.8326553818125007
 21
-10.4606039990423501
 31
0.0
  0
LINE
  5
14778
  8
0
 10
122.8326553818125007
 20
-10.4606039990423501
 30
0.0
 11
122.8364023726195029
 21
-10.44524001453631
 31
0.0
  0
LINE
  5
14779
  8
0
 10
122.821904523464994
 20
-10.4581789115722597
 30
0.0
 11
122.8326553818125007
 21
-10.4606039990423501
 31
0.0
  0
LINE
  5
1477A
  8
0
 10
122.8256515143124972
 20
-10.4428149270423507
 30
0.0
 11
122.8371504777124983
 21
-10.4454087657423393
 31
0.0
  0
LINE
  5
1477B
  8
0
 10
122.8371504777124983
 20
-10.4454087657423393
 30
0.0
 11
122.8326553818125007
 21
-10.4638402449423396
 31
0.0
  0
LINE
  5
1477C
  8
0
 10
122.9351688050124949
 20
-10.4345251090423403
 30
0.0
 11
122.9469151266124953
 21
-10.4357124483423398
 31
0.0
  0
LINE
  5
1477D
  8
0
 10
122.9469151266124953
 20
-10.4357124483423398
 30
0.0
 11
122.9448574797124962
 21
-10.4545404134423503
 31
0.0
  0
LINE
  5
1477E
  8
0
 10
122.9448574797124962
 20
-10.4545404134423503
 30
0.0
 11
122.9331111581124958
 21
-10.4533530741423508
 31
0.0
  0
LINE
  5
1477F
  8
0
 10
122.9331111581124958
 20
-10.4533530741423508
 30
0.0
 11
122.9351688050124949
 21
-10.4345251090423403
 31
0.0
  0
LINE
  5
14780
  8
0
 10
122.9334349751125046
 20
-10.4501495603423393
 30
0.0
 11
122.9448567274991007
 21
-10.4513040916072502
 31
0.0
  0
LINE
  5
14781
  8
0
 10
122.9448574797124962
 20
-10.4513041676423502
 30
0.0
 11
122.9465653122388034
 21
-10.4356770884766998
 31
0.0
  0
LINE
  5
14782
  8
0
 10
122.9448567274991007
 20
-10.4513040916072502
 30
0.0
 11
122.9448567274991007
 21
-10.4545478550737894
 31
0.0
  0
LINE
  5
14783
  8
0
 10
122.9323559974626932
 20
-10.4608911234718001
 30
0.0
 11
122.9441023190625941
 21
-10.4620784627717995
 31
0.0
  0
LINE
  5
14784
  8
0
 10
122.9441023190625941
 20
-10.4620784627717995
 30
0.0
 11
122.9420947530776971
 21
-10.4804481754278402
 31
0.0
  0
LINE
  5
14785
  8
0
 10
122.9417100937453
 20
-10.4808726080840096
 30
0.0
 11
122.9302983505626941
 21
-10.4797190885717999
 31
0.0
  0
LINE
  5
14786
  8
0
 10
122.9302983505626941
 20
-10.4797190885717999
 30
0.0
 11
122.9323559974626932
 21
-10.4608911234718001
 31
0.0
  0
LINE
  5
14787
  8
0
 10
122.9306221675626034
 20
-10.4765155747718008
 30
0.0
 11
122.9420439199491994
 21
-10.4776701060367099
 31
0.0
  0
LINE
  5
14788
  8
0
 10
122.942044672162595
 20
-10.4776701820717992
 30
0.0
 11
122.9437525046889021
 21
-10.4620431029061596
 31
0.0
  0
LINE
  5
14789
  8
0
 10
122.9420439199491994
 20
-10.4776701060367099
 30
0.0
 11
122.9420439199491994
 21
-10.4805046365747607
 31
0.0
  0
LINE
  5
1478A
  8
0
 10
122.8895889978124956
 20
-10.5012438721423393
 30
0.0
 11
122.9012733167125049
 21
-10.5029032300423495
 31
0.0
  0
LINE
  5
1478B
  8
0
 10
122.9012733167125049
 20
-10.5029032300423495
 30
0.0
 11
122.9041489668124996
 21
-10.4841746479423392
 31
0.0
  0
LINE
  5
1478C
  8
0
 10
122.9041489668124996
 20
-10.4841746479423392
 30
0.0
 11
122.8924646479125045
 21
-10.4825152901423504
 31
0.0
  0
LINE
  5
1478D
  8
0
 10
122.8924646479125045
 20
-10.4825152901423504
 30
0.0
 11
122.8898006251473021
 21
-10.50127392656767
 31
0.0
  0
LINE
  5
1478E
  8
0
 10
122.8902511370424975
 20
-10.4981016605652595
 30
0.0
 11
122.9012542569379036
 21
-10.4997911169615303
 31
0.0
  0
LINE
  5
1478F
  8
0
 10
122.9012542569379036
 20
-10.4997911169615303
 30
0.0
 11
122.9036635076125066
 21
-10.48410010884235
 31
0.0
  0
LINE
  5
14790
  8
0
 10
122.9012542569379036
 20
-10.4997911169615303
 30
0.0
 11
122.9012733167125049
 21
-10.5029032300423495
 31
0.0
  0
LINE
  5
14791
  8
0
 10
122.8936149080124949
 20
-10.4750238572423502
 30
0.0
 11
122.9052992269125042
 21
-10.4766832151423497
 31
0.0
  0
LINE
  5
14792
  8
0
 10
122.9052992269125042
 20
-10.4766832151423497
 30
0.0
 11
122.9081748770124989
 21
-10.4579546330423501
 31
0.0
  0
LINE
  5
14793
  8
0
 10
122.9081748770124989
 20
-10.4579546330423501
 30
0.0
 11
122.8964905581125038
 21
-10.4562952752423399
 31
0.0
  0
LINE
  5
14794
  8
0
 10
122.8964905581125038
 20
-10.4562952752423399
 30
0.0
 11
122.8938265353473014
 21
-10.4750539116676702
 31
0.0
  0
LINE
  5
14795
  8
0
 10
122.8942770472424968
 20
-10.4718816456652597
 30
0.0
 11
122.9052801671379029
 21
-10.4735711020615305
 31
0.0
  0
LINE
  5
14796
  8
0
 10
122.9052801671379029
 20
-10.4735711020615305
 30
0.0
 11
122.9076894178125059
 21
-10.4578800939423395
 31
0.0
  0
LINE
  5
14797
  8
0
 10
122.9052801671379029
 20
-10.4735711020615305
 30
0.0
 11
122.9052992269125042
 21
-10.4766832151423497
 31
0.0
  0
LINE
  5
14798
  8
0
 10
122.8976408182124942
 20
-10.4488038422923406
 30
0.0
 11
122.9093251371125035
 21
-10.4504632001923401
 31
0.0
  0
LINE
  5
14799
  8
0
 10
122.9093251371125035
 20
-10.4504632001923401
 30
0.0
 11
122.9122007872124982
 21
-10.4317346180923494
 31
0.0
  0
LINE
  5
1479A
  8
0
 10
122.9122007872124982
 20
-10.4317346180923494
 30
0.0
 11
122.9005164683125031
 21
-10.4300752602923499
 31
0.0
  0
LINE
  5
1479B
  8
0
 10
122.9005164683125031
 20
-10.4300752602923499
 30
0.0
 11
122.8978524455473007
 21
-10.4488338967176695
 31
0.0
  0
LINE
  5
1479C
  8
0
 10
122.8983029574424961
 20
-10.4456616307152608
 30
0.0
 11
122.9093060773379023
 21
-10.4473510871115298
 31
0.0
  0
LINE
  5
1479D
  8
0
 10
122.9093060773379023
 20
-10.4473510871115298
 30
0.0
 11
122.9117153280125052
 21
-10.4316600789923495
 31
0.0
  0
LINE
  5
1479E
  8
0
 10
122.9093060773379023
 20
-10.4473510871115298
 30
0.0
 11
122.9093251371125035
 21
-10.4504632001923401
 31
0.0
  0
LINE
  5
1479F
  8
0
 10
122.9016667285124953
 20
-10.4225838273923497
 30
0.0
 11
122.9133510474125046
 21
-10.4242431852923492
 31
0.0
  0
LINE
  5
147A0
  8
0
 10
122.9133510474125046
 20
-10.4242431852923492
 30
0.0
 11
122.9162266975124993
 21
-10.4055146031923407
 31
0.0
  0
LINE
  5
147A1
  8
0
 10
122.9162266975124993
 20
-10.4055146031923407
 30
0.0
 11
122.9045423786125042
 21
-10.4038552453923394
 31
0.0
  0
LINE
  5
147A2
  8
0
 10
122.9045423786125042
 20
-10.4038552453923394
 30
0.0
 11
122.9018783558473018
 21
-10.4226138818176697
 31
0.0
  0
LINE
  5
147A3
  8
0
 10
122.9023288677424972
 20
-10.4194416158152592
 30
0.0
 11
122.9133319876379034
 21
-10.42113107221153
 31
0.0
  0
LINE
  5
147A4
  8
0
 10
122.9133319876379034
 20
-10.42113107221153
 30
0.0
 11
122.9157412383125063
 21
-10.4054400640923408
 31
0.0
  0
LINE
  5
147A5
  8
0
 10
122.9133319876379034
 20
-10.42113107221153
 30
0.0
 11
122.9133510474125046
 21
-10.4242431852923492
 31
0.0
  0
LINE
  5
147A6
  8
0
 10
122.8303616029047021
 20
-10.4235019016183692
 30
0.0
 11
122.8274495526125065
 21
-10.4354423354423407
 31
0.0
  0
LINE
  5
147A7
  8
0
 10
122.8274495526125065
 20
-10.4354423354423407
 30
0.0
 11
122.8389485160124934
 21
-10.4380361740423506
 31
0.0
  0
LINE
  5
147A8
  8
0
 10
122.8389485160124934
 20
-10.4380361740423506
 30
0.0
 11
122.8434436119125053
 21
-10.4196046948423504
 31
0.0
  0
LINE
  5
147A9
  8
0
 10
122.8434436119125053
 20
-10.4196046948423504
 30
0.0
 11
122.8360684913922967
 21
-10.4179410777234001
 31
0.0
  0
LINE
  5
147AA
  8
0
 10
122.828197657655295
 20
-10.4323748407700698
 30
0.0
 11
122.8389485160124934
 21
-10.4347999282423505
 31
0.0
  0
LINE
  5
147AB
  8
0
 10
122.8389485160124934
 20
-10.4347999282423505
 30
0.0
 11
122.8426955068412951
 21
-10.4194359436470396
 31
0.0
  0
LINE
  5
147AC
  8
0
 10
122.8389485160124934
 20
-10.4347999282423505
 30
0.0
 11
122.8389485160124934
 21
-10.4380361740423506
 31
0.0
  0
LINE
  5
147AD
  8
0
 10
122.8212738127030974
 20
-10.4690510649823896
 30
0.0
 11
122.8308573435125055
 21
-10.4712128365423496
 31
0.0
  0
LINE
  5
147AE
  8
0
 10
122.8308573435125055
 20
-10.4712128365423496
 30
0.0
 11
122.8288487538488027
 21
-10.4794487628036297
 31
0.0
  0
LINE
  5
147AF
  8
0
 10
122.828234327384493
 20
-10.4787318822046398
 30
0.0
 11
122.8301092384409969
 21
-10.4710440853482698
 31
0.0
  0
LINE
  5
147B0
  8
0
 10
122.9368662523687021
 20
-10.4189887899064306
 30
0.0
 11
122.9360564195265937
 21
-10.4270004484499292
 31
0.0
  0
LINE
  5
147B1
  8
0
 10
122.9360564195265937
 20
-10.4270004484499292
 30
0.0
 11
122.9452486471520984
 21
-10.4279296153362395
 31
0.0
  0
LINE
  5
147B2
  8
0
 10
122.936380236467798
 20
-10.4237969345539501
 30
0.0
 11
122.9422746138523053
 21
-10.4243927487990096
 31
0.0
  0
LINE
  5
147B3
  8
0
 10
122.3245942631403977
 20
-10.1804543095878692
 30
0.0
 11
122.3346523380125035
 21
-10.1727874708423496
 31
0.0
  0
LINE
  5
147B4
  8
0
 10
122.3346523380125035
 20
-10.1727874708423496
 30
0.0
 11
122.3305368995103066
 21
-10.1677937973438706
 31
0.0
  0
LINE
  5
147B5
  8
0
 10
122.3350142984644009
 20
-10.1610352594544597
 30
0.0
 11
122.3408231526125007
 21
-10.1680837237423507
 31
0.0
  0
LINE
  5
147B6
  8
0
 10
122.3408231526125007
 20
-10.1680837237423507
 30
0.0
 11
122.3562501892125027
 21
-10.1563243559423402
 31
0.0
  0
LINE
  5
147B7
  8
0
 10
122.3562501892125027
 20
-10.1563243559423402
 30
0.0
 11
122.3489137981125054
 21
-10.14742237814235
 31
0.0
  0
LINE
  5
147B8
  8
0
 10
122.3489137981125054
 20
-10.14742237814235
 30
0.0
 11
122.3429126182702049
 21
-10.1519968199375707
 31
0.0
  0
LINE
  5
147B9
  8
0
 10
122.3362977712158965
 20
-10.1593563795546498
 30
0.0
 11
122.3408231526125007
 21
-10.1648474778423399
 31
0.0
  0
LINE
  5
147BA
  8
0
 10
122.3408231526125007
 20
-10.1648474778423399
 30
0.0
 11
122.3546121287837991
 21
-10.1543367332306804
 31
0.0
  0
LINE
  5
147BB
  8
0
 10
122.3408231526125007
 20
-10.1648474778423399
 30
0.0
 11
122.3408231526125007
 21
-10.1680837237423507
 31
0.0
  0
LINE
  5
147BC
  8
0
 10
122.3550846127125027
 20
-10.1427186310423494
 30
0.0
 11
122.3575332745086968
 21
-10.1408521212509601
 31
0.0
  0
LINE
  5
147BD
  8
0
 10
122.3730104165172037
 20
-10.1339912677757091
 30
0.0
 11
122.3778480403125002
 21
-10.1398612410423397
 31
0.0
  0
LINE
  5
147BE
  8
0
 10
122.3778480403125002
 20
-10.1398612410423397
 30
0.0
 11
122.3624210038125
 21
-10.1516206088423395
 31
0.0
  0
LINE
  5
147BF
  8
0
 10
122.3624210038125
 20
-10.1516206088423395
 30
0.0
 11
122.3550846127125027
 21
-10.1427186310423494
 31
0.0
  0
LINE
  5
147C0
  8
0
 10
122.3567226731447022
 20
-10.1414700078799598
 30
0.0
 11
122.3624210038125
 21
-10.1483843630423394
 31
0.0
  0
LINE
  5
147C1
  8
0
 10
122.3624210038125
 20
-10.1483843630423394
 30
0.0
 11
122.3762099799226064
 21
-10.1378736183778404
 31
0.0
  0
LINE
  5
147C2
  8
0
 10
122.3624210038125
 20
-10.1483843630423394
 30
0.0
 11
122.3624210038125
 21
-10.1516206088423395
 31
0.0
  0
LINE
  5
147C3
  8
0
 10
122.3813208834782955
 20
-10.1318837749900599
 30
0.0
 11
122.3840188550124992
 21
-10.1351574939423497
 31
0.0
  0
LINE
  5
147C4
  8
0
 10
122.3840188550124992
 20
-10.1351574939423497
 30
0.0
 11
122.3840188550124992
 21
-10.1319212481423495
 31
0.0
  0
LINE
  5
147C5
  8
0
 10
122.3840188550124992
 20
-10.1319212481423495
 30
0.0
 11
122.3836470163785037
 21
-10.1314700591022895
 31
0.0
  0
LINE
  5
147C6
  8
0
 10
122.3848537953033997
 20
-10.1312848089918699
 30
0.0
 11
122.3840442095183931
 21
-10.1319520133025307
 31
0.0
  0
LINE
  5
147C7
  8
0
 10
122.3840188550124992
 20
-10.1351574939423497
 30
0.0
 11
122.389827659182501
 21
-10.1307296918690408
 31
0.0
  0
LINE
  5
147C8
  8
0
 10
122.3359791526124951
 20
-10.2040237059423493
 30
0.0
 11
122.3508806301124991
 21
-10.1916533595423395
 31
0.0
  0
LINE
  5
147C9
  8
0
 10
122.3508806301124991
 20
-10.1916533595423395
 30
0.0
 11
122.3585981963124993
 21
-10.2002520700423407
 31
0.0
  0
LINE
  5
147CA
  8
0
 10
122.3585981963124993
 20
-10.2002520700423407
 30
0.0
 11
122.3436967188125948
 21
-10.2126224164423398
 31
0.0
  0
LINE
  5
147CB
  8
0
 10
122.3436967188125948
 20
-10.2126224164423398
 30
0.0
 11
122.3359791526124951
 21
-10.2040237059423493
 31
0.0
  0
LINE
  5
147CC
  8
0
 10
122.3376436174672932
 20
-10.2026419633047905
 30
0.0
 11
122.3436967188125948
 21
-10.2093861706423397
 31
0.0
  0
LINE
  5
147CD
  8
0
 10
122.3436967188125948
 20
-10.2093861706423397
 30
0.0
 11
122.3569337315070982
 21
-10.1983975668701401
 31
0.0
  0
LINE
  5
147CE
  8
0
 10
122.3436967188125948
 20
-10.2093861706423397
 30
0.0
 11
122.3436967188125948
 21
-10.2126224164423398
 31
0.0
  0
LINE
  5
147CF
  8
0
 10
122.3568412211125036
 20
-10.1867052209923497
 30
0.0
 11
122.3717426986124934
 21
-10.1743348745923505
 31
0.0
  0
LINE
  5
147D0
  8
0
 10
122.3717426986124934
 20
-10.1743348745923505
 30
0.0
 11
122.3794602648124936
 21
-10.1829335850923499
 31
0.0
  0
LINE
  5
147D1
  8
0
 10
122.3794602648124936
 20
-10.1829335850923499
 30
0.0
 11
122.3645587873125038
 21
-10.1953039314923402
 31
0.0
  0
LINE
  5
147D2
  8
0
 10
122.3645587873125038
 20
-10.1953039314923402
 30
0.0
 11
122.3568412211125036
 21
-10.1867052209923497
 31
0.0
  0
LINE
  5
147D3
  8
0
 10
122.3585056859673017
 20
-10.1853234783547908
 30
0.0
 11
122.3645587873125038
 21
-10.19206768569234
 31
0.0
  0
LINE
  5
147D4
  8
0
 10
122.3645587873125038
 20
-10.19206768569234
 30
0.0
 11
122.3777958000071067
 21
-10.1810790819201404
 31
0.0
  0
LINE
  5
147D5
  8
0
 10
122.3645587873125038
 20
-10.19206768569234
 30
0.0
 11
122.3645587873125038
 21
-10.1953039314923402
 31
0.0
  0
LINE
  5
147D6
  8
0
 10
122.3777032896124979
 20
-10.16938673604235
 30
0.0
 11
122.3926047671125019
 21
-10.1570163896423509
 31
0.0
  0
LINE
  5
147D7
  8
0
 10
122.3926047671125019
 20
-10.1570163896423509
 30
0.0
 11
122.4003223333125021
 21
-10.1656151001423396
 31
0.0
  0
LINE
  5
147D8
  8
0
 10
122.4003223333125021
 20
-10.1656151001423396
 30
0.0
 11
122.3854208558124981
 21
-10.1779854465423494
 31
0.0
  0
LINE
  5
147D9
  8
0
 10
122.3854208558124981
 20
-10.1779854465423494
 30
0.0
 11
122.3777032896124979
 21
-10.16938673604235
 31
0.0
  0
LINE
  5
147DA
  8
0
 10
122.379367754467296
 20
-10.1680049934047894
 30
0.0
 11
122.3854208558124981
 21
-10.1747492007423492
 31
0.0
  0
LINE
  5
147DB
  8
0
 10
122.3854208558124981
 20
-10.1747492007423492
 30
0.0
 11
122.3986578685071009
 21
-10.1637605969701408
 31
0.0
  0
LINE
  5
147DC
  8
0
 10
122.3854208558124981
 20
-10.1747492007423492
 30
0.0
 11
122.3854208558124981
 21
-10.1779854465423494
 31
0.0
  0
LINE
  5
147DD
  8
0
 10
122.3985653580125046
 20
-10.1520682511423406
 30
0.0
 11
122.4134668355124944
 21
-10.1396979047423503
 31
0.0
  0
LINE
  5
147DE
  8
0
 10
122.4134668355124944
 20
-10.1396979047423503
 30
0.0
 11
122.4211844017124946
 21
-10.1482966152423497
 31
0.0
  0
LINE
  5
147DF
  8
0
 10
122.4211844017124946
 20
-10.1482966152423497
 30
0.0
 11
122.4062829242125048
 21
-10.1606669616423506
 31
0.0
  0
LINE
  5
147E0
  8
0
 10
122.4062829242125048
 20
-10.1606669616423506
 30
0.0
 11
122.3985653580125046
 21
-10.1520682511423406
 31
0.0
  0
LINE
  5
147E1
  8
0
 10
122.4002298228673027
 20
-10.1506865085047906
 30
0.0
 11
122.4062829242125048
 21
-10.1574307158423505
 31
0.0
  0
LINE
  5
147E2
  8
0
 10
122.4062829242125048
 20
-10.1574307158423505
 30
0.0
 11
122.4195199369070934
 21
-10.1464421120701402
 31
0.0
  0
LINE
  5
147E3
  8
0
 10
122.4062829242125048
 20
-10.1574307158423505
 30
0.0
 11
122.4062829242125048
 21
-10.1606669616423506
 31
0.0
  0
LINE
  5
147E4
  8
0
 10
122.4194274265124989
 20
-10.1347497662423507
 30
0.0
 11
122.4198047471049051
 21
-10.1344365364682503
 31
0.0
  0
LINE
  5
147E5
  8
0
 10
122.431671472839497
 20
-10.1395908542419395
 30
0.0
 11
122.4271449927124991
 21
-10.1433484767423501
 31
0.0
  0
LINE
  5
147E6
  8
0
 10
122.4271449927124991
 20
-10.1433484767423501
 30
0.0
 11
122.4194274265124989
 21
-10.1347497662423507
 31
0.0
  0
LINE
  5
147E7
  8
0
 10
122.4231328934769039
 20
-10.1356420548193
 30
0.0
 11
122.4271449927124991
 21
-10.1401122309423499
 31
0.0
  0
LINE
  5
147E8
  8
0
 10
122.4271449927124991
 20
-10.1401122309423499
 30
0.0
 11
122.429270031316193
 21
-10.1383481465711291
 31
0.0
  0
LINE
  5
147E9
  8
0
 10
122.4271449927124991
 20
-10.1401122309423499
 30
0.0
 11
122.4271449927124991
 21
-10.1433484767423501
 31
0.0
  0
LINE
  5
147EA
  8
0
 10
122.4217368144124976
 20
-10.1768178772923505
 30
0.0
 11
122.4366382919125016
 21
-10.1644475308923408
 31
0.0
  0
LINE
  5
147EB
  8
0
 10
122.4366382919125016
 20
-10.1644475308923408
 30
0.0
 11
122.4443558581125018
 21
-10.1730462413923508
 31
0.0
  0
LINE
  5
147EC
  8
0
 10
122.4443558581125018
 20
-10.1730462413923508
 30
0.0
 11
122.4294543806124977
 21
-10.1854165877923393
 31
0.0
  0
LINE
  5
147ED
  8
0
 10
122.4294543806124977
 20
-10.1854165877923393
 30
0.0
 11
122.4217368144124976
 21
-10.1768178772923505
 31
0.0
  0
LINE
  5
147EE
  8
0
 10
122.4234012792672956
 20
-10.1754361346547899
 30
0.0
 11
122.4294543806124977
 21
-10.1821803419923498
 31
0.0
  0
LINE
  5
147EF
  8
0
 10
122.4294543806124977
 20
-10.1821803419923498
 30
0.0
 11
122.4426913933071006
 21
-10.1711917382201307
 31
0.0
  0
LINE
  5
147F0
  8
0
 10
122.4294543806124977
 20
-10.1821803419923498
 30
0.0
 11
122.4294543806124977
 21
-10.1854165877923393
 31
0.0
  0
LINE
  5
147F1
  8
0
 10
122.4016471278625033
 20
-10.1949613496923508
 30
0.0
 11
122.4165486053624932
 21
-10.1825910032923499
 31
0.0
  0
LINE
  5
147F2
  8
0
 10
122.4165486053624932
 20
-10.1825910032923499
 30
0.0
 11
122.4242661715624934
 21
-10.1911897137923493
 31
0.0
  0
LINE
  5
147F3
  8
0
 10
122.4242661715624934
 20
-10.1911897137923493
 30
0.0
 11
122.4093646940625035
 21
-10.2035600601923502
 31
0.0
  0
LINE
  5
147F4
  8
0
 10
122.4093646940625035
 20
-10.2035600601923502
 30
0.0
 11
122.4016471278625033
 21
-10.1949613496923508
 31
0.0
  0
LINE
  5
147F5
  8
0
 10
122.4033115927173014
 20
-10.1935796070547902
 30
0.0
 11
122.4093646940625035
 21
-10.20032381439235
 31
0.0
  0
LINE
  5
147F6
  8
0
 10
122.4093646940625035
 20
-10.20032381439235
 30
0.0
 11
122.4226017067571064
 21
-10.1893352106201291
 31
0.0
  0
LINE
  5
147F7
  8
0
 10
122.4093646940625035
 20
-10.20032381439235
 30
0.0
 11
122.4093646940625035
 21
-10.2035600601923502
 31
0.0
  0
LINE
  5
147F8
  8
0
 10
122.3815574412625011
 20
-10.2131048221923493
 30
0.0
 11
122.3964589187625052
 21
-10.2007344757923502
 31
0.0
  0
LINE
  5
147F9
  8
0
 10
122.3964589187625052
 20
-10.2007344757923502
 30
0.0
 11
122.4041764849625054
 21
-10.2093331862923495
 31
0.0
  0
LINE
  5
147FA
  8
0
 10
122.4041764849625054
 20
-10.2093331862923495
 30
0.0
 11
122.3892750074625013
 21
-10.2217035326923504
 31
0.0
  0
LINE
  5
147FB
  8
0
 10
122.3892750074625013
 20
-10.2217035326923504
 30
0.0
 11
122.3815574412625011
 21
-10.2131048221923493
 31
0.0
  0
LINE
  5
147FC
  8
0
 10
122.3832219061172992
 20
-10.2117230795547798
 30
0.0
 11
122.3892750074625013
 21
-10.2184672868923503
 31
0.0
  0
LINE
  5
147FD
  8
0
 10
122.3892750074625013
 20
-10.2184672868923503
 30
0.0
 11
122.4025120201571042
 21
-10.2074786831201294
 31
0.0
  0
LINE
  5
147FE
  8
0
 10
122.3892750074625013
 20
-10.2184672868923503
 30
0.0
 11
122.3892750074625013
 21
-10.2217035326923504
 31
0.0
  0
LINE
  5
147FF
  8
0
 10
122.4488593463754995
 20
-10.1523160411333002
 30
0.0
 11
122.4416426831125051
 21
-10.1588335809423391
 31
0.0
  0
LINE
  5
14800
  8
0
 10
122.4416426831125051
 20
-10.1588335809423391
 30
0.0
 11
122.4497278851124946
 21
-10.1671139391423395
 31
0.0
  0
LINE
  5
14801
  8
0
 10
122.4497278851124946
 20
-10.1671139391423395
 30
0.0
 11
122.4564429812043045
 21
-10.1610493765698404
 31
0.0
  0
LINE
  5
14802
  8
0
 10
122.4433218773476995
 20
-10.1573170607894401
 30
0.0
 11
122.4497278851124946
 21
-10.16387769324235
 31
0.0
  0
LINE
  5
14803
  8
0
 10
122.4497278851124946
 20
-10.16387769324235
 30
0.0
 11
122.454976313902705
 21
-10.1591377127907396
 31
0.0
  0
LINE
  5
14804
  8
0
 10
122.4497278851124946
 20
-10.16387769324235
 30
0.0
 11
122.4497278851124946
 21
-10.1671139391423395
 31
0.0
  0
LINE
  5
14805
  8
0
 10
122.363375588697707
 20
-10.2295184502535008
 30
0.0
 11
122.3756337129125029
 21
-10.2184478476423504
 31
0.0
  0
LINE
  5
14806
  8
0
 10
122.3756337129125029
 20
-10.2184478476423504
 30
0.0
 11
122.3837189149125066
 21
-10.2267282058423508
 31
0.0
  0
LINE
  5
14807
  8
0
 10
122.3837189149125066
 20
-10.2267282058423508
 30
0.0
 11
122.3755973845784979
 21
-10.2340629524466102
 31
0.0
  0
LINE
  5
14808
  8
0
 10
122.3732267205368061
 20
-10.2333659449042305
 30
0.0
 11
122.3820397206768007
 21
-10.2250084801311392
 31
0.0
  0
LINE
  5
14809
  8
0
 10
122.1739554863124937
 20
-9.6311335560423501
 30
0.0
 11
122.1739554863124937
 21
-9.6424925608423493
 31
0.0
  0
LINE
  5
1480A
  8
0
 10
122.1739554863124937
 20
-9.6424925608423493
 30
0.0
 11
122.193640525712496
 21
-9.6424925608423493
 31
0.0
  0
LINE
  5
1480B
  8
0
 10
122.193640525712496
 20
-9.6424925608423493
 30
0.0
 11
122.193640525712496
 21
-9.6311335560423501
 31
0.0
  0
LINE
  5
1480C
  8
0
 10
122.193640525712496
 20
-9.6311335560423501
 30
0.0
 11
122.1739554863124937
 21
-9.6311335560423501
 31
0.0
  0
LINE
  5
1480D
  8
0
 10
122.1739554863124937
 20
-9.6392563150423456
 30
0.0
 11
122.193640525712496
 21
-9.6392563150423456
 31
0.0
  0
LINE
  5
1480E
  8
0
 10
122.1744575824125008
 20
-9.6655450275423451
 30
0.0
 11
122.194122555513502
 21
-9.6646880226623981
 31
0.0
  0
LINE
  5
1480F
  8
0
 10
122.194122555513502
 20
-9.6646880226623981
 30
0.0
 11
122.1946199489125036
 21
-9.6761012923423486
 31
0.0
  0
LINE
  5
14810
  8
0
 10
122.1946199489125036
 20
-9.6761012923423486
 30
0.0
 11
122.1749549758115023
 21
-9.6769582972222956
 31
0.0
  0
LINE
  5
14811
  8
0
 10
122.1749549758115023
 20
-9.6769582972222956
 30
0.0
 11
122.1744575824125008
 21
-9.6655450275423505
 31
0.0
  0
LINE
  5
14812
  8
0
 10
122.1749521767124946
 20
-9.6736578227423493
 30
0.0
 11
122.1944763806908014
 21
-9.6728069526190836
 31
0.0
  0
LINE
  5
14813
  8
0
 10
122.1764575839125939
 20
-9.6999060933423493
 30
0.0
 11
122.1774459049125028
 21
-9.7112252606423475
 31
0.0
  0
LINE
  5
14814
  8
0
 10
122.1774459049125028
 20
-9.7112252606423475
 30
0.0
 11
122.1970507634111982
 21
-9.7095134835405332
 31
0.0
  0
LINE
  5
14815
  8
0
 10
122.1970507634111982
 20
-9.7095134835405332
 30
0.0
 11
122.1961464734566931
 21
-9.6983160452783537
 31
0.0
  0
LINE
  5
14816
  8
0
 10
122.1961464734566931
 20
-9.6983160452783537
 30
0.0
 11
122.1764687679340966
 21
-9.6999051901359117
 31
0.0
  0
LINE
  5
14817
  8
0
 10
122.1767381746927015
 20
-9.6998834332108217
 30
0.0
 11
122.1774459049125028
 21
-9.7079890147423491
 31
0.0
  0
LINE
  5
14818
  8
0
 10
122.1774459049125028
 20
-9.7079890147423491
 30
0.0
 11
122.1968014135420049
 21
-9.7064258900617162
 31
0.0
  0
LINE
  5
14819
  8
0
 10
122.201514541412493
 20
-9.6311335560423501
 30
0.0
 11
122.201514541412493
 21
-9.6424925608423493
 31
0.0
  0
LINE
  5
1481A
  8
0
 10
122.201514541412493
 20
-9.6424925608423493
 30
0.0
 11
122.2211995808124954
 21
-9.6424925608423493
 31
0.0
  0
LINE
  5
1481B
  8
0
 10
122.2211995808124954
 20
-9.6424925608423493
 30
0.0
 11
122.2211995808124954
 21
-9.6311335560423501
 31
0.0
  0
LINE
  5
1481C
  8
0
 10
122.2211995808124954
 20
-9.6311335560423501
 30
0.0
 11
122.201514541412493
 21
-9.6311335560423501
 31
0.0
  0
LINE
  5
1481D
  8
0
 10
122.201514541412493
 20
-9.6392563150423456
 30
0.0
 11
122.2211995808124954
 21
-9.6392563150423456
 31
0.0
  0
LINE
  5
1481E
  8
0
 10
122.2290735965125066
 20
-9.6314597725423496
 30
0.0
 11
122.2290735965125066
 21
-9.6428187773423488
 31
0.0
  0
LINE
  5
1481F
  8
0
 10
122.2290735965125066
 20
-9.6428187773423488
 30
0.0
 11
122.2487586359124947
 21
-9.6428187773423488
 31
0.0
  0
LINE
  5
14820
  8
0
 10
122.2487586359124947
 20
-9.6428187773423488
 30
0.0
 11
122.2487586359124947
 21
-9.6326512244749907
 31
0.0
  0
LINE
  5
14821
  8
0
 10
122.2472466678317033
 20
-9.6314597725423496
 30
0.0
 11
122.2290735965125066
 21
-9.6314597725423496
 31
0.0
  0
LINE
  5
14822
  8
0
 10
122.2290735965125066
 20
-9.6395825315423451
 30
0.0
 11
122.2487586359124947
 21
-9.6395825315423451
 31
0.0
  0
LINE
  5
14823
  8
0
 10
122.1463964312124943
 20
-9.6393472758263492
 30
0.0
 11
122.1463964312124943
 21
-9.6424925608423493
 31
0.0
  0
LINE
  5
14824
  8
0
 10
122.1463964312124943
 20
-9.6424925608423493
 30
0.0
 11
122.1660814706124967
 21
-9.6424925608423493
 31
0.0
  0
LINE
  5
14825
  8
0
 10
122.1660814706124967
 20
-9.6424925608423493
 30
0.0
 11
122.1660814706124967
 21
-9.6311335560423501
 31
0.0
  0
LINE
  5
14826
  8
0
 10
122.1660814706124967
 20
-9.6311335560423501
 30
0.0
 11
122.1555902832240008
 21
-9.6311335560423501
 31
0.0
  0
LINE
  5
14827
  8
0
 10
122.1464830347121051
 20
-9.6392563150423456
 30
0.0
 11
122.1660814706124967
 21
-9.6392563150423456
 31
0.0
  0
LINE
  5
14828
  8
0
 10
122.2019938631119942
 20
-9.6644672550323207
 30
0.0
 11
122.2216588362129954
 21
-9.6636102501523737
 31
0.0
  0
LINE
  5
14829
  8
0
 10
122.2216588362129954
 20
-9.6636102501523737
 30
0.0
 11
122.2221562296120965
 21
-9.6750235198323224
 31
0.0
  0
LINE
  5
1482A
  8
0
 10
122.2221562296120965
 20
-9.6750235198323224
 30
0.0
 11
122.2024912565109958
 21
-9.6758805247122694
 31
0.0
  0
LINE
  5
1482B
  8
0
 10
122.2024912565109958
 20
-9.6758805247122694
 30
0.0
 11
122.2019938631119942
 21
-9.6644672550323207
 31
0.0
  0
LINE
  5
1482C
  8
0
 10
122.2024884574120023
 20
-9.6725800502323196
 30
0.0
 11
122.2220126613902949
 21
-9.6717291801090575
 31
0.0
  0
LINE
  5
1482D
  8
0
 10
122.229528744261998
 20
-9.6633573683323206
 30
0.0
 11
122.2491937173629992
 21
-9.6625003634523736
 31
0.0
  0
LINE
  5
1482E
  8
0
 10
122.2491937173629992
 20
-9.6625003634523736
 30
0.0
 11
122.2496911107620008
 21
-9.6739136331323223
 31
0.0
  0
LINE
  5
1482F
  8
0
 10
122.2496911107620008
 20
-9.6739136331323223
 30
0.0
 11
122.2300261376609996
 21
-9.6747706380122693
 31
0.0
  0
LINE
  5
14830
  8
0
 10
122.2300261376609996
 20
-9.6747706380122693
 30
0.0
 11
122.229528744261998
 21
-9.6633573683323206
 31
0.0
  0
LINE
  5
14831
  8
0
 10
122.2300233385620061
 20
-9.6714701635323195
 30
0.0
 11
122.2495475425402987
 21
-9.6706192934090573
 31
0.0
  0
LINE
  5
14832
  8
0
 10
122.1469241008619946
 20
-9.6666870286323192
 30
0.0
 11
122.1665890739629958
 21
-9.6658300237523722
 31
0.0
  0
LINE
  5
14833
  8
0
 10
122.1665890739629958
 20
-9.6658300237523722
 30
0.0
 11
122.1670864673619974
 21
-9.6772432934323227
 31
0.0
  0
LINE
  5
14834
  8
0
 10
122.1670864673619974
 20
-9.6772432934323227
 30
0.0
 11
122.1474214942609962
 21
-9.6781002983122697
 31
0.0
  0
LINE
  5
14835
  8
0
 10
122.1474214942609962
 20
-9.6781002983122697
 30
0.0
 11
122.1469241008619946
 21
-9.6666870286323245
 31
0.0
  0
LINE
  5
14836
  8
0
 10
122.1474186951620027
 20
-9.6747998238323234
 30
0.0
 11
122.1669428991402953
 21
-9.6739489537090577
 31
0.0
  0
LINE
  5
14837
  8
0
 10
122.1295269565172958
 20
-9.6673551100031681
 30
0.0
 11
122.1390541928130062
 21
-9.6669399104523741
 31
0.0
  0
LINE
  5
14838
  8
0
 10
122.1390541928130062
 20
-9.6669399104523741
 30
0.0
 11
122.1395515862119936
 21
-9.6783531801323228
 31
0.0
  0
LINE
  5
14839
  8
0
 10
122.1395515862119936
 20
-9.6783531801323228
 30
0.0
 11
122.1327949131240018
 21
-9.6786476377844561
 31
0.0
  0
LINE
  5
1483A
  8
0
 10
122.1313673496346013
 20
-9.6754092549244213
 30
0.0
 11
122.1394080179903057
 21
-9.6750588404090578
 31
0.0
  0
LINE
  5
1483B
  8
0
 10
122.2570608262630003
 20
-9.6621832529523743
 30
0.0
 11
122.2706786320145937
 21
-9.6615897852713708
 31
0.0
  0
LINE
  5
1483C
  8
0
 10
122.2741901832557971
 20
-9.6728716971321909
 30
0.0
 11
122.2575582196620019
 21
-9.6735965226323231
 31
0.0
  0
LINE
  5
1483D
  8
0
 10
122.2575582196620019
 20
-9.6735965226323231
 30
0.0
 11
122.2570608262630003
 21
-9.6621832529523743
 31
0.0
  0
LINE
  5
1483E
  8
0
 10
122.2575554205629942
 20
-9.6702960481523732
 30
0.0
 11
122.2735418667470952
 21
-9.6695993544766523
 31
0.0
  0
LINE
  5
1483F
  8
0
 10
122.1638375641004046
 20
-9.7122334346436272
 30
0.0
 11
122.1695883617611997
 21
-9.7117313099405322
 31
0.0
  0
LINE
  5
14840
  8
0
 10
122.1695883617611997
 20
-9.7117313099405322
 30
0.0
 11
122.1686840718066946
 21
-9.7005338716783527
 31
0.0
  0
LINE
  5
14841
  8
0
 10
122.1686840718066946
 20
-9.7005338716783527
 30
0.0
 11
122.149918255516198
 21
-9.7020493735960756
 31
0.0
  0
LINE
  5
14842
  8
0
 10
122.1593254896246066
 20
-9.7094523949674496
 30
0.0
 11
122.1693390118919069
 21
-9.7086437164617152
 31
0.0
  0
LINE
  5
14843
  8
0
 10
122.2039043859012963
 20
-9.6975096051282321
 30
0.0
 11
122.2048927069013047
 21
-9.7088287724282338
 31
0.0
  0
LINE
  5
14844
  8
0
 10
122.2048927069013047
 20
-9.7088287724282338
 30
0.0
 11
122.2244975654000001
 21
-9.7071169953264196
 31
0.0
  0
LINE
  5
14845
  8
0
 10
122.2244975654000001
 20
-9.7071169953264196
 30
0.0
 11
122.223593275445495
 21
-9.69591955706424
 31
0.0
  0
LINE
  5
14846
  8
0
 10
122.223593275445495
 20
-9.69591955706424
 30
0.0
 11
122.2039155699228985
 21
-9.697508701921798
 31
0.0
  0
LINE
  5
14847
  8
0
 10
122.2041849766814039
 20
-9.6974869449967045
 30
0.0
 11
122.2048927069013047
 21
-9.7055925265282355
 31
0.0
  0
LINE
  5
14848
  8
0
 10
122.2048927069013047
 20
-9.7055925265282355
 30
0.0
 11
122.2242482155306931
 21
-9.7040294018475972
 31
0.0
  0
LINE
  5
14849
  8
0
 10
122.2313823871625971
 20
-9.6954704405423477
 30
0.0
 11
122.2323707081625059
 21
-9.7067896078423441
 31
0.0
  0
LINE
  5
1484A
  8
0
 10
122.2323707081625059
 20
-9.7067896078423441
 30
0.0
 11
122.2486480144111027
 21
-9.705368372380871
 31
0.0
  0
LINE
  5
1484B
  8
0
 10
122.2517831259819019
 20
-9.7026949195793541
 30
0.0
 11
122.2510712767066963
 21
-9.6938803924783556
 31
0.0
  0
LINE
  5
1484C
  8
0
 10
122.2510712767066963
 20
-9.6938803924783556
 30
0.0
 11
122.2313935711840003
 21
-9.6954695373359101
 31
0.0
  0
LINE
  5
1484D
  8
0
 10
122.2316629779426052
 20
-9.6954477804108201
 30
0.0
 11
122.2323707081625059
 21
-9.7035533619423475
 31
0.0
  0
LINE
  5
1484E
  8
0
 10
122.2323707081625059
 20
-9.7035533619423475
 30
0.0
 11
122.2517262167919938
 21
-9.7019902372617146
 31
0.0
  0
LINE
  5
1484F
  8
0
 10
123.7543583509678058
 20
-9.3639553508639395
 30
0.0
 11
123.7552465534125048
 21
-9.3661128393423461
 31
0.0
  0
LINE
  5
14850
  8
0
 10
123.7552465534125048
 20
-9.3661128393423461
 30
0.0
 11
123.7552465534125048
 21
-9.3631523452261085
 31
0.0
  0
LINE
  5
14851
  8
0
 10
123.7557976687662062
 20
-9.3626667423275336
 30
0.0
 11
123.7723974798291948
 21
-9.3563459412573806
 31
0.0
  0
LINE
  5
14852
  8
0
 10
123.7707998240205995
 20
-9.3524651547653086
 30
0.0
 11
123.7735492401125015
 21
-9.3591436250423499
 31
0.0
  0
LINE
  5
14853
  8
0
 10
123.7735492401125015
 20
-9.3591436250423499
 30
0.0
 11
123.7552465534125048
 21
-9.3661128393423461
 31
0.0
  0
LINE
  5
14854
  8
0
 10
123.7779381775866057
 20
-9.3492336302215833
 30
0.0
 11
123.7808703148125034
 21
-9.3563559393423468
 31
0.0
  0
LINE
  5
14855
  8
0
 10
123.7808703148125034
 20
-9.3563559393423468
 30
0.0
 11
123.7991730016125018
 21
-9.349386725042347
 31
0.0
  0
LINE
  5
14856
  8
0
 10
123.7991730016125018
 20
-9.349386725042347
 30
0.0
 11
123.7971570635769041
 21
-9.3444899101526993
 31
0.0
  0
LINE
  5
14857
  8
0
 10
123.7790893338042935
 20
-9.3487936008391515
 30
0.0
 11
123.7808703148125034
 21
-9.3531196934423484
 31
0.0
  0
LINE
  5
14858
  8
0
 10
123.7808703148125034
 20
-9.3531196934423484
 30
0.0
 11
123.7980212412714991
 21
-9.3465890412408328
 31
0.0
  0
LINE
  5
14859
  8
0
 10
123.7808703148125034
 20
-9.3531196934423484
 30
0.0
 11
123.7808703148125034
 21
-9.3563559393423468
 31
0.0
  0
LINE
  5
1485A
  8
0
 10
123.8054351906814929
 20
-9.3440269527741933
 30
0.0
 11
123.8064940763125037
 21
-9.3465990392423492
 31
0.0
  0
LINE
  5
1485B
  8
0
 10
123.8064940763125037
 20
-9.3465990392423492
 30
0.0
 11
123.8064940763125037
 21
-9.3440337461815233
 31
0.0
  0
LINE
  5
1485C
  8
0
 10
123.8064940763125037
 20
-9.3465990392423492
 30
0.0
 11
123.8124189056797064
 21
-9.3443430095467228
 31
0.0
  0
LINE
  5
1485D
  8
0
 10
123.8471805802142001
 20
-9.3565435255013192
 30
0.0
 11
123.8405898372125051
 21
-9.3587508279423481
 31
0.0
  0
LINE
  5
1485E
  8
0
 10
123.8405898372125051
 20
-9.3587508279423481
 30
0.0
 11
123.8444740889125057
 21
-9.3694780037423477
 31
0.0
  0
LINE
  5
1485F
  8
0
 10
123.8444740889125057
 20
-9.3694780037423477
 30
0.0
 11
123.8577969986995981
 21
-9.3650160346943245
 31
0.0
  0
LINE
  5
14860
  8
0
 10
123.8416258323125021
 20
-9.3583756997423464
 30
0.0
 11
123.8444740889125057
 21
-9.3662417578423458
 31
0.0
  0
LINE
  5
14861
  8
0
 10
123.8444740889125057
 20
-9.3662417578423458
 30
0.0
 11
123.8552048867103963
 21
-9.362647911691905
 31
0.0
  0
LINE
  5
14862
  8
0
 10
123.8444740889125057
 20
-9.3662417578423458
 30
0.0
 11
123.8444740889125057
 21
-9.3694780037423477
 31
0.0
  0
LINE
  5
14863
  8
0
 10
123.8145637167125983
 20
-9.3674672228423468
 30
0.0
 11
123.8331538028125038
 21
-9.3612412264423455
 31
0.0
  0
LINE
  5
14864
  8
0
 10
123.8331538028125038
 20
-9.3612412264423455
 30
0.0
 11
123.8370380545125045
 21
-9.3719684022423486
 31
0.0
  0
LINE
  5
14865
  8
0
 10
123.8370380545125045
 20
-9.3719684022423486
 30
0.0
 11
123.8184479685125012
 21
-9.3781943986423482
 31
0.0
  0
LINE
  5
14866
  8
0
 10
123.8184479685125012
 20
-9.3781943986423482
 30
0.0
 11
123.8145637167125983
 21
-9.3674672228423468
 31
0.0
  0
LINE
  5
14867
  8
0
 10
123.8156088067318024
 20
-9.3671172122688375
 30
0.0
 11
123.8184479685125012
 21
-9.3749581528423462
 31
0.0
  0
LINE
  5
14868
  8
0
 10
123.8184479685125012
 20
-9.3749581528423462
 30
0.0
 11
123.835992964504797
 21
-9.3690821669758702
 31
0.0
  0
LINE
  5
14869
  8
0
 10
123.8184479685125012
 20
-9.3749581528423462
 30
0.0
 11
123.8184479685125012
 21
-9.3781943986423482
 31
0.0
  0
LINE
  5
1486A
  8
0
 10
123.7885375962625005
 20
-9.3761836178423472
 30
0.0
 11
123.8071276823625055
 21
-9.3699576214423441
 31
0.0
  0
LINE
  5
1486B
  8
0
 10
123.8071276823625055
 20
-9.3699576214423441
 30
0.0
 11
123.8110119340625062
 21
-9.380684797242349
 31
0.0
  0
LINE
  5
1486C
  8
0
 10
123.8110119340625062
 20
-9.380684797242349
 30
0.0
 11
123.7924218480625029
 21
-9.3869107936423504
 31
0.0
  0
LINE
  5
1486D
  8
0
 10
123.7924218480625029
 20
-9.3869107936423504
 30
0.0
 11
123.7885375962625005
 21
-9.3761836178423472
 31
0.0
  0
LINE
  5
1486E
  8
0
 10
123.7895826862818041
 20
-9.3758336072688362
 30
0.0
 11
123.7924218480625029
 21
-9.3836745478423467
 31
0.0
  0
LINE
  5
1486F
  8
0
 10
123.7924218480625029
 20
-9.3836745478423467
 30
0.0
 11
123.8099668440546992
 21
-9.3777985619758724
 31
0.0
  0
LINE
  5
14870
  8
0
 10
123.7924218480625029
 20
-9.3836745478423467
 30
0.0
 11
123.7924218480625029
 21
-9.3869107936423504
 31
0.0
  0
LINE
  5
14871
  8
0
 10
123.7625114758125022
 20
-9.3849000128423476
 30
0.0
 11
123.781101561912493
 21
-9.3786740164423463
 31
0.0
  0
LINE
  5
14872
  8
0
 10
123.781101561912493
 20
-9.3786740164423463
 30
0.0
 11
123.7849858136124936
 21
-9.3894011922423495
 31
0.0
  0
LINE
  5
14873
  8
0
 10
123.7849858136124936
 20
-9.3894011922423495
 30
0.0
 11
123.7663957276125046
 21
-9.3956271886423508
 31
0.0
  0
LINE
  5
14874
  8
0
 10
123.7663957276125046
 20
-9.3956271886423508
 30
0.0
 11
123.7625114758125022
 21
-9.3849000128423476
 31
0.0
  0
LINE
  5
14875
  8
0
 10
123.7635565658318058
 20
-9.3845500022688384
 30
0.0
 11
123.7663957276125046
 21
-9.3923909428423471
 31
0.0
  0
LINE
  5
14876
  8
0
 10
123.7663957276125046
 20
-9.3923909428423471
 30
0.0
 11
123.7839407236047009
 21
-9.3865149569758728
 31
0.0
  0
LINE
  5
14877
  8
0
 10
123.7663957276125046
 20
-9.3923909428423471
 30
0.0
 11
123.7663957276125046
 21
-9.3956271886423508
 31
0.0
  0
LINE
  5
14878
  8
0
 10
123.7364853554124977
 20
-9.3936164077423498
 30
0.0
 11
123.7550754415125027
 21
-9.3873904113423485
 31
0.0
  0
LINE
  5
14879
  8
0
 10
123.7550754415125027
 20
-9.3873904113423485
 30
0.0
 11
123.7589596932125033
 21
-9.3981175871423481
 31
0.0
  0
LINE
  5
1487A
  8
0
 10
123.7589596932125033
 20
-9.3981175871423481
 30
0.0
 11
123.7403696072125001
 21
-9.4043435835423494
 31
0.0
  0
LINE
  5
1487B
  8
0
 10
123.7403696072125001
 20
-9.4043435835423494
 30
0.0
 11
123.7364853554124977
 21
-9.3936164077423498
 31
0.0
  0
LINE
  5
1487C
  8
0
 10
123.7375304454318012
 20
-9.3932663971688406
 30
0.0
 11
123.7403696072125001
 21
-9.4011073377423457
 31
0.0
  0
LINE
  5
1487D
  8
0
 10
123.7403696072125001
 20
-9.4011073377423457
 30
0.0
 11
123.7579146032046964
 21
-9.3952313518758714
 31
0.0
  0
LINE
  5
1487E
  8
0
 10
123.7403696072125001
 20
-9.4011073377423457
 30
0.0
 11
123.7403696072125001
 21
-9.4043435835423494
 31
0.0
  0
LINE
  5
1487F
  8
0
 10
123.7724931480125008
 20
-9.4152145542423469
 30
0.0
 11
123.7910832341125058
 21
-9.4089885578423491
 31
0.0
  0
LINE
  5
14880
  8
0
 10
123.7910832341125058
 20
-9.4089885578423491
 30
0.0
 11
123.7949674858125064
 21
-9.4197157336423487
 31
0.0
  0
LINE
  5
14881
  8
0
 10
123.7949674858125064
 20
-9.4197157336423487
 30
0.0
 11
123.7763773998125032
 21
-9.4259417300423465
 31
0.0
  0
LINE
  5
14882
  8
0
 10
123.7763773998125032
 20
-9.4259417300423465
 30
0.0
 11
123.7724931480125008
 21
-9.4152145542423469
 31
0.0
  0
LINE
  5
14883
  8
0
 10
123.7735382380318043
 20
-9.4148645436688412
 30
0.0
 11
123.7763773998125032
 21
-9.4227054842423463
 31
0.0
  0
LINE
  5
14884
  8
0
 10
123.7763773998125032
 20
-9.4227054842423463
 30
0.0
 11
123.793922395804799
 21
-9.416829498375872
 31
0.0
  0
LINE
  5
14885
  8
0
 10
123.7763773998125032
 20
-9.4227054842423463
 30
0.0
 11
123.7763773998125032
 21
-9.4259417300423465
 31
0.0
  0
LINE
  5
14886
  8
0
 10
123.7988759688124958
 20
-9.4075539558423458
 30
0.0
 11
123.8174660549125008
 21
-9.401327959442348
 31
0.0
  0
LINE
  5
14887
  8
0
 10
123.8174660549125008
 20
-9.401327959442348
 30
0.0
 11
123.8213503066125014
 21
-9.4120551352423476
 31
0.0
  0
LINE
  5
14888
  8
0
 10
123.8213503066125014
 20
-9.4120551352423476
 30
0.0
 11
123.8027602206124982
 21
-9.4182811316423471
 31
0.0
  0
LINE
  5
14889
  8
0
 10
123.8027602206124982
 20
-9.4182811316423471
 30
0.0
 11
123.7988759688124958
 21
-9.4075539558423458
 31
0.0
  0
LINE
  5
1488A
  8
0
 10
123.7999210588317993
 20
-9.4072039452688401
 30
0.0
 11
123.8027602206124982
 21
-9.4150448858423488
 31
0.0
  0
LINE
  5
1488B
  8
0
 10
123.8027602206124982
 20
-9.4150448858423488
 30
0.0
 11
123.8203052166046945
 21
-9.4091688999758691
 31
0.0
  0
LINE
  5
1488C
  8
0
 10
123.8027602206124982
 20
-9.4150448858423488
 30
0.0
 11
123.8027602206124982
 21
-9.4182811316423471
 31
0.0
  0
LINE
  5
1488D
  8
0
 10
123.825258789612505
 20
-9.3998933574923491
 30
0.0
 11
123.8438488757124958
 21
-9.3936673610923478
 31
0.0
  0
LINE
  5
1488E
  8
0
 10
123.8438488757124958
 20
-9.3936673610923478
 30
0.0
 11
123.8477331274124964
 21
-9.4043945368923474
 31
0.0
  0
LINE
  5
1488F
  8
0
 10
123.8477331274124964
 20
-9.4043945368923474
 30
0.0
 11
123.8291430414124932
 21
-9.4106205332923487
 31
0.0
  0
LINE
  5
14890
  8
0
 10
123.8291430414124932
 20
-9.4106205332923487
 30
0.0
 11
123.825258789612505
 21
-9.3998933574923491
 31
0.0
  0
LINE
  5
14891
  8
0
 10
123.8263038796317943
 20
-9.3995433469188399
 30
0.0
 11
123.8291430414124932
 21
-9.4073842874923486
 31
0.0
  0
LINE
  5
14892
  8
0
 10
123.8291430414124932
 20
-9.4073842874923486
 30
0.0
 11
123.8466880374047037
 21
-9.4015083016258707
 31
0.0
  0
LINE
  5
14893
  8
0
 10
123.8291430414124932
 20
-9.4073842874923486
 30
0.0
 11
123.8291430414124932
 21
-9.4106205332923487
 31
0.0
  0
LINE
  5
14894
  8
0
 10
123.8516416104125
 20
-9.3922327591423471
 30
0.0
 11
123.870231696512505
 21
-9.3860067627423476
 31
0.0
  0
LINE
  5
14895
  8
0
 10
123.870231696512505
 20
-9.3860067627423476
 30
0.0
 11
123.8741159482125056
 21
-9.3967339385423472
 31
0.0
  0
LINE
  5
14896
  8
0
 10
123.8741159482125056
 20
-9.3967339385423472
 30
0.0
 11
123.8555258622125024
 21
-9.4029599349423485
 31
0.0
  0
LINE
  5
14897
  8
0
 10
123.8555258622125024
 20
-9.4029599349423485
 30
0.0
 11
123.8516416104125
 21
-9.3922327591423471
 31
0.0
  0
LINE
  5
14898
  8
0
 10
123.8526867004318035
 20
-9.3918827485688396
 30
0.0
 11
123.8555258622125024
 21
-9.3997236891423483
 31
0.0
  0
LINE
  5
14899
  8
0
 10
123.8555258622125024
 20
-9.3997236891423483
 30
0.0
 11
123.8730708582047981
 21
-9.3938477032758705
 31
0.0
  0
LINE
  5
1489A
  8
0
 10
123.8555258622125024
 20
-9.3997236891423483
 30
0.0
 11
123.8555258622125024
 21
-9.4029599349423485
 31
0.0
  0
LINE
  5
1489B
  8
0
 10
123.8078393441625025
 20
-9.4393131343923464
 30
0.0
 11
123.8264294302624933
 21
-9.4330871379923451
 31
0.0
  0
LINE
  5
1489C
  8
0
 10
123.8264294302624933
 20
-9.4330871379923451
 30
0.0
 11
123.8303136819625934
 21
-9.4438143137923483
 31
0.0
  0
LINE
  5
1489D
  8
0
 10
123.8303136819625934
 20
-9.4438143137923483
 30
0.0
 11
123.8117235959625049
 21
-9.4500403101923496
 31
0.0
  0
LINE
  5
1489E
  8
0
 10
123.8117235959625049
 20
-9.4500403101923496
 30
0.0
 11
123.8078393441625025
 21
-9.4393131343923464
 31
0.0
  0
LINE
  5
1489F
  8
0
 10
123.808884434181806
 20
-9.4389631238188372
 30
0.0
 11
123.8117235959625049
 21
-9.4468040643923459
 31
0.0
  0
LINE
  5
148A0
  8
0
 10
123.8117235959625049
 20
-9.4468040643923459
 30
0.0
 11
123.8292685919547012
 21
-9.4409280785258716
 31
0.0
  0
LINE
  5
148A1
  8
0
 10
123.8117235959625049
 20
-9.4468040643923459
 30
0.0
 11
123.8117235959625049
 21
-9.4500403101923496
 31
0.0
  0
LINE
  5
148A2
  8
0
 10
123.7467518148364007
 20
-9.4222644198538816
 30
0.0
 11
123.7652982967125013
 21
-9.4168792054423491
 31
0.0
  0
LINE
  5
148A3
  8
0
 10
123.7652982967125013
 20
-9.4168792054423491
 30
0.0
 11
123.7687120580124969
 21
-9.4277534022423488
 31
0.0
  0
LINE
  5
148A4
  8
0
 10
123.7687120580124969
 20
-9.4277534022423488
 30
0.0
 11
123.7555335527125067
 21
-9.4315799542423484
 31
0.0
  0
LINE
  5
148A5
  8
0
 10
123.7529905164648056
 20
-9.4290821124201436
 30
0.0
 11
123.7678454370125962
 21
-9.4247687911423483
 31
0.0
  0
LINE
  5
148A6
  8
0
 10
123.7820930770625978
 20
-9.4456295318923473
 30
0.0
 11
123.8006831631625033
 21
-9.439403535492346
 31
0.0
  0
LINE
  5
148A7
  8
0
 10
123.8006831631625033
 20
-9.439403535492346
 30
0.0
 11
123.8045651175001041
 21
-9.4503140151133511
 31
0.0
  0
LINE
  5
148A8
  8
0
 10
123.7824906898114961
 20
-9.4467276228703696
 30
0.0
 11
123.7820930770625978
 21
-9.4456295318923473
 31
0.0
  0
LINE
  5
148A9
  8
0
 10
123.7831381670818018
 20
-9.4452795213188381
 30
0.0
 11
123.7838105910092992
 21
-9.4471365609886888
 31
0.0
  0
LINE
  5
148AA
  8
0
 10
123.7960974188821979
 20
-9.4497311475858901
 30
0.0
 11
123.803522324854697
 21
-9.4472444760258671
 31
0.0
  0
LINE
  5
148AB
  8
0
 10
123.8352412947125032
 20
-9.4316878667423474
 30
0.0
 11
123.8543078924125069
 21
-9.4269797506423458
 31
0.0
  0
LINE
  5
148AC
  8
0
 10
123.8543078924125069
 20
-9.4269797506423458
 30
0.0
 11
123.8555135137367955
 21
-9.4314102475572739
 31
0.0
  0
LINE
  5
148AD
  8
0
 10
123.8360518522247986
 20
-9.4314877157278012
 30
0.0
 11
123.8381785769124974
 21
-9.4394537617423495
 31
0.0
  0
LINE
  5
148AE
  8
0
 10
123.8381785769124974
 20
-9.4394537617423495
 30
0.0
 11
123.8383151877261952
 21
-9.4428283236281931
 31
0.0
  0
LINE
  5
148AF
  8
0
 10
123.8383151877261952
 20
-9.4428283236281931
 30
0.0
 11
123.8352412947125032
 21
-9.4316878667423474
 31
0.0
  0
LINE
  5
148B0
  8
0
 10
123.8381785769124974
 20
-9.4394537617423495
 30
0.0
 11
123.8471854726033996
 21
-9.4377892982475231
 31
0.0
  0
LINE
  5
148B1
  8
0
 10
123.3991561237125012
 20
-9.0076724152423466
 30
0.0
 11
123.4089986434125024
 21
-8.9912771039423482
 31
0.0
  0
LINE
  5
148B2
  8
0
 10
123.4089986434125024
 20
-8.9912771039423482
 30
0.0
 11
123.4192272899124987
 21
-8.9969566063423478
 31
0.0
  0
LINE
  5
148B3
  8
0
 10
123.4192272899124987
 20
-8.9969566063423478
 30
0.0
 11
123.4093847702124975
 21
-9.0133519176423462
 31
0.0
  0
LINE
  5
148B4
  8
0
 10
123.4093847702124975
 20
-9.0133519176423462
 30
0.0
 11
123.3991561237125012
 21
-9.0076724152423466
 31
0.0
  0
LINE
  5
148B5
  8
0
 10
123.4006132238631039
 20
-9.0052452308128288
 30
0.0
 11
123.4093847702124975
 21
-9.0101156718423461
 31
0.0
  0
LINE
  5
148B6
  8
0
 10
123.4093847702124975
 20
-9.0101156718423461
 30
0.0
 11
123.4177991704124935
 21
-8.9960992700423468
 31
0.0
  0
LINE
  5
148B7
  8
0
 10
123.4093847702124975
 20
-9.0101156718423461
 30
0.0
 11
123.4093847702124975
 21
-9.0133519176423462
 31
0.0
  0
LINE
  5
148B8
  8
0
 10
123.3935654079299979
 20
-9.0169852262043584
 30
0.0
 11
123.3952191158124947
 21
-9.0142305397423481
 31
0.0
  0
LINE
  5
148B9
  8
0
 10
123.3952191158124947
 20
-9.0142305397423481
 30
0.0
 11
123.4054477623125052
 21
-9.0199100421423495
 31
0.0
  0
LINE
  5
148BA
  8
0
 10
123.4054477623125052
 20
-9.0199100421423495
 30
0.0
 11
123.4030787325914957
 21
-9.0238562859485452
 31
0.0
  0
LINE
  5
148BB
  8
0
 10
123.4016661686535059
 20
-9.0229730375232435
 30
0.0
 11
123.4040196428125
 21
-9.0190527059423502
 31
0.0
  0
LINE
  5
148BC
  8
0
 10
123.4129356513124947
 20
-8.9847189793923476
 30
0.0
 11
123.4227781710124958
 21
-8.9683236680923457
 31
0.0
  0
LINE
  5
148BD
  8
0
 10
123.4227781710124958
 20
-8.9683236680923457
 30
0.0
 11
123.4330068175125064
 21
-8.9740031704923453
 31
0.0
  0
LINE
  5
148BE
  8
0
 10
123.4330068175125064
 20
-8.9740031704923453
 30
0.0
 11
123.4231642978125052
 21
-8.9903984817923472
 31
0.0
  0
LINE
  5
148BF
  8
0
 10
123.4231642978125052
 20
-8.9903984817923472
 30
0.0
 11
123.4129356513124947
 21
-8.9847189793923476
 31
0.0
  0
LINE
  5
148C0
  8
0
 10
123.4143927514630974
 20
-8.9822917949628298
 30
0.0
 11
123.4231642978125052
 21
-8.9871622359923471
 31
0.0
  0
LINE
  5
148C1
  8
0
 10
123.4231642978125052
 20
-8.9871622359923471
 30
0.0
 11
123.4315786980125011
 21
-8.9731458341923478
 31
0.0
  0
LINE
  5
148C2
  8
0
 10
123.4231642978125052
 20
-8.9871622359923471
 30
0.0
 11
123.4231642978125052
 21
-8.9903984817923472
 31
0.0
  0
LINE
  5
148C3
  8
0
 10
123.4267151788125005
 20
-8.9617655435423487
 30
0.0
 11
123.4365576985125017
 21
-8.9453702322423467
 31
0.0
  0
LINE
  5
148C4
  8
0
 10
123.4365576985125017
 20
-8.9453702322423467
 30
0.0
 11
123.446786345012498
 21
-8.9510497346423463
 31
0.0
  0
LINE
  5
148C5
  8
0
 10
123.446786345012498
 20
-8.9510497346423463
 30
0.0
 11
123.4369438253124969
 21
-8.9674450459423483
 31
0.0
  0
LINE
  5
148C6
  8
0
 10
123.4369438253124969
 20
-8.9674450459423483
 30
0.0
 11
123.4267151788125005
 21
-8.9617655435423487
 31
0.0
  0
LINE
  5
148C7
  8
0
 10
123.4281722789630038
 20
-8.9593383591128308
 30
0.0
 11
123.4369438253124969
 21
-8.9642088001423481
 31
0.0
  0
LINE
  5
148C8
  8
0
 10
123.4369438253124969
 20
-8.9642088001423481
 30
0.0
 11
123.445358225512507
 21
-8.9501923983423488
 31
0.0
  0
LINE
  5
148C9
  8
0
 10
123.4369438253124969
 20
-8.9642088001423481
 30
0.0
 11
123.4369438253124969
 21
-8.9674450459423483
 31
0.0
  0
LINE
  5
148CA
  8
0
 10
123.440494706412494
 20
-8.938812107742347
 30
0.0
 11
123.4465464856286019
 21
-8.9287312740543392
 31
0.0
  0
LINE
  5
148CB
  8
0
 10
123.4591310437009071
 20
-8.9304863846521982
 30
0.0
 11
123.4507233529125045
 21
-8.9444916101423466
 31
0.0
  0
LINE
  5
148CC
  8
0
 10
123.4507233529125045
 20
-8.9444916101423466
 30
0.0
 11
123.440494706412494
 21
-8.938812107742347
 31
0.0
  0
LINE
  5
148CD
  8
0
 10
123.4419518065629973
 20
-8.9363849233128292
 30
0.0
 11
123.4507233529125045
 21
-8.9412553643423465
 31
0.0
  0
LINE
  5
148CE
  8
0
 10
123.4507233529125045
 20
-8.9412553643423465
 30
0.0
 11
123.4574096380657977
 21
-8.9301175937311825
 31
0.0
  0
LINE
  5
148CF
  8
0
 10
123.4507233529125045
 20
-8.9412553643423465
 30
0.0
 11
123.4507233529125045
 21
-8.9444916101423466
 31
0.0
  0
LINE
  5
148D0
  8
0
 10
123.4703973857125021
 20
-8.9562287388923458
 30
0.0
 11
123.4802399054125033
 21
-8.9398334275923474
 31
0.0
  0
LINE
  5
148D1
  8
0
 10
123.4802399054125033
 20
-8.9398334275923474
 30
0.0
 11
123.4904685519124996
 21
-8.945512929992347
 31
0.0
  0
LINE
  5
148D2
  8
0
 10
123.4904685519124996
 20
-8.945512929992347
 30
0.0
 11
123.4806260322124984
 21
-8.9619082412923472
 31
0.0
  0
LINE
  5
148D3
  8
0
 10
123.4806260322124984
 20
-8.9619082412923472
 30
0.0
 11
123.4703973857125021
 21
-8.9562287388923458
 31
0.0
  0
LINE
  5
148D4
  8
0
 10
123.4718544858631049
 20
-8.9538015544628262
 30
0.0
 11
123.4806260322124984
 21
-8.9586719954923453
 31
0.0
  0
LINE
  5
148D5
  8
0
 10
123.4806260322124984
 20
-8.9586719954923453
 30
0.0
 11
123.4890404324125939
 21
-8.9446555936923442
 31
0.0
  0
LINE
  5
148D6
  8
0
 10
123.4806260322124984
 20
-8.9586719954923453
 30
0.0
 11
123.4806260322124984
 21
-8.9619082412923472
 31
0.0
  0
LINE
  5
148D7
  8
0
 10
123.4556305055125023
 20
-8.9786070972423442
 30
0.0
 11
123.4654730252125034
 21
-8.9622117859423476
 31
0.0
  0
LINE
  5
148D8
  8
0
 10
123.4654730252125034
 20
-8.9622117859423476
 30
0.0
 11
123.4757016717124998
 21
-8.9678912883423472
 31
0.0
  0
LINE
  5
148D9
  8
0
 10
123.4757016717124998
 20
-8.9678912883423472
 30
0.0
 11
123.4658591520125981
 21
-8.9842865996423455
 31
0.0
  0
LINE
  5
148DA
  8
0
 10
123.4658591520125981
 20
-8.9842865996423455
 30
0.0
 11
123.4556305055125023
 21
-8.9786070972423442
 31
0.0
  0
LINE
  5
148DB
  8
0
 10
123.4570876056630055
 20
-8.9761799128128281
 30
0.0
 11
123.4658591520125981
 21
-8.9810503538423454
 31
0.0
  0
LINE
  5
148DC
  8
0
 10
123.4658591520125981
 20
-8.9810503538423454
 30
0.0
 11
123.4742735522124946
 21
-8.9670339520423461
 31
0.0
  0
LINE
  5
148DD
  8
0
 10
123.4658591520125981
 20
-8.9810503538423454
 30
0.0
 11
123.4658591520125981
 21
-8.9842865996423455
 31
0.0
  0
LINE
  5
148DE
  8
0
 10
123.4408636253125024
 20
-9.0009854556423452
 30
0.0
 11
123.4507061450125036
 21
-8.9845901443423486
 31
0.0
  0
LINE
  5
148DF
  8
0
 10
123.4507061450125036
 20
-8.9845901443423486
 30
0.0
 11
123.4609347915124999
 21
-8.9902696467423482
 31
0.0
  0
LINE
  5
148E0
  8
0
 10
123.4609347915124999
 20
-8.9902696467423482
 30
0.0
 11
123.4510922718124988
 21
-9.0066649580423501
 31
0.0
  0
LINE
  5
148E1
  8
0
 10
123.4510922718124988
 20
-9.0066649580423501
 30
0.0
 11
123.4408636253125024
 21
-9.0009854556423452
 31
0.0
  0
LINE
  5
148E2
  8
0
 10
123.4423207254631052
 20
-8.9985582712128291
 30
0.0
 11
123.4510922718124988
 21
-9.0034287122423464
 31
0.0
  0
LINE
  5
148E3
  8
0
 10
123.4510922718124988
 20
-9.0034287122423464
 30
0.0
 11
123.4595066720124947
 21
-8.9894123104423471
 31
0.0
  0
LINE
  5
148E4
  8
0
 10
123.4510922718124988
 20
-9.0034287122423464
 30
0.0
 11
123.4510922718124988
 21
-9.0066649580423501
 31
0.0
  0
LINE
  5
148E5
  8
0
 10
123.4260967451624964
 20
-9.0233638140423462
 30
0.0
 11
123.4359392648624976
 21
-9.0069685027423461
 31
0.0
  0
LINE
  5
148E6
  8
0
 10
123.4359392648624976
 20
-9.0069685027423461
 30
0.0
 11
123.4461679113624939
 21
-9.0126480051423457
 31
0.0
  0
LINE
  5
148E7
  8
0
 10
123.4461679113624939
 20
-9.0126480051423457
 30
0.0
 11
123.4363253916625069
 21
-9.0290433164423476
 31
0.0
  0
LINE
  5
148E8
  8
0
 10
123.4363253916625069
 20
-9.0290433164423476
 30
0.0
 11
123.4260967451624964
 21
-9.0233638140423462
 31
0.0
  0
LINE
  5
148E9
  8
0
 10
123.4275538453129997
 20
-9.0209366296128302
 30
0.0
 11
123.4363253916625069
 21
-9.0258070706423474
 31
0.0
  0
LINE
  5
148EA
  8
0
 10
123.4363253916625069
 20
-9.0258070706423474
 30
0.0
 11
123.4447397918625029
 21
-9.0117906688423481
 31
0.0
  0
LINE
  5
148EB
  8
0
 10
123.4363253916625069
 20
-9.0258070706423474
 30
0.0
 11
123.4363253916625069
 21
-9.0290433164423476
 31
0.0
  0
LINE
  5
148EC
  8
0
 10
123.467862031712599
 20
-9.0182308665923472
 30
0.0
 11
123.4777045514125007
 21
-9.0018355552923488
 31
0.0
  0
LINE
  5
148ED
  8
0
 10
123.4777045514125007
 20
-9.0018355552923488
 30
0.0
 11
123.487933197912497
 21
-9.0075150576923484
 31
0.0
  0
LINE
  5
148EE
  8
0
 10
123.487933197912497
 20
-9.0075150576923484
 30
0.0
 11
123.4780906782124958
 21
-9.0239103689923468
 31
0.0
  0
LINE
  5
148EF
  8
0
 10
123.4780906782124958
 20
-9.0239103689923468
 30
0.0
 11
123.467862031712599
 21
-9.0182308665923472
 31
0.0
  0
LINE
  5
148F0
  8
0
 10
123.4693191318630028
 20
-9.0158036821628293
 30
0.0
 11
123.4780906782124958
 21
-9.0206741231923466
 31
0.0
  0
LINE
  5
148F1
  8
0
 10
123.4780906782124958
 20
-9.0206741231923466
 30
0.0
 11
123.486505078412506
 21
-9.0066577213923473
 31
0.0
  0
LINE
  5
148F2
  8
0
 10
123.4780906782124958
 20
-9.0206741231923466
 30
0.0
 11
123.4780906782124958
 21
-9.0239103689923468
 31
0.0
  0
LINE
  5
148F3
  8
0
 10
123.4837871528124964
 20
-8.9965983860423471
 30
0.0
 11
123.4936296725124976
 21
-8.9802030747423487
 31
0.0
  0
LINE
  5
148F4
  8
0
 10
123.4936296725124976
 20
-8.9802030747423487
 30
0.0
 11
123.5038583190124939
 21
-8.9858825771423483
 31
0.0
  0
LINE
  5
148F5
  8
0
 10
123.5038583190124939
 20
-8.9858825771423483
 30
0.0
 11
123.4940157993125069
 21
-9.0022778884423467
 31
0.0
  0
LINE
  5
148F6
  8
0
 10
123.4940157993125069
 20
-9.0022778884423467
 30
0.0
 11
123.4837871528124964
 21
-8.9965983860423471
 31
0.0
  0
LINE
  5
148F7
  8
0
 10
123.4852442529630991
 20
-8.9941712016128292
 30
0.0
 11
123.4940157993125069
 21
-8.9990416426423465
 31
0.0
  0
LINE
  5
148F8
  8
0
 10
123.4940157993125069
 20
-8.9990416426423465
 30
0.0
 11
123.5024301995125029
 21
-8.9850252408423472
 31
0.0
  0
LINE
  5
148F9
  8
0
 10
123.4940157993125069
 20
-8.9990416426423465
 30
0.0
 11
123.4940157993125069
 21
-9.0022778884423467
 31
0.0
  0
LINE
  5
148FA
  8
0
 10
123.4995154794124943
 20
-8.974834364342346
 30
0.0
 11
123.5062311679954945
 21
-8.9636476145803652
 31
0.0
  0
LINE
  5
148FB
  8
0
 10
123.5097441259125048
 20
-8.9805138667423492
 30
0.0
 11
123.4995154794124943
 21
-8.974834364342346
 31
0.0
  0
LINE
  5
148FC
  8
0
 10
123.500972579563097
 20
-8.9724071799128282
 30
0.0
 11
123.5097441259125048
 21
-8.9772776209423455
 31
0.0
  0
LINE
  5
148FD
  8
0
 10
123.5097441259125048
 20
-8.9772776209423455
 30
0.0
 11
123.5097441259125048
 21
-8.9805138667423492
 31
0.0
  0
LINE
  5
148FE
  8
0
 10
123.3970919001124997
 20
-8.9461032706923476
 30
0.0
 11
123.3996065709338978
 21
-8.9419144235079742
 31
0.0
  0
LINE
  5
148FF
  8
0
 10
123.4145608754809018
 20
-8.9339425835209383
 30
0.0
 11
123.4171630663124972
 21
-8.9353874617923452
 31
0.0
  0
LINE
  5
14900
  8
0
 10
123.4171630663124972
 20
-8.9353874617923452
 30
0.0
 11
123.4073205466124961
 21
-8.9517827730923472
 31
0.0
  0
LINE
  5
14901
  8
0
 10
123.4073205466124961
 20
-8.9517827730923472
 30
0.0
 11
123.3970919001124997
 21
-8.9461032706923476
 31
0.0
  0
LINE
  5
14902
  8
0
 10
123.3985490002631025
 20
-8.9436760862628297
 30
0.0
 11
123.4073205466124961
 21
-8.948546527292347
 31
0.0
  0
LINE
  5
14903
  8
0
 10
123.4073205466124961
 20
-8.948546527292347
 30
0.0
 11
123.4157349468125062
 21
-8.9345301254923477
 31
0.0
  0
LINE
  5
14904
  8
0
 10
123.4073205466124961
 20
-8.948546527292347
 30
0.0
 11
123.4073205466124961
 21
-8.9517827730923472
 31
0.0
  0
LINE
  5
14905
  8
0
 10
123.3843238991624958
 20
-8.969591515842346
 30
0.0
 11
123.3941664188624969
 21
-8.9531962045423477
 31
0.0
  0
LINE
  5
14906
  8
0
 10
123.3941664188624969
 20
-8.9531962045423477
 30
0.0
 11
123.4043950653624933
 21
-8.9588757069423473
 31
0.0
  0
LINE
  5
14907
  8
0
 10
123.4043950653624933
 20
-8.9588757069423473
 30
0.0
 11
123.3945525456625063
 21
-8.9752710182423456
 31
0.0
  0
LINE
  5
14908
  8
0
 10
123.3945525456625063
 20
-8.9752710182423456
 30
0.0
 11
123.3843238991624958
 21
-8.969591515842346
 31
0.0
  0
LINE
  5
14909
  8
0
 10
123.385780999312999
 20
-8.9671643314128282
 30
0.0
 11
123.3945525456625063
 21
-8.9720347724423455
 31
0.0
  0
LINE
  5
1490A
  8
0
 10
123.3945525456625063
 20
-8.9720347724423455
 30
0.0
 11
123.4029669458625023
 21
-8.9580183706423462
 31
0.0
  0
LINE
  5
1490B
  8
0
 10
123.3945525456625063
 20
-8.9720347724423455
 30
0.0
 11
123.3945525456625063
 21
-8.9752710182423456
 31
0.0
  0
LINE
  5
1490C
  8
0
 10
123.3729805795861978
 20
-8.9891210259297338
 30
0.0
 11
123.3806758988625063
 21
-8.976302442992349
 31
0.0
  0
LINE
  5
1490D
  8
0
 10
123.3806758988625063
 20
-8.976302442992349
 30
0.0
 11
123.3909045453625026
 21
-8.9819819453923486
 31
0.0
  0
LINE
  5
1490E
  8
0
 10
123.3909045453625026
 20
-8.9819819453923486
 30
0.0
 11
123.3810620256625015
 21
-8.9983772566923506
 31
0.0
  0
LINE
  5
1490F
  8
0
 10
123.3810620256625015
 20
-8.9983772566923506
 30
0.0
 11
123.3761627467786042
 21
-8.9956569098527268
 31
0.0
  0
LINE
  5
14910
  8
0
 10
123.373889886330204
 20
-8.9911586478879286
 30
0.0
 11
123.3810620256625015
 21
-8.9951410108923469
 31
0.0
  0
LINE
  5
14911
  8
0
 10
123.3810620256625015
 20
-8.9951410108923469
 30
0.0
 11
123.3894764258624974
 21
-8.9811246090923476
 31
0.0
  0
LINE
  5
14912
  8
0
 10
123.3810620256625015
 20
-8.9951410108923469
 30
0.0
 11
123.3810620256625015
 21
-8.9983772566923506
 31
0.0
  0
LINE
  5
14913
  8
0
 10
123.5097441259125048
 20
-8.9772776209423455
 30
0.0
 11
123.5118888328862994
 21
-8.9743447911311485
 31
0.0
  0
LINE
  5
14914
  8
0
 10
123.5097441259125048
 20
-8.9805138667423492
 30
0.0
 11
123.5127505129838994
 21
-8.9764323962534185
 31
0.0
  0
LINE
  5
14915
  8
0
 10
123.4571144017876065
 20
-9.0334718182259461
 30
0.0
 11
123.4638300354124993
 21
-9.0241790817423464
 31
0.0
  0
LINE
  5
14916
  8
0
 10
123.4638300354124993
 20
-9.0241790817423464
 30
0.0
 11
123.4713072240760994
 21
-9.0291769775376611
 31
0.0
  0
LINE
  5
14917
  8
0
 10
122.3243010805964985
 20
-9.1519328085807885
 30
0.0
 11
122.3272767476125011
 21
-9.1540120174423478
 31
0.0
  0
LINE
  5
14918
  8
0
 10
122.3272767476125011
 20
-9.1540120174423478
 30
0.0
 11
122.3272767476125011
 21
-9.1507757716423477
 31
0.0
  0
LINE
  5
14919
  8
0
 10
122.3272767476125011
 20
-9.1507757716423477
 30
0.0
 11
122.3253367934812985
 21
-9.1494202537748741
 31
0.0
  0
LINE
  5
1491A
  8
0
 10
122.3272767476125011
 20
-9.1507757716423477
 30
0.0
 11
122.3326189269167941
 21
-9.1437042940181037
 31
0.0
  0
LINE
  5
1491B
  8
0
 10
122.3293736307402071
 20
-9.1414366853066547
 30
0.0
 11
122.3342190931124946
 21
-9.1448223894423464
 31
0.0
  0
LINE
  5
1491C
  8
0
 10
122.3342190931124946
 20
-9.1448223894423464
 30
0.0
 11
122.3272767476125011
 21
-9.1540120174423478
 31
0.0
  0
LINE
  5
1491D
  8
0
 10
122.3336469601125032
 20
-9.1584631211423471
 30
0.0
 11
122.3405797519228031
 21
-9.1492861394237934
 31
0.0
  0
LINE
  5
1491E
  8
0
 10
122.3495724915125038
 20
-9.1695908804423496
 30
0.0
 11
122.3495724915125038
 21
-9.1663546345423477
 31
0.0
  0
LINE
  5
1491F
  8
0
 10
122.3405797519228031
 20
-9.1492861394237934
 30
0.0
 11
122.3565148370124973
 21
-9.1604012524423482
 31
0.0
  0
LINE
  5
14920
  8
0
 10
122.3565148370124973
 20
-9.1604012524423482
 30
0.0
 11
122.3495820452022969
 21
-9.1695782341609018
 31
0.0
  0
LINE
  5
14921
  8
0
 10
122.3495820452022969
 20
-9.1695782341609018
 30
0.0
 11
122.3336469601125032
 21
-9.1584631211423471
 31
0.0
  0
LINE
  5
14922
  8
0
 10
122.3352471263402066
 20
-9.1563449706742155
 30
0.0
 11
122.3495724915125038
 21
-9.1663546345423477
 31
0.0
  0
LINE
  5
14923
  8
0
 10
122.3495724915125038
 20
-9.1663546345423477
 30
0.0
 11
122.3549137108461053
 21
-9.1592844276374521
 31
0.0
  0
LINE
  5
14924
  8
0
 10
122.3445707761011931
 20
-9.1228932394972695
 30
0.0
 11
122.3489137981125054
 21
-9.1262037387423476
 31
0.0
  0
LINE
  5
14925
  8
0
 10
122.3489137981125054
 20
-9.1262037387423476
 30
0.0
 11
122.3489137981125054
 21
-9.1229674929423474
 31
0.0
  0
LINE
  5
14926
  8
0
 10
122.3489137981125054
 20
-9.1229674929423474
 30
0.0
 11
122.3546144908390971
 21
-9.1160549383360916
 31
0.0
  0
LINE
  5
14927
  8
0
 10
122.3562501892125027
 20
-9.1173017609423468
 30
0.0
 11
122.3541325200765044
 21
-9.1156875527275005
 31
0.0
  0
LINE
  5
14928
  8
0
 10
122.3562501892125027
 20
-9.1173017609423468
 30
0.0
 11
122.3489137981125054
 21
-9.1262037387423476
 31
0.0
  0
LINE
  5
14929
  8
0
 10
122.3465713097302938
 20
-9.1211819145671988
 30
0.0
 11
122.3489137981125054
 21
-9.1229674929423474
 31
0.0
  0
LINE
  5
1492A
  8
0
 10
122.3550846127125027
 20
-9.13090748584235
 30
0.0
 11
122.3624210038125
 21
-9.1220055080423492
 31
0.0
  0
LINE
  5
1492B
  8
0
 10
122.3624210038125
 20
-9.1220055080423492
 30
0.0
 11
122.3778480403125002
 21
-9.1337648758423491
 31
0.0
  0
LINE
  5
1492C
  8
0
 10
122.3778480403125002
 20
-9.1337648758423491
 30
0.0
 11
122.3705116492125029
 21
-9.1426668536423463
 31
0.0
  0
LINE
  5
1492D
  8
0
 10
122.3705116492125029
 20
-9.1426668536423463
 30
0.0
 11
122.3550846127125027
 21
-9.13090748584235
 31
0.0
  0
LINE
  5
1492E
  8
0
 10
122.3567226731411068
 20
-9.1289198631309461
 30
0.0
 11
122.3705116492125029
 21
-9.1394306077423462
 31
0.0
  0
LINE
  5
1492F
  8
0
 10
122.3705116492125029
 20
-9.1394306077423462
 30
0.0
 11
122.3762597227125042
 21
-9.1324558948423462
 31
0.0
  0
LINE
  5
14930
  8
0
 10
122.3705116492125029
 20
-9.1394306077423462
 30
0.0
 11
122.3705116492125029
 21
-9.1426668536423463
 31
0.0
  0
LINE
  5
14931
  8
0
 10
122.3792005983978015
 20
-9.1054823601961736
 30
0.0
 11
122.3926047670125001
 21
-9.1166097272423485
 31
0.0
  0
LINE
  5
14932
  8
0
 10
122.3926047670125001
 20
-9.1166097272423485
 30
0.0
 11
122.4003223332125003
 21
-9.1080110166423474
 31
0.0
  0
LINE
  5
14933
  8
0
 10
122.4003223332125003
 20
-9.1080110166423474
 30
0.0
 11
122.3953408757548971
 21
-9.1038756982293751
 31
0.0
  0
LINE
  5
14934
  8
0
 10
122.3823809661557931
 20
-9.104886271974145
 30
0.0
 11
122.3926047670125001
 21
-9.1133734813423466
 31
0.0
  0
LINE
  5
14935
  8
0
 10
122.3926047670125001
 20
-9.1133734813423466
 30
0.0
 11
122.3986578683573043
 21
-9.1066292740053214
 31
0.0
  0
LINE
  5
14936
  8
0
 10
122.3926047670125001
 20
-9.1133734813423466
 30
0.0
 11
122.3926047670125001
 21
-9.1166097272423485
 31
0.0
  0
LINE
  5
14937
  8
0
 10
122.3985653580125046
 20
-9.1215578657423464
 30
0.0
 11
122.4062829242125048
 21
-9.112959155242347
 31
0.0
  0
LINE
  5
14938
  8
0
 10
122.4062829242125048
 20
-9.112959155242347
 30
0.0
 11
122.4211844017124946
 21
-9.1253295016423461
 31
0.0
  0
LINE
  5
14939
  8
0
 10
122.4211844017124946
 20
-9.1253295016423461
 30
0.0
 11
122.4134668355124944
 21
-9.1339282121423473
 31
0.0
  0
LINE
  5
1493A
  8
0
 10
122.4134668355124944
 20
-9.1339282121423473
 30
0.0
 11
122.3985653580125046
 21
-9.1215578657423464
 31
0.0
  0
LINE
  5
1493B
  8
0
 10
122.4002298228604957
 20
-9.1197033625228308
 30
0.0
 11
122.4134668355124944
 21
-9.1306919663423471
 31
0.0
  0
LINE
  5
1493C
  8
0
 10
122.4134668355124944
 20
-9.1306919663423471
 30
0.0
 11
122.4195756896125005
 21
-9.1238856407423476
 31
0.0
  0
LINE
  5
1493D
  8
0
 10
122.4134668355124944
 20
-9.1306919663423471
 30
0.0
 11
122.4134668355124944
 21
-9.1339282121423473
 31
0.0
  0
LINE
  5
1493E
  8
0
 10
122.4063523475378048
 20
-9.2092650710569899
 30
0.0
 11
122.4005341919124987
 21
-9.2051997099423488
 31
0.0
  0
LINE
  5
1493F
  8
0
 10
122.4005341919124987
 20
-9.2051997099423488
 30
0.0
 11
122.4074765374125064
 21
-9.1960100820423492
 31
0.0
  0
LINE
  5
14940
  8
0
 10
122.4074765374125064
 20
-9.1960100820423492
 30
0.0
 11
122.4209893783749976
 21
-9.2054520050015967
 31
0.0
  0
LINE
  5
14941
  8
0
 10
122.4021343581026002
 20
-9.2030815595470141
 30
0.0
 11
122.4100298693633988
 21
-9.2085984459592432
 31
0.0
  0
LINE
  5
14942
  8
0
 10
122.3559427041124934
 20
-9.1740419840423471
 30
0.0
 11
122.3628754959226939
 21
-9.1648650023237934
 31
0.0
  0
LINE
  5
14943
  8
0
 10
122.371868235512494
 20
-9.185169743342346
 30
0.0
 11
122.371868235512494
 21
-9.1819334974423477
 31
0.0
  0
LINE
  5
14944
  8
0
 10
122.3628754959226939
 20
-9.1648650023237934
 30
0.0
 11
122.3788105810125018
 21
-9.1759801153423481
 31
0.0
  0
LINE
  5
14945
  8
0
 10
122.3788105810125018
 20
-9.1759801153423481
 30
0.0
 11
122.3718777892023013
 21
-9.1851570970609018
 31
0.0
  0
LINE
  5
14946
  8
0
 10
122.3718777892023013
 20
-9.1851570970609018
 30
0.0
 11
122.3559427041124934
 21
-9.1740419840423471
 31
0.0
  0
LINE
  5
14947
  8
0
 10
122.3575428703401968
 20
-9.1719238335742155
 30
0.0
 11
122.371868235512494
 21
-9.1819334974423477
 31
0.0
  0
LINE
  5
14948
  8
0
 10
122.371868235512494
 20
-9.1819334974423477
 30
0.0
 11
122.3772094548460956
 21
-9.1748632905374521
 31
0.0
  0
LINE
  5
14949
  8
0
 10
122.3782384480124961
 20
-9.1896208469923462
 30
0.0
 11
122.3851712398226965
 21
-9.1804438652737943
 31
0.0
  0
LINE
  5
1494A
  8
0
 10
122.3941639794124967
 20
-9.2007486062923451
 30
0.0
 11
122.3941639794124967
 21
-9.1975123603923485
 31
0.0
  0
LINE
  5
1494B
  8
0
 10
122.3851712398226965
 20
-9.1804438652737943
 30
0.0
 11
122.4011063249125044
 21
-9.191558978292349
 31
0.0
  0
LINE
  5
1494C
  8
0
 10
122.4011063249125044
 20
-9.191558978292349
 30
0.0
 11
122.394173533102304
 21
-9.2007359600109027
 31
0.0
  0
LINE
  5
1494D
  8
0
 10
122.394173533102304
 20
-9.2007359600109027
 30
0.0
 11
122.3782384480124961
 21
-9.1896208469923462
 31
0.0
  0
LINE
  5
1494E
  8
0
 10
122.3798386142401995
 20
-9.1875026965242164
 30
0.0
 11
122.3941639794124967
 21
-9.1975123603923485
 31
0.0
  0
LINE
  5
1494F
  8
0
 10
122.3941639794124967
 20
-9.1975123603923485
 30
0.0
 11
122.3995051987460982
 21
-9.1904421534874512
 31
0.0
  0
LINE
  5
14950
  8
0
 10
122.3766824639125019
 20
-9.1473706007423488
 30
0.0
 11
122.3840188550124992
 21
-9.1384686229423462
 31
0.0
  0
LINE
  5
14951
  8
0
 10
122.3840188550124992
 20
-9.1384686229423462
 30
0.0
 11
122.3994458915124994
 21
-9.1502279907423478
 31
0.0
  0
LINE
  5
14952
  8
0
 10
122.3994458915124994
 20
-9.1502279907423478
 30
0.0
 11
122.3921095004125021
 21
-9.1591299685423486
 31
0.0
  0
LINE
  5
14953
  8
0
 10
122.3921095004125021
 20
-9.1591299685423486
 30
0.0
 11
122.3766824639125019
 21
-9.1473706007423488
 31
0.0
  0
LINE
  5
14954
  8
0
 10
122.3783205243411061
 20
-9.1453829780309448
 30
0.0
 11
122.3921095004125021
 21
-9.1558937226423467
 31
0.0
  0
LINE
  5
14955
  8
0
 10
122.3921095004125021
 20
-9.1558937226423467
 30
0.0
 11
122.3978575739125034
 21
-9.1489190097423503
 31
0.0
  0
LINE
  5
14956
  8
0
 10
122.3921095004125021
 20
-9.1558937226423467
 30
0.0
 11
122.3921095004125021
 21
-9.1591299685423486
 31
0.0
  0
LINE
  5
14957
  8
0
 10
122.3982803151125012
 20
-9.1638337156423475
 30
0.0
 11
122.4056167062124985
 21
-9.1549317378423467
 31
0.0
  0
LINE
  5
14958
  8
0
 10
122.4056167062124985
 20
-9.1549317378423467
 30
0.0
 11
122.4210437427124987
 21
-9.1666911056423501
 31
0.0
  0
LINE
  5
14959
  8
0
 10
122.4210437427124987
 20
-9.1666911056423501
 30
0.0
 11
122.4137073516125014
 21
-9.1755930834423474
 31
0.0
  0
LINE
  5
1495A
  8
0
 10
122.4137073516125014
 20
-9.1755930834423474
 30
0.0
 11
122.3982803151125012
 21
-9.1638337156423475
 31
0.0
  0
LINE
  5
1495B
  8
0
 10
122.3999183755411053
 20
-9.1618460929309435
 30
0.0
 11
122.4137073516125014
 21
-9.1723568375423472
 31
0.0
  0
LINE
  5
1495C
  8
0
 10
122.4137073516125014
 20
-9.1723568375423472
 30
0.0
 11
122.4194554251125027
 21
-9.165382124642349
 31
0.0
  0
LINE
  5
1495D
  8
0
 10
122.4137073516125014
 20
-9.1723568375423472
 30
0.0
 11
122.4137073516125014
 21
-9.1755930834423474
 31
0.0
  0
LINE
  5
1495E
  8
0
 10
122.4198781663125004
 20
-9.180296830442348
 30
0.0
 11
122.4272145574124977
 21
-9.1713948526423472
 31
0.0
  0
LINE
  5
1495F
  8
0
 10
122.4272145574124977
 20
-9.1713948526423472
 30
0.0
 11
122.4426415939124979
 21
-9.1831542204423471
 31
0.0
  0
LINE
  5
14960
  8
0
 10
122.4426415939124979
 20
-9.1831542204423471
 30
0.0
 11
122.4353052028126001
 21
-9.1920561982423479
 31
0.0
  0
LINE
  5
14961
  8
0
 10
122.4353052028126001
 20
-9.1920561982423479
 30
0.0
 11
122.4198781663125004
 21
-9.180296830442348
 31
0.0
  0
LINE
  5
14962
  8
0
 10
122.4215162267411046
 20
-9.1783092077309441
 30
0.0
 11
122.4353052028126001
 21
-9.1888199523423495
 31
0.0
  0
LINE
  5
14963
  8
0
 10
122.4353052028126001
 20
-9.1888199523423495
 30
0.0
 11
122.4410532763125019
 21
-9.1818452394423442
 31
0.0
  0
LINE
  5
14964
  8
0
 10
122.4353052028126001
 20
-9.1888199523423495
 30
0.0
 11
122.4353052028126001
 21
-9.1920561982423479
 31
0.0
  0
LINE
  5
14965
  8
0
 10
122.4194274265124989
 20
-9.1388763506423487
 30
0.0
 11
122.4271449927124991
 21
-9.1302776401423493
 31
0.0
  0
LINE
  5
14966
  8
0
 10
122.4271449927124991
 20
-9.1302776401423493
 30
0.0
 11
122.4420464702125031
 21
-9.1426479865423467
 31
0.0
  0
LINE
  5
14967
  8
0
 10
122.4420464702125031
 20
-9.1426479865423467
 30
0.0
 11
122.4343289040125029
 21
-9.1512466970423496
 31
0.0
  0
LINE
  5
14968
  8
0
 10
122.4343289040125029
 20
-9.1512466970423496
 30
0.0
 11
122.4194274265124989
 21
-9.1388763506423487
 31
0.0
  0
LINE
  5
14969
  8
0
 10
122.4210918913605042
 20
-9.1370218474228331
 30
0.0
 11
122.4343289040125029
 21
-9.1480104512423495
 31
0.0
  0
LINE
  5
1496A
  8
0
 10
122.4343289040125029
 20
-9.1480104512423495
 30
0.0
 11
122.4404377581124947
 21
-9.1412041256423482
 31
0.0
  0
LINE
  5
1496B
  8
0
 10
122.4343289040125029
 20
-9.1480104512423495
 30
0.0
 11
122.4343289040125029
 21
-9.1512466970423496
 31
0.0
  0
LINE
  5
1496C
  8
0
 10
122.4402894949125056
 20
-9.1561948355923484
 30
0.0
 11
122.4480070611125058
 21
-9.1475961250923472
 31
0.0
  0
LINE
  5
1496D
  8
0
 10
122.4480070611125058
 20
-9.1475961250923472
 30
0.0
 11
122.4629085386124956
 21
-9.1599664714923463
 31
0.0
  0
LINE
  5
1496E
  8
0
 10
122.4629085386124956
 20
-9.1599664714923463
 30
0.0
 11
122.4551909724124954
 21
-9.1685651819923493
 31
0.0
  0
LINE
  5
1496F
  8
0
 10
122.4551909724124954
 20
-9.1685651819923493
 30
0.0
 11
122.4402894949125056
 21
-9.1561948355923484
 31
0.0
  0
LINE
  5
14970
  8
0
 10
122.4419539597603972
 20
-9.1543403323728327
 30
0.0
 11
122.4551909724124954
 21
-9.1653289361923491
 31
0.0
  0
LINE
  5
14971
  8
0
 10
122.4551909724124954
 20
-9.1653289361923491
 30
0.0
 11
122.4612998265125015
 21
-9.1585226105923496
 31
0.0
  0
LINE
  5
14972
  8
0
 10
122.4551909724124954
 20
-9.1653289361923491
 30
0.0
 11
122.4551909724124954
 21
-9.1685651819923493
 31
0.0
  0
LINE
  5
14973
  8
0
 10
122.8150678893218952
 20
-8.8812572668618017
 30
0.0
 11
122.8169325754124941
 21
-8.8876802275423472
 31
0.0
  0
LINE
  5
14974
  8
0
 10
122.8169325754124941
 20
-8.8876802275423472
 30
0.0
 11
122.8134098656507973
 21
-8.8886261441268033
 31
0.0
  0
LINE
  5
14975
  8
0
 10
122.8318155005481032
 20
-8.8560857084385134
 30
0.0
 11
122.8319446485125042
 21
-8.8566152606423465
 31
0.0
  0
LINE
  5
14976
  8
0
 10
122.8319446485125042
 20
-8.8566152606423465
 30
0.0
 11
122.8319446485125042
 21
-8.8559576302721474
 31
0.0
  0
LINE
  5
14977
  8
0
 10
122.8319446485125042
 20
-8.8566152606423465
 30
0.0
 11
122.8434436119125053
 21
-8.8540214220423472
 31
0.0
  0
LINE
  5
14978
  8
0
 10
122.8434436119125053
 20
-8.8540214220423472
 30
0.0
 11
122.8418952537770963
 21
-8.8476726072618082
 31
0.0
  0
LINE
  5
14979
  8
0
 10
122.8356276022788052
 20
-8.8525482453593227
 30
0.0
 11
122.8426936440919945
 21
-8.8509543475596715
 31
0.0
  0
LINE
  5
1497A
  8
0
 10
122.8636706510591949
 20
-8.8372037176408753
 30
0.0
 11
122.866088283312493
 21
-8.8493923569423494
 31
0.0
  0
LINE
  5
1497B
  8
0
 10
122.866088283312493
 20
-8.8493923569423494
 30
0.0
 11
122.866088283312493
 21
-8.8461561110423474
 31
0.0
  0
LINE
  5
1497C
  8
0
 10
122.866088283312493
 20
-8.8461561110423474
 30
0.0
 11
122.8642774937376032
 21
-8.8370269057733566
 31
0.0
  0
LINE
  5
1497D
  8
0
 10
122.866088283312493
 20
-8.8493923569423494
 30
0.0
 11
122.8776901012124938
 21
-8.8472638916423492
 31
0.0
  0
LINE
  5
1497E
  8
0
 10
122.8776901012124938
 20
-8.8472638916423492
 30
0.0
 11
122.8752078032393058
 21
-8.8347492362347673
 31
0.0
  0
LINE
  5
1497F
  8
0
 10
122.866088283312493
 20
-8.8461561110423474
 30
0.0
 11
122.877115713212504
 21
-8.8441330228423496
 31
0.0
  0
LINE
  5
14980
  8
0
 10
122.8992696225834038
 20
-8.8354303783443697
 30
0.0
 11
122.9005164684125049
 21
-8.8435508566423486
 31
0.0
  0
LINE
  5
14981
  8
0
 10
122.9005164684125049
 20
-8.8435508566423486
 30
0.0
 11
122.9005164684125049
 21
-8.8403146108423485
 31
0.0
  0
LINE
  5
14982
  8
0
 10
122.9005164684125049
 20
-8.8403146108423485
 30
0.0
 11
122.8997817808549939
 21
-8.835529725259839
 31
0.0
  0
LINE
  5
14983
  8
0
 10
122.9005164684125049
 20
-8.8403146108423485
 30
0.0
 11
122.9113253264849988
 21
-8.8387795822046904
 31
0.0
  0
LINE
  5
14984
  8
0
 10
122.9005164684125049
 20
-8.8435508566423486
 30
0.0
 11
122.9121805825291034
 21
-8.8417599088013787
 31
0.0
  0
LINE
  5
14985
  8
0
 10
122.9121805825291034
 20
-8.8417599088013787
 30
0.0
 11
122.9117471122447967
 21
-8.8389367965106782
 31
0.0
  0
LINE
  5
14986
  8
0
 10
122.9368584039356023
 20
-8.8545612449957503
 30
0.0
 11
122.9380495107125029
 21
-8.8654601589423478
 31
0.0
  0
LINE
  5
14987
  8
0
 10
122.9380495107125029
 20
-8.8654601589423478
 30
0.0
 11
122.9458640161459044
 21
-8.8646702547054943
 31
0.0
  0
LINE
  5
14988
  8
0
 10
122.9372528049187991
 20
-8.8549338628995429
 30
0.0
 11
122.9380501647932959
 21
-8.8622298981390877
 31
0.0
  0
LINE
  5
14989
  8
0
 10
122.9380495107125029
 20
-8.8622239131423477
 30
0.0
 11
122.9435204599523956
 21
-8.8616708997624727
 31
0.0
  0
LINE
  5
1498A
  8
0
 10
122.9409302164124966
 20
-8.8918193101423455
 30
0.0
 11
122.9526757644746056
 21
-8.8906320490329556
 31
0.0
  0
LINE
  5
1498B
  8
0
 10
122.9526757644746056
 20
-8.8906320490329556
 30
0.0
 11
122.9506339540217965
 21
-8.8719418349932155
 31
0.0
  0
LINE
  5
1498C
  8
0
 10
122.9505578639203947
 20
-8.8718101744806148
 30
0.0
 11
122.9388725695124975
 21
-8.8729913450423474
 31
0.0
  0
LINE
  5
1498D
  8
0
 10
122.9388725695124975
 20
-8.8729913450423474
 30
0.0
 11
122.9409302164124966
 21
-8.8918193101423455
 31
0.0
  0
LINE
  5
1498E
  8
0
 10
122.9523527210125025
 20
-8.8874284569423487
 30
0.0
 11
122.9409309686261054
 21
-8.8885829882072436
 31
0.0
  0
LINE
  5
1498F
  8
0
 10
122.9409309686261054
 20
-8.8885829882072436
 30
0.0
 11
122.9392223838863032
 21
-8.8729559851766986
 31
0.0
  0
LINE
  5
14990
  8
0
 10
122.9529079048780034
 20
-8.8982229661206951
 30
0.0
 11
122.9417532751125037
 21
-8.8993504961423469
 31
0.0
  0
LINE
  5
14991
  8
0
 10
122.9417532751125037
 20
-8.8993504961423469
 30
0.0
 11
122.9432562057437934
 21
-8.9131026729210525
 31
0.0
  0
LINE
  5
14992
  8
0
 10
122.9435685140240935
 20
-8.9127241231913388
 30
0.0
 11
122.9421027796124974
 21
-8.8993122999423484
 31
0.0
  0
LINE
  5
14993
  8
0
 10
122.9144561854985938
 20
-8.9344644207525281
 30
0.0
 11
122.9137791934660981
 21
-8.9296974014297632
 31
0.0
  0
LINE
  5
14994
  8
0
 10
122.9137791934660981
 20
-8.9296974014297632
 30
0.0
 11
122.9268189819660932
 21
-8.9278455455166572
 31
0.0
  0
LINE
  5
14995
  8
0
 10
122.9142307593241981
 20
-8.9296332719460274
 30
0.0
 11
122.9149408984872025
 21
-8.9342582782526243
 31
0.0
  0
LINE
  5
14996
  8
0
 10
122.8841362895406064
 20
-8.9403824700773669
 30
0.0
 11
122.8830558827124975
 21
-8.9349355337423475
 31
0.0
  0
LINE
  5
14997
  8
0
 10
122.8830558827124975
 20
-8.9349355337423475
 30
0.0
 11
122.8946577006124983
 21
-8.9328070684423473
 31
0.0
  0
LINE
  5
14998
  8
0
 10
122.8946577006124983
 20
-8.9328070684423473
 30
0.0
 11
122.896005422416394
 21
-8.9396016891882191
 31
0.0
  0
LINE
  5
14999
  8
0
 10
122.8836752575639935
 20
-8.9348219034569496
 30
0.0
 11
122.8847793315141956
 21
-8.9403881591617242
 31
0.0
  0
LINE
  5
1499A
  8
0
 10
122.816179024817103
 20
-8.8957448673858117
 30
0.0
 11
122.8190500543124983
 21
-8.8949739397423482
 31
0.0
  0
LINE
  5
1499B
  8
0
 10
122.8190500543124983
 20
-8.8949739397423482
 30
0.0
 11
122.8226267293654956
 21
-8.9072938917413147
 31
0.0
  0
LINE
  5
1499C
  8
0
 10
122.8168531472993976
 20
-8.8972062662524039
 30
0.0
 11
122.8194769880143014
 21
-8.8964445241913346
 31
0.0
  0
LINE
  5
1499D
  8
0
 10
122.8337426868124993
 20
-8.8639878523423477
 30
0.0
 11
122.8452416502125004
 21
-8.8613940136423466
 31
0.0
  0
LINE
  5
1499E
  8
0
 10
122.8452416502125004
 20
-8.8613940136423466
 30
0.0
 11
122.8497367461124981
 21
-8.8798254928423468
 31
0.0
  0
LINE
  5
1499F
  8
0
 10
122.8497367461124981
 20
-8.8798254928423468
 30
0.0
 11
122.8382377827124969
 21
-8.8824193315423479
 31
0.0
  0
LINE
  5
149A0
  8
0
 10
122.8382377827124969
 20
-8.8824193315423479
 30
0.0
 11
122.8337426868124993
 21
-8.8639878523423477
 31
0.0
  0
LINE
  5
149A1
  8
0
 10
122.8344907919055942
 20
-8.8638191011363112
 30
0.0
 11
122.8382377827124969
 21
-8.8791830856423442
 31
0.0
  0
LINE
  5
149A2
  8
0
 10
122.8382377827124969
 20
-8.8791830856423442
 30
0.0
 11
122.8489888663229976
 21
-8.8767589218301222
 31
0.0
  0
LINE
  5
149A3
  8
0
 10
122.8382377827124969
 20
-8.8791830856423442
 30
0.0
 11
122.8382377827124969
 21
-8.8824193315423479
 31
0.0
  0
LINE
  5
149A4
  8
0
 10
122.8400358210125063
 20
-8.8897919231423472
 30
0.0
 11
122.851534784512495
 21
-8.8871980845423462
 31
0.0
  0
LINE
  5
149A5
  8
0
 10
122.851534784512495
 20
-8.8871980845423462
 30
0.0
 11
122.856029880312505
 21
-8.9056295637423482
 31
0.0
  0
LINE
  5
149A6
  8
0
 10
122.856029880312505
 20
-8.9056295637423482
 30
0.0
 11
122.8445309169125039
 21
-8.9082234023423474
 31
0.0
  0
LINE
  5
149A7
  8
0
 10
122.8445309169125039
 20
-8.9082234023423474
 30
0.0
 11
122.8400358210125063
 21
-8.8897919231423472
 31
0.0
  0
LINE
  5
149A8
  8
0
 10
122.8407839260842991
 20
-8.8896231719490828
 30
0.0
 11
122.8445309169125039
 21
-8.9049871565423473
 31
0.0
  0
LINE
  5
149A9
  8
0
 10
122.8445309169125039
 20
-8.9049871565423473
 30
0.0
 11
122.8553352214125027
 21
-8.9025500131423456
 31
0.0
  0
LINE
  5
149AA
  8
0
 10
122.8445309169125039
 20
-8.9049871565423473
 30
0.0
 11
122.8445309169125039
 21
-8.9082234023423474
 31
0.0
  0
LINE
  5
149AB
  8
0
 10
122.8503017011635023
 20
-8.9318856539858302
 30
0.0
 11
122.8463289553125009
 21
-8.9155959940423486
 31
0.0
  0
LINE
  5
149AC
  8
0
 10
122.8463289553125009
 20
-8.9155959940423486
 30
0.0
 11
122.857827918712502
 21
-8.9130021553423475
 31
0.0
  0
LINE
  5
149AD
  8
0
 10
122.857827918712502
 20
-8.9130021553423475
 30
0.0
 11
122.8623230145124978
 21
-8.9314336345423477
 31
0.0
  0
LINE
  5
149AE
  8
0
 10
122.8623230145124978
 20
-8.9314336345423477
 30
0.0
 11
122.8534590078670021
 21
-8.9334331020369468
 31
0.0
  0
LINE
  5
149AF
  8
0
 10
122.8470770603107951
 20
-8.9154272428576924
 30
0.0
 11
122.8508240511124967
 21
-8.9307912273423469
 31
0.0
  0
LINE
  5
149B0
  8
0
 10
122.8508240511124967
 20
-8.9307912273423469
 30
0.0
 11
122.8615749094758058
 21
-8.9283661398687073
 31
0.0
  0
LINE
  5
149B1
  8
0
 10
122.8815804392125983
 20
-8.9274969966423452
 30
0.0
 11
122.8931822572125014
 21
-8.9253685313423468
 31
0.0
  0
LINE
  5
149B2
  8
0
 10
122.8931822572125014
 20
-8.9253685313423468
 30
0.0
 11
122.8894944100124036
 21
-8.906776027185888
 31
0.0
  0
LINE
  5
149B3
  8
0
 10
122.8894944100124036
 20
-8.906776027185888
 30
0.0
 11
122.8778918307125991
 21
-8.9089006538423483
 31
0.0
  0
LINE
  5
149B4
  8
0
 10
122.8778918307125991
 20
-8.9089006538423483
 30
0.0
 11
122.8815804392125983
 21
-8.9274969966423452
 31
0.0
  0
LINE
  5
149B5
  8
0
 10
122.8815804392125983
 20
-8.9274969966423452
 30
0.0
 11
122.8815804392125983
 21
-8.9242607507423486
 31
0.0
  0
LINE
  5
149B6
  8
0
 10
122.8815804392125983
 20
-8.9242607507423486
 30
0.0
 11
122.8785112462121987
 21
-8.9087872284868368
 31
0.0
  0
LINE
  5
149B7
  8
0
 10
122.8815804392125983
 20
-8.9242607507423486
 30
0.0
 11
122.8925628823868976
 21
-8.9222459157903558
 31
0.0
  0
LINE
  5
149B8
  8
0
 10
122.9097185490124957
 20
-8.9034823193423485
 30
0.0
 11
122.9214028678125032
 21
-8.9018229615423472
 31
0.0
  0
LINE
  5
149B9
  8
0
 10
122.9214028678125032
 20
-8.9018229615423472
 30
0.0
 11
122.9242785180124997
 21
-8.9205515436423468
 31
0.0
  0
LINE
  5
149BA
  8
0
 10
122.9242785180124997
 20
-8.9205515436423468
 30
0.0
 11
122.9125941991125046
 21
-8.9222109014423481
 31
0.0
  0
LINE
  5
149BB
  8
0
 10
122.9125941991125046
 20
-8.9222109014423481
 30
0.0
 11
122.9097185490124957
 21
-8.9034823193423485
 31
0.0
  0
LINE
  5
149BC
  8
0
 10
122.9102048491393049
 20
-8.9034132570442122
 30
0.0
 11
122.9125941991125046
 21
-8.9189746555423461
 31
0.0
  0
LINE
  5
149BD
  8
0
 10
122.9125941991125046
 20
-8.9189746555423461
 30
0.0
 11
122.923828006112501
 21
-8.9173792775423486
 31
0.0
  0
LINE
  5
149BE
  8
0
 10
122.9125941991125046
 20
-8.9189746555423461
 30
0.0
 11
122.9125941991125046
 21
-8.9222109014423481
 31
0.0
  0
LINE
  5
149BF
  8
0
 10
122.9056926388124964
 20
-8.8772623043923442
 30
0.0
 11
122.9173769576125039
 21
-8.8756029465923483
 31
0.0
  0
LINE
  5
149C0
  8
0
 10
122.9173769576125039
 20
-8.8756029465923483
 30
0.0
 11
122.9202526078125004
 21
-8.8943315286923479
 31
0.0
  0
LINE
  5
149C1
  8
0
 10
122.9202526078125004
 20
-8.8943315286923479
 30
0.0
 11
122.9085682889125053
 21
-8.8959908864923491
 31
0.0
  0
LINE
  5
149C2
  8
0
 10
122.9085682889125053
 20
-8.8959908864923491
 30
0.0
 11
122.9056926388124964
 21
-8.8772623043923442
 31
0.0
  0
LINE
  5
149C3
  8
0
 10
122.9061789389393056
 20
-8.8771932420942115
 30
0.0
 11
122.9085682889125053
 21
-8.8927546405923472
 31
0.0
  0
LINE
  5
149C4
  8
0
 10
122.9085682889125053
 20
-8.8927546405923472
 30
0.0
 11
122.9198020959125017
 21
-8.8911592625923461
 31
0.0
  0
LINE
  5
149C5
  8
0
 10
122.9085682889125053
 20
-8.8927546405923472
 30
0.0
 11
122.9085682889125053
 21
-8.8959908864923491
 31
0.0
  0
LINE
  5
149C6
  8
0
 10
122.9016667285124953
 20
-8.8510422894423471
 30
0.0
 11
122.9133510473125028
 21
-8.8493829316423458
 31
0.0
  0
LINE
  5
149C7
  8
0
 10
122.9133510473125028
 20
-8.8493829316423458
 30
0.0
 11
122.9162266975124993
 21
-8.8681115137423472
 31
0.0
  0
LINE
  5
149C8
  8
0
 10
122.9162266975124993
 20
-8.8681115137423472
 30
0.0
 11
122.9045423786125042
 21
-8.8697708715423467
 31
0.0
  0
LINE
  5
149C9
  8
0
 10
122.9045423786125042
 20
-8.8697708715423467
 30
0.0
 11
122.9016667285124953
 21
-8.8510422894423471
 31
0.0
  0
LINE
  5
149CA
  8
0
 10
122.9021530286393045
 20
-8.8509732271442125
 30
0.0
 11
122.9045423786125042
 21
-8.8665346256423483
 31
0.0
  0
LINE
  5
149CB
  8
0
 10
122.9045423786125042
 20
-8.8665346256423483
 30
0.0
 11
122.9157761856126001
 21
-8.8649392476423472
 31
0.0
  0
LINE
  5
149CC
  8
0
 10
122.9045423786125042
 20
-8.8665346256423483
 30
0.0
 11
122.9045423786125042
 21
-8.8697708715423467
 31
0.0
  0
LINE
  5
149CD
  8
0
 10
122.8764163872624948
 20
-8.9014621167423478
 30
0.0
 11
122.8880182052624974
 21
-8.8993336514423476
 31
0.0
  0
LINE
  5
149CE
  8
0
 10
122.8880182052624974
 20
-8.8993336514423476
 30
0.0
 11
122.8843303580623996
 21
-8.8807411472858888
 31
0.0
  0
LINE
  5
149CF
  8
0
 10
122.8843303580623996
 20
-8.8807411472858888
 30
0.0
 11
122.8727277787624956
 21
-8.8828657739423491
 31
0.0
  0
LINE
  5
149D0
  8
0
 10
122.8727277787624956
 20
-8.8828657739423491
 30
0.0
 11
122.8764163872624948
 21
-8.9014621167423478
 31
0.0
  0
LINE
  5
149D1
  8
0
 10
122.8764163872624948
 20
-8.9014621167423478
 30
0.0
 11
122.8764163872624948
 21
-8.8982258708423494
 31
0.0
  0
LINE
  5
149D2
  8
0
 10
122.8764163872624948
 20
-8.8982258708423494
 30
0.0
 11
122.8733471942621946
 21
-8.882752348586834
 31
0.0
  0
LINE
  5
149D3
  8
0
 10
122.8764163872624948
 20
-8.8982258708423494
 30
0.0
 11
122.8873988304368936
 21
-8.896211035890353
 31
0.0
  0
LINE
  5
149D4
  8
0
 10
122.871252335262497
 20
-8.8754272368423486
 30
0.0
 11
122.8828541532624996
 21
-8.8732987715423448
 31
0.0
  0
LINE
  5
149D5
  8
0
 10
122.8828541532624996
 20
-8.8732987715423448
 30
0.0
 11
122.8791663060625012
 21
-8.8547062673858861
 31
0.0
  0
LINE
  5
149D6
  8
0
 10
122.8791663060625012
 20
-8.8547062673858861
 30
0.0
 11
122.8675637267624978
 21
-8.8568308940423464
 31
0.0
  0
LINE
  5
149D7
  8
0
 10
122.8675637267624978
 20
-8.8568308940423464
 30
0.0
 11
122.871252335262497
 21
-8.8754272368423486
 31
0.0
  0
LINE
  5
149D8
  8
0
 10
122.871252335262497
 20
-8.8754272368423486
 30
0.0
 11
122.871252335262497
 21
-8.8721909909423466
 31
0.0
  0
LINE
  5
149D9
  8
0
 10
122.871252335262497
 20
-8.8721909909423466
 30
0.0
 11
122.8681831422621968
 21
-8.8567174686868348
 31
0.0
  0
LINE
  5
149DA
  8
0
 10
122.871252335262497
 20
-8.8721909909423466
 30
0.0
 11
122.8822347784368958
 21
-8.8701761559903538
 31
0.0
  0
LINE
  5
149DB
  8
0
 10
122.4926159354125019
 20
-8.8610934930423468
 30
0.0
 11
122.4998005731389981
 21
-8.873622429531089
 31
0.0
  0
LINE
  5
149DC
  8
0
 10
122.5608113176125045
 20
-8.8232348667423466
 30
0.0
 11
122.5679922769125056
 21
-8.8357582034423494
 31
0.0
  0
LINE
  5
149DD
  8
0
 10
122.7547981004125006
 20
-8.9044637184423472
 30
0.0
 11
122.7550519930811959
 21
-8.8920530201882144
 31
0.0
  0
LINE
  5
149DE
  8
0
 10
122.7550519930811959
 20
-8.8920530201882144
 30
0.0
 11
122.7550520339125057
 21
-8.8866098170423484
 31
0.0
  0
ARC
  5
149DF
  8
0
 10
122.883393878198703
 20
-8.8947752542976275
 30
0.0
 40
0.1285878689771905
 50
96.3236991607864468
 51
176.4554572312563892
  0
ARC
  5
149E0
  8
0
 10
122.8839769370471942
 20
-8.8969528140643064
 30
0.0
 40
0.1308168415488137
 50
23.6679352838646295
 51
96.4724623204447482
  0
ARC
  5
149E1
  8
0
 10
122.8896116013096957
 20
-8.9002709180253525
 30
0.0
 40
0.1248023890680389
 50
1.9655908248954981
 51
23.8131530267202685
  0
ARC
  5
149E2
  8
0
 10
122.8949673079121965
 20
-8.9048708250215114
 30
0.0
 40
0.1197031190157461
 50
308.7986329805465857
 51
4.2545655445784201
  0
ARC
  5
149E3
  8
0
 10
122.8768641403136002
 20
-8.9043412997281681
 30
0.0
 40
0.1220666574870985
 50
180.0574610848335908
 51
210.3876546991484986
  0
ARC
  5
149E4
  8
0
 10
122.8850112097120046
 20
-8.8974275992400855
 30
0.0
 40
0.1326045896807298
 50
211.1838898973458072
 51
289.631911301241189
  0
LINE
  5
149E5
  8
0
 10
123.0037889166125069
 20
-8.8444370133423469
 30
0.0
 11
123.0037804780666022
 21
-8.8498812885951779
 31
0.0
  0
ARC
  5
149E6
  8
0
 10
122.390758791514898
 20
-9.1741652583203752
 30
0.0
 40
0.126315595153414
 50
215.7399524785855078
 51
237.4786937040830992
  0
ARC
  5
149E7
  8
0
 10
122.3949644285769978
 20
-9.1683271323027924
 30
0.0
 40
0.133499881824006
 50
237.3037998745309949
 51
287.6253606447082234
  0
ARC
  5
149E8
  8
0
 10
122.3923839986773032
 20
-9.1725688065648896
 30
0.0
 40
0.1298033562168634
 50
289.2336917827644243
 51
309.8391079658404124
  0
ARC
  5
149E9
  8
0
 10
122.4713154885913013
 20
-9.2628839287292308
 30
0.0
 40
0.0123490263853111
 50
295.2324608282366967
 51
321.3101143563389996
  0
ARC
  5
149EA
  8
0
 10
122.4001186696036001
 20
-9.1754972230595229
 30
0.0
 40
0.1248182461881727
 50
310.3629702264968842
 51
1.9635762663523311
  0
ARC
  5
149EB
  8
0
 10
122.3942269521401016
 20
-9.1717379781857034
 30
0.0
 40
0.1306376969620848
 50
0.2269894936852379
 51
41.0894697123253465
  0
ARC
  5
149EC
  8
0
 10
119.3654063710082056
 20
-9.0585598287056701
 30
0.0
 40
3.0873409675462269
 50
359.9747356198129182
 51
0.0757700412888769
  0
ARC
  5
149ED
  8
0
 10
122.3917603432867054
 20
-9.1645187656993379
 30
0.0
 40
0.1258115640890295
 50
61.0041454066253905
 51
178.4709333780272118
  0
ARC
  5
149EE
  8
0
 10
122.3871121937058035
 20
-9.1763681653630904
 30
0.0
 40
0.1220694824726828
 50
172.8439004654754001
 51
215.9004568140939
  0
ARC
  5
149EF
  8
0
 10
122.1928749620357024
 20
-9.6758980061548954
 30
0.0
 40
0.1218367061775959
 50
100.9329376529478992
 51
185.4710430772985035
  0
ARC
  5
149F0
  8
0
 10
122.1982406419907932
 20
-9.6857038200619066
 30
0.0
 40
0.126660300509135
 50
180.8189826127031949
 51
257.3139300532650964
  0
ARC
  5
149F1
  8
0
 10
122.2014688817723993
 20
-9.6769518122503868
 30
0.0
 40
0.1359580979460185
 50
256.7986342623033238
 51
276.9220739419719166
  0
ARC
  5
149F2
  8
0
 10
122.2041824668432071
 20
-9.6854916557642845
 30
0.0
 40
0.1271643796949721
 50
276.1720447661426192
 51
1.823556723020803
  0
ARC
  5
149F3
  8
0
 10
122.1994590520878035
 20
-9.6859809318862631
 30
0.0
 40
0.1319014068445905
 50
1.9706917745135959
 51
82.0754006083954408
  0
ARC
  5
149F4
  8
0
 10
122.4102642569980048
 20
-10.0765224936007094
 30
0.0
 40
0.0258167549558998
 50
344.8458052672743861
 51
2.6368474103948829
  0
ARC
  5
149F5
  8
0
 10
122.3912466780329993
 20
-10.2035520193003695
 30
0.0
 40
0.1358209368322969
 50
70.7374406541662495
 51
119.2206755772357951
  0
ARC
  5
149F6
  8
0
 10
132.8426860346010017
 20
-10.0890955485965392
 30
0.0
 40
10.5177444632703203
 50
179.9777703200394967
 51
180.0074067195575083
  0
ARC
  5
149F7
  8
0
 10
122.385125957274397
 20
-10.1962153703051008
 30
0.0
 40
0.1216846163379991
 50
119.6429408183063003
 51
141.1246079084239113
  0
ARC
  5
149F8
  8
0
 10
122.3784096017988929
 20
-10.1860727281885808
 30
0.0
 40
0.1133881197579367
 50
142.8658976458918062
 51
180.0598064745549891
  0
ARC
  5
149F9
  8
0
 10
122.3945480335187028
 20
-10.1949337619151095
 30
0.0
 40
0.1298216461771504
 50
176.1385646556599909
 51
297.9136976470198874
  0
ARC
  5
149FA
  8
0
 10
122.3976633276571988
 20
-10.1952540064919699
 30
0.0
 40
0.1281067101300745
 50
296.7494569942888916
 51
317.3186502447131261
  0
ARC
  5
149FB
  8
0
 10
122.3960411640961041
 20
-10.1959357222580795
 30
0.0
 40
0.1288470160143236
 50
318.0305361345069173
 51
1.1186337221844651
  0
ARC
  5
149FC
  8
0
 10
122.4024869744517048
 20
-10.1948327604334903
 30
0.0
 40
0.1223848005127476
 50
0.6612765588340692
 51
50.7041286013133785
  0
ARC
  5
149FD
  8
0
 10
122.7354225066727054
 20
-10.3505872887562305
 30
0.0
 40
0.1950485607731066
 50
359.0110556086146971
 51
0.3037979691225098
  0
ARC
  5
149FE
  8
0
 10
122.9072210607333062
 20
-10.3484107468185709
 30
0.0
 40
0.0238733590371505
 50
333.5740746334499818
 51
346.5743956992744188
  0
ARC
  5
149FF
  8
0
 10
122.8832475500783943
 20
-10.4720420478461307
 30
0.0
 40
0.1312758086769488
 50
68.9182904283237292
 51
158.9361651242440132
  0
ARC
  5
14A00
  8
0
 10
122.882105863052999
 20
-10.4685562331191306
 30
0.0
 40
0.1273725532819354
 50
182.3530897669106139
 51
269.7596570072684017
  0
ARC
  5
14A01
  8
0
 10
122.8858622138045007
 20
-10.4660613584805091
 30
0.0
 40
0.1299371668957563
 50
268.1077004714038026
 51
337.1760281398063057
  0
ARC
  5
14A02
  8
0
 10
122.8932092557916036
 20
-10.4705499109734408
 30
0.0
 40
0.1214305870153562
 50
338.0716930900971988
 51
358.6666582181940157
  0
ARC
  5
14A03
  8
0
 10
122.9008660713777061
 20
-10.4705673410449194
 30
0.0
 40
0.1137755525717225
 50
358.5857108228394168
 51
1.3252138714717869
  0
ARC
  5
14A04
  8
0
 10
122.8973985666401063
 20
-10.4636620879381095
 30
0.0
 40
0.1172905201212471
 50
357.911744398151825
 51
49.4574362809153314
  0
ARC
  5
14A05
  8
0
 10
122.8665410790268027
 20
-10.4662660374227698
 30
0.0
 40
0.1117426304492037
 50
161.2251906980496869
 51
183.8549417679377882
  0
ARC
  5
14A06
  8
0
 10
123.0546105612580021
 20
-10.4275452851536308
 30
0.0
 40
0.2938793103431467
 50
179.4765554715818894
 51
180.5374148221617929
  0
ARC
  5
14A07
  8
0
 10
122.5643827924050981
 20
-10.4554735843481907
 30
0.0
 40
0.0792269148691442
 50
25.7526562249101083
 51
96.6018390710797661
  0
ARC
  5
14A08
  8
0
 10
122.6559577565791983
 20
-11.8078341231876998
 30
0.0
 40
1.3869312064645321
 50
85.6679782311840938
 51
90.8061035654838662
  0
ARC
  5
14A09
  8
0
 10
123.4269646817976991
 20
-10.3807528532947302
 30
0.0
 40
0.1139334655292294
 50
198.8599302863582921
 51
223.8174240687419001
  0
ARC
  5
14A0A
  8
0
 10
123.4414500398797969
 20
-10.3709733713750403
 30
0.0
 40
0.1310965358100188
 50
222.5145983489408081
 51
15.6446280648187503
  0
ARC
  5
14A0B
  8
0
 10
123.4446245355423031
 20
-10.3796699587163808
 30
0.0
 40
0.1332561340478375
 50
41.1990367031763327
 51
175.6585541378674122
  0
ARC
  5
14A0C
  8
0
 10
123.4345884269043978
 20
-10.3752215970559494
 30
0.0
 40
0.1229671145840436
 50
177.3715695667509067
 51
200.1506450477612873
  0
LINE
  5
14A0D
  8
0
 10
123.5448904168895012
 20
-10.2918990896252591
 30
0.0
 11
123.5448899132125007
 21
-10.2973380284423399
 31
0.0
  0
ARC
  5
14A0E
  8
0
 10
123.7994193122575979
 20
-9.9664100024138804
 30
0.0
 40
0.1213011060485609
 50
168.1100472844246099
 51
189.387737547739107
  0
ARC
  5
14A0F
  8
0
 10
123.8093998638193938
 20
-9.9621247927389938
 30
0.0
 40
0.1351295052418542
 50
79.7003657609496656
 51
168.4329893054164984
  0
ARC
  5
14A10
  8
0
 10
123.8165940095515936
 20
-9.9480188556707319
 30
0.0
 40
0.1190780780790088
 50
354.4782236706349181
 51
58.3106825530580579
  0
ARC
  5
14A11
  8
0
 10
123.8010947167899047
 20
-9.9576482416810563
 30
0.0
 40
0.1261062343483481
 50
193.1169886582920014
 51
243.412742494802103
  0
ARC
  5
14A12
  8
0
 10
123.8049679097126017
 20
-9.9515625222423196
 30
0.0
 40
0.1332839528000314
 50
243.0947067528568937
 51
263.3021789004592961
  0
ARC
  5
14A13
  8
0
 10
123.8070974357854936
 20
-9.9571187716257725
 30
0.0
 40
0.1280438122641363
 50
262.0657077415592084
 51
358.9446891404762141
  0
LINE
  5
14A14
  8
0
 10
123.680717470512505
 20
-9.9414170730423486
 30
0.0
 11
123.6785441484604036
 21
-9.9406682261954096
 31
0.0
  0
LINE
  5
14A15
  8
0
 10
123.6785441484604036
 20
-9.9406682261954096
 30
0.0
 11
123.6770147223125065
 21
-9.9390955716423477
 31
0.0
  0
LINE
  5
14A16
  8
0
 10
123.6770147223125065
 20
-9.9390955716423477
 30
0.0
 11
123.6770147223246994
 21
-9.9350294518418778
 31
0.0
  0
LINE
  5
14A17
  8
0
 10
123.8335437610125069
 20
-9.8291889204423484
 30
0.0
 11
123.8335437610125069
 21
-9.8346297404408372
 31
0.0
  0
LINE
  5
14A18
  8
0
 10
124.0170820309981963
 20
-9.6349433861529015
 30
0.0
 11
124.0312024897876029
 21
-9.6343912983923126
 31
0.0
  0
LINE
  5
14A19
  8
0
 10
124.0170811352125071
 20
-9.64039150174235
 30
0.0
 11
124.0314501463124941
 21
-9.6398303299423471
 31
0.0
  0
LINE
  5
14A1A
  8
0
 10
124.0170813831124974
 20
-9.7161195672423482
 30
0.0
 11
124.0314504740125017
 21
-9.7155588293423492
 31
0.0
  0
LINE
  5
14A1B
  8
0
 10
123.7604345471124958
 20
-10.3185189863423492
 30
0.0
 11
123.771441353712504
 21
-10.3268404603423392
 31
0.0
  0
LINE
  5
14A1C
  8
0
 10
123.8110481146543975
 20
-10.2605080861994793
 30
0.0
 11
123.8220508640124962
 21
-10.2688271775423505
 31
0.0
  0
ARC
  5
14A1D
  8
0
 10
123.808031853419493
 20
-9.4137407924761938
 30
0.0
 40
0.1330924308883865
 50
118.6486083192437064
 51
167.8758626499347884
  0
ARC
  5
14A1E
  8
0
 10
123.8056774556052062
 20
-9.4126157939676052
 30
0.0
 40
0.1275673553362884
 50
170.8209806171624905
 51
191.6107577585709123
  0
ARC
  5
14A1F
  8
0
 10
123.8046301305542016
 20
-9.4106771730078904
 30
0.0
 40
0.1305274625016223
 50
192.2456054031189012
 51
283.4978614929058267
  0
ARC
  5
14A20
  8
0
 10
123.8066097081785983
 20
-9.411068604707399
 30
0.0
 40
0.1296998812130244
 50
282.6842600981617011
 51
305.0296976842861909
  0
ARC
  5
14A21
  8
0
 10
123.8115254966399021
 20
-9.415243096607373
 30
0.0
 40
0.1235493739527111
 50
304.2740036575715976
 51
5.1424778860687983
  0
ARC
  5
14A22
  8
0
 10
123.8111064998696946
 20
-9.4036796486777519
 30
0.0
 40
0.1240131425486679
 50
359.7738982140079997
 51
99.4781688017391161
  0
LINE
  5
14A23
  8
0
 10
123.7906850333124993
 20
-9.2813589686882381
 30
0.0
 11
123.7906850333124993
 21
-9.2868024682849821
 31
0.0
  0
LINE
  5
14A24
  8
0
 10
123.6779337927974041
 20
-9.3856678557698174
 30
0.0
 11
123.6779081443124966
 21
-9.3905399873423452
 31
0.0
  0
LINE
  5
14A25
  8
0
 10
123.6779081443124966
 20
-9.3905399873423452
 30
0.0
 11
123.6797436328704975
 21
-9.3922662868744631
 31
0.0
  0
LINE
  5
14A26
  8
0
 10
123.7604476832125044
 20
-9.0325382184423475
 30
0.0
 11
123.7685956827912008
 21
-9.0255470859114837
 31
0.0
  0
LINE
  5
14A27
  8
0
 10
123.7604476213170983
 20
-9.0379859538166585
 30
0.0
 11
123.7714549127124997
 21
-9.0285424495423499
 31
0.0
  0
LINE
  5
14A28
  8
0
 10
123.8110568099125004
 20
-9.0959997837423465
 30
0.0
 11
123.8220675420125048
 21
-9.0865524506423476
 31
0.0
  0
ARC
  5
14A29
  8
0
 10
123.4433188553220049
 20
-8.9906333409492447
 30
0.0
 40
0.1299847991657456
 50
344.598330336300819
 51
137.4467103574519911
  0
ARC
  5
14A2A
  8
0
 10
123.4566029628389003
 20
-8.9952114914070336
 30
0.0
 40
0.1448809099475645
 50
160.479295690642914
 51
196.6433213305571996
  0
ARC
  5
14A2B
  8
0
 10
123.439775193979699
 20
-8.9952211939754427
 30
0.0
 40
0.1288451683618159
 50
198.7829383624718105
 51
260.2402711344057025
  0
ARC
  5
14A2C
  8
0
 10
123.4418827192143056
 20
-8.9922561899398694
 30
0.0
 40
0.1321339017661478
 50
259.5575647761946811
 51
323.0579791504271725
  0
ARC
  5
14A2D
  8
0
 10
123.4499003745445975
 20
-8.9992411915608201
 30
0.0
 40
0.1215302082540993
 50
323.4182050536394968
 51
347.6882102621311788
  0
LINE
  5
14A2E
  8
0
 10
123.347565893585795
 20
-8.9027276054542916
 30
0.0
 11
123.3475657265124994
 21
-8.9081706882712055
 31
0.0
  0
LINE
  5
14A2F
  8
0
 10
123.1637221530133957
 20
-8.7209945853112103
 30
0.0
 11
123.1612285668124969
 21
-8.7351643027423478
 31
0.0
  0
LINE
  5
14A30
  8
0
 10
123.2412658740124982
 20
-8.7341454696423497
 30
0.0
 11
123.2387719132741069
 21
-8.7483136448773351
 31
0.0
  0
LINE
  5
14A31
  8
0
 10
122.0990890779555968
 20
-9.3121230108887758
 30
0.0
 11
122.1125916330124994
 21
-9.3174096381423475
 31
0.0
  0
LINE
  5
14A32
  8
0
 10
122.0721575066124984
 20
-9.3832825956423491
 30
0.0
 11
122.0856599182124995
 21
-9.3885700596423476
 31
0.0
  0
LINE
  5
14A33
  8
0
 10
122.072151310064001
 20
-9.9720666862478389
 30
0.0
 11
122.0856529429212998
 21
-9.9679009498533304
 31
0.0
  0
LINE
  5
14A34
  8
0
 10
122.0990814359124954
 20
-10.0432272367423394
 30
0.0
 11
122.1125849321124974
 21
-10.0390620646423496
 31
0.0
  0
LINE
  5
14A35
  8
0
 10
122.4997846174125016
 20
-10.4828571923423404
 30
0.0
 11
122.4926005380124963
 21
-10.4942630325423494
 31
0.0
  0
LINE
  5
14A36
  8
0
 10
122.5681217665438965
 20
-10.5207205523702605
 30
0.0
 11
122.5607931095125025
 21
-10.5321238920423497
 31
0.0
  0
LINE
  5
14A37
  8
0
 10
123.1612078762125009
 20
-10.6213288189423505
 30
0.0
 11
123.1637030756516964
 21
-10.6343754885472794
 31
0.0
  0
LINE
  5
14A38
  8
0
 10
123.2387505151200031
 20
-10.6081787451659793
 30
0.0
 11
123.2412457674124937
 21
-10.6212262628423506
 31
0.0
  0
ARC
  5
14A39
  8
0
 10
123.0282861950137061
 20
-9.7072509799984736
 30
0.0
 40
0.2579608752645559
 50
2.2353913451082859
 51
177.7646086535654035
  0
ARC
  5
14A3A
  8
0
 10
123.0282861950139051
 20
-9.6871362339112537
 30
0.0
 40
0.2579605320363512
 50
182.2334374973758884
 51
357.7665625012978126
  0
ARC
  5
14A3B
  8
0
 10
123.024934118525195
 20
-9.7010070233528012
 30
0.0
 40
0.2690511599544252
 50
1.806856871683781
 51
175.6535835906475995
  0
ARC
  5
14A3C
  8
0
 10
123.025262111446807
 20
-9.6862095491525046
 30
0.0
 40
0.2686636021998883
 50
178.8071423034436975
 51
358.6532981588790108
  0
LINE
  5
14A3E
  8
0
 10
123.2069031785125048
 20
-9.2478679129484131
 30
0.0
 11
123.2069031785125048
 21
-9.2543822081010791
 31
0.0
  0
LINE
  5
14A3F
  8
0
 10
123.4064222354897993
 20
-9.3465383102752995
 30
0.0
 11
123.4064222354897993
 21
-9.3530545230702558
 31
0.0
  0
ENDSEC
  0
EOF
