  0
SECTION
  2
HEADER
  9
$ACADVER
  1
AC1009
  9
$INSBASE
 10
3970.1494418000911537
 20
130.704889759991886
 30
0.0
  9
$EXTMIN
 10
3969.100229201691036
 20
129.4548950311917963
 30
0.0
  9
$EXTMAX
 10
3977.6986543984908167
 20
131.9548844887918904
 30
0.0
  9
$LIMMIN
 10
0.0
 20
0.0
  9
$LIMMAX
 10
11.6929133858000007
 20
8.2677165353999982
  9
$ORTHOMODE
 70
     0
  9
$REGENMODE
 70
     1
  9
$FILLMODE
 70
     1
  9
$QTEXTMODE
 70
     0
  9
$MIRRTEXT
 70
     0
  9
$DRAGMODE
 70
     2
  9
$LTSCALE
 40
0.6431102362
  9
$OSMODE
 70
  3839
  9
$ATTMODE
 70
     1
  9
$TEXTSIZE
 40
0.2
  9
$TRACEWID
 40
0.05
  9
$TEXTSTYLE
  7
STANDARD
  9
$CLAYER
  8
0
  9
$CELTYPE
  6
BYLAYER
  9
$CECOLOR
 62
   256
  9
$DIMSCALE
 40
1.0
  9
$DIMASZ
 40
0.1875
  9
$DIMEXO
 40
0.0625
  9
$DIMDLI
 40
0.4443307087
  9
$DIMRND
 40
0.0
  9
$DIMDLE
 40
0.0
  9
$DIMEXE
 40
0.125
  9
$DIMTP
 40
0.01
  9
$DIMTM
 40
0.01
  9
$DIMTXT
 40
2.0
  9
$DIMCEN
 40
0.1052362205
  9
$DIMTSZ
 40
0.0
  9
$DIMTOL
 70
     1
  9
$DIMLIM
 70
     0
  9
$DIMTIH
 70
     1
  9
$DIMTOH
 70
     1
  9
$DIMSE1
 70
     0
  9
$DIMSE2
 70
     0
  9
$DIMTAD
 70
     0
  9
$DIMZIN
 70
     0
  9
$DIMBLK
  1

  9
$DIMASO
 70
     1
  9
$DIMSHO
 70
     1
  9
$DIMPOST
  1
\X
  9
$DIMAPOST
  1

  9
$DIMALT
 70
     1
  9
$DIMALTD
 70
     2
  9
$DIMALTF
 40
25.3999999999999986
  9
$DIMLFAC
 40
1.0
  9
$DIMTOFL
 70
     0
  9
$DIMTVP
 40
0.0
  9
$DIMTIX
 70
     0
  9
$DIMSOXD
 70
     0
  9
$DIMSAH
 70
     0
  9
$DIMBLK1
  1

  9
$DIMBLK2
  1

  9
$DIMSTYLE
  2
STANDARD
  9
$DIMCLRD
 70
     0
  9
$DIMCLRE
 70
     0
  9
$DIMCLRT
 70
     0
  9
$DIMTFAC
 40
1.0
  9
$DIMGAP
 40
0.09
  9
$LUNITS
 70
     2
  9
$LUPREC
 70
     4
  9
$SKETCHINC
 40
0.1
  9
$FILLETRAD
 40
0.0
  9
$AUNITS
 70
     0
  9
$AUPREC
 70
     0
  9
$MENU
  1
.
  9
$ELEVATION
 40
0.0
  9
$PELEVATION
 40
0.0
  9
$THICKNESS
 40
0.0
  9
$LIMCHECK
 70
     0
  9
$BLIPMODE
 70
     0
  9
$CHAMFERA
 40
0.0
  9
$CHAMFERB
 40
0.0
  9
$SKPOLY
 70
     0
  9
$TDCREATE
 40
2458060.468368056230247
  9
$TDUPDATE
 40
2459152.570844906847924
  9
$TDINDWG
 40
0.394046412
  9
$TDUSRTIMER
 40
0.394046412
  9
$USRTIMER
 70
     1
  9
$ANGBASE
 50
0.0
  9
$ANGDIR
 70
     0
  9
$PDMODE
 70
     0
  9
$PDSIZE
 40
0.3125
  9
$PLINEWID
 40
0.0
  9
$COORDS
 70
     1
  9
$SPLFRAME
 70
     0
  9
$SPLINETYPE
 70
     6
  9
$SPLINESEGS
 70
     8
  9
$ATTDIA
 70
     1
  9
$ATTREQ
 70
     1
  9
$HANDLING
 70
     1
  9
$HANDSEED
  5
11D76
  9
$SURFTAB1
 70
     6
  9
$SURFTAB2
 70
     6
  9
$SURFTYPE
 70
     6
  9
$SURFU
 70
     6
  9
$SURFV
 70
     6
  9
$UCSNAME
  2

  9
$UCSORG
 10
0.0
 20
0.0
 30
0.0
  9
$UCSXDIR
 10
1.0
 20
0.0
 30
0.0
  9
$UCSYDIR
 10
0.0
 20
1.0
 30
0.0
  9
$PUCSNAME
  2

  9
$PUCSORG
 10
0.0
 20
0.0
 30
0.0
  9
$PUCSXDIR
 10
1.0
 20
0.0
 30
0.0
  9
$PUCSYDIR
 10
0.0
 20
1.0
 30
0.0
  9
$USERI1
 70
     0
  9
$USERI2
 70
     0
  9
$USERI3
 70
     0
  9
$USERI4
 70
     0
  9
$USERI5
 70
     0
  9
$USERR1
 40
0.0
  9
$USERR2
 40
0.0
  9
$USERR3
 40
0.0
  9
$USERR4
 40
0.0
  9
$USERR5
 40
0.0
  9
$WORLDVIEW
 70
     1
  9
$SHADEDGE
 70
     3
  9
$SHADEDIF
 70
    70
  9
$TILEMODE
 70
     1
  9
$MAXACTVP
 70
    64
  9
$PLIMCHECK
 70
     0
  9
$PEXTMIN
 10
1.0000000000000000E+20
 20
1.0000000000000000E+20
 30
1.0000000000000000E+20
  9
$PEXTMAX
 10
-1.0000000000000000E+20
 20
-1.0000000000000000E+20
 30
-1.0000000000000000E+20
  9
$PLIMMIN
 10
0.0
 20
0.0
  9
$PLIMMAX
 10
12.0
 20
9.0
  9
$UNITMODE
 70
     0
  9
$VISRETAIN
 70
     1
  9
$PLINEGEN
 70
     0
  9
$PSLTSCALE
 70
     1
  0
ENDSEC
  0
SECTION
  2
TABLES
  0
TABLE
  2
VPORT
 70
     1
  0
VPORT
  2
*ACTIVE
 70
     0
 10
0.0
 20
0.0
 11
1.0
 21
1.0
 12
0.0
 22
0.0
 13
0.0
 23
0.0
 14
1.0
 24
1.0
 15
0.0
 25
0.0
 16
0.0
 26
0.0
 36
35.1946614221673215
 17
3973.3995361328129547
 27
130.7048873901366903
 37
0.0
 40
8.9544520468265301
 41
3.1182994454713491
 42
50.0
 43
0.0
 44
0.0
 50
0.0
 51
0.0
 71
     0
 72
   100
 73
     1
 74
     1
 75
     0
 76
     0
 77
     0
 78
     0
  0
ENDTAB
  0
TABLE
  2
LTYPE
 70
     2
  0
LTYPE
  2
CONTINUOUS
 70
     0
  3
Solid line
 72
    65
 73
     0
 40
0.0
  0
LTYPE
  2
PHANTOM2
 70
     0
  3
___ _ _ ___ _ _ ___ _ _ ___ _ _
 72
    65
 73
     6
 40
1.25
 49
0.625
 49
-0.125
 49
0.125
 49
-0.125
 49
0.125
 49
-0.125
  0
ENDTAB
  0
TABLE
  2
LAYER
 70
     2
  0
LAYER
  2
0
 70
     0
 62
   255
  6
CONTINUOUS
  0
LAYER
  2
DEFPOINTS
 70
     0
 62
     7
  6
CONTINUOUS
  0
ENDTAB
  0
TABLE
  2
STYLE
 70
     1
  0
STYLE
  2
STANDARD
 70
     0
 40
0.0
 41
0.8
 50
0.0
 71
     0
 42
0.2
  3
txt
  4

  0
ENDTAB
  0
TABLE
  2
VIEW
 70
     0
  0
ENDTAB
  0
TABLE
  2
UCS
 70
     0
  0
ENDTAB
  0
TABLE
  2
APPID
 70
    10
  0
APPID
  2
ACAD
 70
     0
  0
APPID
  2
ACAD_MLEADERVER
 70
     0
  0
APPID
  2
ACAD_EXEMPT_FROM_CAD_STANDARDS
 70
     0
  0
APPID
  2
ACAD_NAV_VCDISPLAY
 70
     0
  0
APPID
  2
ACAECLAYERSTANDARD
 70
     0
  0
APPID
  2
ACCMTRANSPARENCY
 70
     0
  0
APPID
  2
ACAD_DSTYLE_DIMJAG
 70
     0
  0
APPID
  2
ACAD_DSTYLE_DIMTALN
 70
     0
  0
APPID
  2
ACDBATTR
 70
     0
  0
APPID
  2
ACADANNOTATIVE
 70
     0
  0
ENDTAB
  0
TABLE
  2
DIMSTYLE
 70
     1
  0
DIMSTYLE
  2
STANDARD
 70
     0
  3

  4

  5

  6

  7

 40
1.0
 41
0.1875
 42
0.0625
 43
0.38
 44
0.125
 45
0.0
 46
0.0
 47
0.01
 48
0.01
140
0.15625
141
0.09
142
0.0
143
25.3999999999999986
144
1.0
145
0.0
146
1.0
147
0.09
 71
     1
 72
     0
 73
     1
 74
     1
 75
     0
 76
     0
 77
     0
 78
     4
170
     0
171
     2
172
     0
173
     0
174
     0
175
     0
176
     0
177
     0
178
     0
  0
ENDTAB
  0
ENDSEC
  0
SECTION
  2
BLOCKS
  0
BLOCK
  8
0
  2
$MODEL_SPACE
 70
     0
 10
0.0
 20
0.0
 30
0.0
  3
$MODEL_SPACE
  1

  0
ENDBLK
  5
21
  8
0
  0
BLOCK
 67
     1
  8
0
  2
$PAPER_SPACE
 70
     0
 10
0.0
 20
0.0
 30
0.0
  3
$PAPER_SPACE
  1

  0
ENDBLK
  5
1D
 67
     1
  8
0
  0
BLOCK
  8
0
  2
_FILLED
 70
     0
 10
0.0
 20
0.0
 30
0.0
  3
_FILLED
  1

  0
SOLID
  5
EBF0
  8
0
  6
BYBLOCK
 62
     0
 10
0.0
 20
0.0
 30
0.0
 11
-1.0
 21
0.1666666667
 31
0.0
 12
-1.0
 22
-0.1666666667
 32
0.0
 13
-1.0
 23
-0.1666666667
 33
0.0
  0
ENDBLK
  5
EBF1
  8
0
  6
BYBLOCK
 62
     0
  0
ENDSEC
  0
SECTION
  2
ENTITIES
  0
ATTDEF
  5
3930
  8
DEFPOINTS
 10
3970.149976557167065
 20
130.7088280076011984
 30
0.0
 40
0.001
  1
K-98964A
  3

  2
MODELNUMBER
 70
     0
1001
ACDBATTR
1070
     0
1070
     1
  0
ATTDEF
  5
3931
  8
DEFPOINTS
 10
3970.149976557167065
 20
130.70716134093459
 30
0.0
 40
0.001
  1
LOURE
  3

  2
TRADENAME
 70
     0
1001
ACDBATTR
1070
     0
1070
     1
  0
ATTDEF
  5
3932
  8
DEFPOINTS
 10
3970.149976557167065
 20
130.7054946742678965
 30
0.0
 40
0.001
  1
BATH AND SHOWER FAUCET
  3

  2
PRODUCT
 70
     0
1001
ACDBATTR
1070
     0
1070
     1
  0
ARC
  5
11B93
  8
0
 10
3970.1524595417158707
 20
130.2762479318411977
 30
0.0
 40
0.0742677659623029
 50
237.3890464512813878
 51
267.6712444346069901
  0
ARC
  5
11B94
  8
0
 10
3970.1570277953660479
 20
129.9462505895212985
 30
0.0
 40
0.2711302844033688
 50
91.6032965213278487
 51
99.4666011001676509
  0
LINE
  5
11B95
  8
0
 10
3970.1124342785910812
 20
130.2136885250918965
 30
0.0
 11
3970.1102111803947992
 21
130.2352209575630013
 31
0.0
  0
ARC
  5
11B96
  8
0
 10
3962.254210232522837
 20
130.7048950312918976
 30
0.0
 40
8.4402315675684871
 50
357.3920070696738094
 51
2.607992930326223
  0
ARC
  5
11B97
  8
0
 10
3970.6457411084911655
 20
131.0871252582907118
 30
0.0
 40
0.0400000000013367
 50
2.6080286630306801
 51
77.8602822259840792
  0
ARC
  5
11B98
  8
0
 10
3961.9936153431481216
 20
130.7048950312918976
 30
0.0
 40
8.6755743567088892
 50
357.4944197384057816
 51
2.5055802615941221
  0
ARC
  5
11B99
  8
0
 10
3970.1483262854958411
 20
130.2702058115561954
 30
0.0
 40
0.0681734371394293
 50
270.9375664985898879
 51
304.001583441849391
  0
ARC
  5
11B9A
  8
0
 10
3970.140118705750865
 20
129.9283166913043885
 30
0.0
 40
0.2891084004793817
 50
80.7782667804781767
 51
88.1520198549001748
  0
LINE
  5
11B9B
  8
0
 10
3970.1864499496919052
 20
130.2136885242919107
 30
0.0
 11
3970.1886169266058459
 21
130.2352200509868965
 31
0.0
  0
ARC
  5
11B9C
  8
0
 10
3970.1508767504401476
 20
130.3315060464364024
 30
0.0
 40
0.1270625670369087
 50
263.1505726602050004
 51
275.832330951658605
  0
ARC
  5
11B9D
  8
0
 10
3970.1489376785430068
 20
130.1130454961281941
 30
0.0
 40
0.0932459325075532
 50
80.8357252799153088
 51
98.1471783319542936
  0
LINE
  5
11B9E
  8
0
 10
3970.218674691986962
 20
130.2358990922629971
 30
0.0
 11
3970.2227770012959809
 21
130.2125573430573127
 31
0.0
  0
ARC
  5
11B9F
  8
0
 10
3970.2546808516858619
 20
130.2751230484101939
 30
0.0
 40
0.0702305001832862
 50
242.981804657115589
 51
306.0526032959986082
  0
LINE
  5
11BA0
  8
0
 10
3970.2960134508912233
 20
130.2183433037918974
 30
0.0
 11
3970.2964193648472246
 21
130.239405031058709
 31
0.0
  0
ARC
  5
11BA1
  8
0
 10
3970.2695320115672075
 20
130.0871428197301896
 30
0.0
 40
0.1338463060630992
 50
78.588761884992266
 51
110.4456460681193022
  0
ARC
  5
11BA2
  8
0
 10
3970.2684386713071945
 20
130.0919686657680927
 30
0.0
 40
0.1239839949783922
 50
84.9225373960311174
 51
105.0370279049309943
  0
ARC
  5
11BA3
  8
0
 10
3970.2469771876308187
 20
130.3382755245254998
 30
0.0
 40
0.1270202079529684
 50
265.1653489461791082
 51
284.7942163547901941
  0
LINE
  5
11BA4
  8
0
 10
3970.3276860485229918
 20
130.241528415822188
 30
0.0
 11
3970.3317905118919953
 21
130.2182989591919124
 31
0.0
  0
ARC
  5
11BA5
  8
0
 10
3970.3637277105071917
 20
130.2756870692244036
 30
0.0
 40
0.0656763262408621
 50
240.9035168847368027
 51
309.4964833397070265
  0
LINE
  5
11BA6
  8
0
 10
3970.405499880690968
 20
130.2250070373918049
 30
0.0
 11
3970.4054988282027807
 21
130.2485988130831061
 31
0.0
  0
ARC
  5
11BA7
  8
0
 10
3970.3858610026568385
 20
130.0324831373027905
 30
0.0
 40
0.1935229641049408
 50
84.1755482815611487
 51
106.2244519428961951
  0
ARC
  5
11BA8
  8
0
 10
3970.3761759288231588
 20
130.1389038263365023
 30
0.0
 40
0.0756863529014899
 50
84.1560552011244596
 51
106.2439456389283947
  0
ARC
  5
11BA9
  8
0
 10
3970.3625342082018506
 20
130.2888010884888956
 30
0.0
 40
0.0775985485799991
 50
264.4314949651767961
 51
285.9685058748772803
  0
LINE
  5
11BAB
  8
0
 10
3975.1986543984908167
 20
131.9233884257918987
 30
0.0
 11
3975.1986543984908167
 21
129.4863910941919016
 31
0.0
  0
LINE
  5
11BAC
  8
0
 10
3975.6612528236910293
 20
131.4607900005919134
 30
0.0
 11
3975.6612528236910293
 21
129.9489895193918869
 31
0.0
  0
LINE
  5
11BAD
  8
0
 10
3975.230150461491121
 20
131.9548844887918904
 30
0.0
 11
3977.6671583354909671
 21
131.9548844887918904
 31
0.0
  0
LINE
  5
11BAE
  8
0
 10
3975.6927488866917884
 20
131.4922860635919051
 30
0.0
 11
3977.2045599102912092
 21
131.4922860635919051
 31
0.0
  0
ARC
  5
11BAF
  8
0
 10
3975.6927488866917884
 20
131.4607900005919134
 30
0.0
 40
0.0314960629999952
 50
90.0
 51
180.0000000000098055
  0
ARC
  5
11BB0
  8
0
 10
3975.230150461491121
 20
131.9233884257918987
 30
0.0
 40
0.031496063000005
 50
90.0
 51
179.9999999999934914
  0
LINE
  5
11BB1
  8
0
 10
3975.230150461491121
 20
129.4548950311917963
 30
0.0
 11
3977.6671583354909671
 21
129.4548950311917963
 31
0.0
  0
LINE
  5
11BB2
  8
0
 10
3975.6927488866917884
 20
129.9174934563918953
 30
0.0
 11
3977.2045599102912092
 21
129.9174934563918953
 31
0.0
  0
ARC
  5
11BB3
  8
0
 10
3975.6927488866917884
 20
129.9489895193918869
 30
0.0
 40
0.0314960629999952
 50
179.9999999999901945
 51
270.0
  0
ARC
  5
11BB4
  8
0
 10
3975.230150461491121
 20
129.4863910941919016
 30
0.0
 40
0.031496063000005
 50
180.0000000000065086
 51
270.0
  0
LINE
  5
11BB5
  8
0
 10
3977.6986543984908167
 20
131.9233884257918987
 30
0.0
 11
3977.6986543984908167
 21
129.4863910941919016
 31
0.0
  0
LINE
  5
11BB6
  8
0
 10
3977.2360559732910588
 20
131.4607900005919134
 30
0.0
 11
3977.2360559732910588
 21
129.9489895193918869
 31
0.0
  0
ARC
  5
11BB7
  8
0
 10
3977.2045599102912092
 20
131.4607900005919134
 30
0.0
 40
0.0314960629999952
 50
359.9999999999902229
 51
90.0
  0
ARC
  5
11BB8
  8
0
 10
3977.6671583354909671
 20
131.9233884257918987
 30
0.0
 40
0.031496063000005
 50
0.0000000000065138
 51
90.0
  0
ARC
  5
11BB9
  8
0
 10
3977.2045599102912092
 20
129.9489895193918869
 30
0.0
 40
0.0314960629999952
 50
270.0
 51
0.0000000000097707
  0
ARC
  5
11BBA
  8
0
 10
3977.6671583354909671
 20
129.4863910941919016
 30
0.0
 40
0.031496063000005
 50
270.0
 51
359.9999999999935199
  0
LINE
  5
11BBB
  8
0
 10
3971.1395992803909394
 20
131.7540970871918944
 30
0.0
 11
3969.1592843197918228
 21
131.7540970871918944
 31
0.0
  0
LINE
  5
11BBC
  8
0
 10
3971.1986543984921809
 20
131.6950419690919034
 30
0.0
 11
3971.1986543984921809
 21
129.7140497621568045
 31
0.0
  0
ARC
  5
11BBD
  8
0
 10
3971.1395992803909394
 20
131.6950419690919034
 30
0.0
 40
0.0590551181000016
 50
0.0000000000065138
 51
90.0
  0
LINE
  5
11BBE
  8
0
 10
3971.1395992803909394
 20
129.655682432791906
 30
0.0
 11
3969.1592872093351616
 21
129.655682432791906
 31
0.0
  0
ARC
  5
11BBF
  8
0
 10
3971.1395963908480553
 20
129.7147445268660135
 30
0.0
 40
0.0590620941448517
 50
270.0028031282503207
 51
359.325997422171497
  0
LINE
  5
11BC0
  8
0
 10
3969.100229201691036
 20
131.6950419690919034
 30
0.0
 11
3969.100229201691036
 21
129.7140497621568045
 31
0.0
  0
ARC
  5
11BC1
  8
0
 10
3969.1592843197918228
 20
131.6950419690919034
 30
0.0
 40
0.0590551181000016
 50
90.0
 51
179.9999999999934914
  0
ARC
  5
11BC2
  8
0
 10
3969.1592872093351616
 20
129.7147445268660135
 30
0.0
 40
0.0590620941448517
 50
180.6740025778285883
 51
270.0
  0
ARC
  5
11BC3
  8
0
 10
3970.6409236006870742
 20
131.0831579052266989
 30
0.0
 40
0.019997222786345
 50
2.879311696892294
 51
77.98680726223877
  0
ARC
  5
11BC4
  8
0
 10
3970.6457411084911655
 20
130.3226648042931117
 30
0.0
 40
0.0400000000013367
 50
282.1397177740158781
 51
357.3919713369693909
  0
ARC
  5
11BC5
  8
0
 10
3970.6408984434060585
 20
130.3266535929230088
 30
0.0
 40
0.020023435199159
 50
282.0708357939872144
 51
357.0630452468988096
  0
ARC
  5
11BC6
  8
0
 10
3962.2494443951482026
 20
130.7049002787227039
 30
0.0
 40
8.4399974061876772
 50
357.4190348418248959
 51
2.5810282886453031
  0
ARC
  5
11BC7
  8
0
 10
3970.6409395795490127
 20
131.0831726554127101
 30
0.0
 40
0.0399806549819577
 50
2.5794821426889039
 51
78.0013776752841039
  0
ARC
  5
11BC8
  8
0
 10
3970.6409209298299174
 20
130.3266437603554095
 30
0.0
 40
0.0400000001646119
 50
282.0200443523518743
 51
357.4123482839947883
  0
ARC
  5
11BC9
  8
0
 10
3978.0446733676599251
 20
130.7048950312918976
 30
0.0
 40
8.4402315675684871
 50
177.3920070696736957
 51
182.6079929303261906
  0
ARC
  5
11BCA
  8
0
 10
3969.6531424916920514
 20
131.0871252582907118
 30
0.0
 40
0.0400000000013367
 50
102.1397177740159066
 51
177.3919713369693056
  0
ARC
  5
11BCB
  8
0
 10
3978.3052682570350953
 20
130.7048950312918976
 30
0.0
 40
8.6755743567088892
 50
177.4944197384058953
 51
182.5055802615941047
  0
LINE
  5
11BCC
  8
0
 10
3970.0802089081948907
 20
130.2358990922629971
 30
0.0
 11
3970.0761065988867813
 21
130.2125573430573127
 31
0.0
  0
ARC
  5
11BCD
  8
0
 10
3970.0442027484969003
 20
130.2751230484101939
 30
0.0
 40
0.0702305001832862
 50
233.9473967040013918
 51
297.0181953428844963
  0
LINE
  5
11BCE
  8
0
 10
3970.0028701492910841
 20
130.2183433037918974
 30
0.0
 11
3970.0024642353350828
 21
130.239405031058709
 31
0.0
  0
ARC
  5
11BCF
  8
0
 10
3970.0293515886160094
 20
130.0871428197301896
 30
0.0
 40
0.1338463060630992
 50
69.554353931880641
 51
101.4112381150077056
  0
ARC
  5
11BD0
  8
0
 10
3970.0304449288760225
 20
130.0919686657680927
 30
0.0
 40
0.1239839949783922
 50
74.9629720950438667
 51
95.0774626039688968
  0
ARC
  5
11BD1
  8
0
 10
3970.051906412551034
 20
130.3382755245254998
 30
0.0
 40
0.1270202079529684
 50
255.2057836452098911
 51
274.8346510538210055
  0
LINE
  5
11BD2
  8
0
 10
3969.9711975516588609
 20
130.241528415822188
 30
0.0
 11
3969.9670930882912216
 21
130.2182989591919124
 31
0.0
  0
ARC
  5
11BD3
  8
0
 10
3969.9351558896760253
 20
130.2756870692244036
 30
0.0
 40
0.0656763262408621
 50
230.5035166602928882
 51
299.0964831152631973
  0
LINE
  5
11BD4
  8
0
 10
3969.8933837194917942
 20
130.2250070373918049
 30
0.0
 11
3969.8933847719799815
 21
130.2485988130831061
 31
0.0
  0
ARC
  5
11BD5
  8
0
 10
3969.9130225975259236
 20
130.0324831373027905
 30
0.0
 40
0.1935229641049408
 50
73.7755480571037623
 51
95.8244517184388371
  0
ARC
  5
11BD6
  8
0
 10
3969.9227076713600582
 20
130.1389038263365023
 30
0.0
 40
0.0756863529014899
 50
73.75605436107152
 51
95.8439447988755546
  0
ARC
  5
11BD7
  8
0
 10
3969.9363493919809116
 20
130.2888010884888956
 30
0.0
 40
0.0775985485799991
 50
254.031494125122606
 51
275.5685050348230902
  0
ARC
  5
11BD8
  8
0
 10
3969.6579599994961427
 20
131.0831579052266989
 30
0.0
 40
0.019997222786345
 50
102.0131927377612016
 51
177.1206883031076984
  0
ARC
  5
11BD9
  8
0
 10
3969.6531424916920514
 20
130.3226648042931117
 30
0.0
 40
0.0400000000013367
 50
182.6080286630306944
 51
257.8602822259841219
  0
ARC
  5
11BDA
  8
0
 10
3969.6579851567757942
 20
130.3266535929230088
 30
0.0
 40
0.020023435199159
 50
182.9369547531011904
 51
257.9291642060128993
  0
ARC
  5
11BDB
  8
0
 10
3978.0494392050350143
 20
130.7049002787227039
 30
0.0
 40
8.4399974061876772
 50
177.4189717113546862
 51
182.5809651581751041
  0
ARC
  5
11BDC
  8
0
 10
3969.6579440206342042
 20
131.0831726554127101
 30
0.0
 40
0.0399806549819577
 50
101.9986223247158961
 51
177.420517857311097
  0
ARC
  5
11BDD
  8
0
 10
3969.6579626703528447
 20
130.3266437603554095
 30
0.0
 40
0.0400000001646119
 50
182.5876517160052117
 51
257.9799556476481257
  0
ARC
  5
11BDE
  8
0
 10
3970.1494418000911537
 20
128.7799003007428098
 30
0.0
 40
2.4000000017490239
 50
77.8602822639359289
 51
102.1397177360640995
  0
ARC
  5
11BDF
  8
0
 10
3970.1494418000911537
 20
128.7749003005783948
 30
0.0
 40
2.4000000019134511
 50
77.9799559246950906
 51
102.0200440753048952
  0
ARC
  5
11BE0
  8
0
 10
3970.1494418000911537
 20
128.774954624496786
 30
0.0
 40
2.3799456850950782
 50
77.9796835670379949
 51
102.020316432961593
  0
ARC
  5
11BE1
  8
0
 10
3970.1494418000911537
 20
132.6303612895852098
 30
0.0
 40
2.40046098709339
 50
257.8626490930388968
 51
282.1373509069609895
  0
ARC
  5
11BE2
  8
0
 10
3970.1494418000911537
 20
132.6353706922743072
 30
0.0
 40
2.4004703897824178
 50
257.9823464947069738
 51
282.0176535052930262
  0
ARC
  5
11BE3
  8
0
 10
3970.1494418000911537
 20
132.6353163474410906
 30
0.0
 40
2.3804160520492572
 50
257.9820942259131016
 51
282.0179057740868984
  0
LINE
  5
11BE4
  8
0
 10
3970.0444418000911355
 20
131.177602327348211
 30
0.0
 11
3970.0444418000929545
 21
131.2026307240998051
 31
0.0
  0
ARC
  5
11BE5
  8
0
 10
3970.1494418000911537
 20
128.7749003024914032
 30
0.0
 40
2.430000000000482
 50
87.5234853854129966
 51
92.4765146146130377
  0
LINE
  5
11BE6
  8
0
 10
3970.2544418000898077
 20
131.2026307240998051
 30
0.0
 11
3970.2544418000911719
 21
131.1776023273498026
 31
0.0
  0
ENDSEC
  0
EOF
