  0
SECTION
  2
HEADER
  9
$ACADVER
  1
AC1009
  9
$INSBASE
 10
4665.4989791992065875
 20
475.0745379580326926
 30
0.0
  9
$EXTMIN
 10
4646.9950421913572427
 20
475.0745379580326926
 30
0.0
  9
$EXTMAX
 10
4684.0029162070577513
 20
508.1454040998327173
 30
0.0
  9
$LIMMIN
 10
0.0
 20
0.0
  9
$LIMMAX
 10
11.6929133858000007
 20
8.2677165353999982
  9
$ORTHOMODE
 70
     0
  9
$REGENMODE
 70
     1
  9
$FILLMODE
 70
     1
  9
$QTEXTMODE
 70
     0
  9
$MIRRTEXT
 70
     0
  9
$DRAGMODE
 70
     2
  9
$LTSCALE
 40
0.6431102362
  9
$OSMODE
 70
    19
  9
$ATTMODE
 70
     1
  9
$TEXTSIZE
 40
0.2
  9
$TRACEWID
 40
0.05
  9
$TEXTSTYLE
  7
STANDARD
  9
$CLAYER
  8
0
  9
$CELTYPE
  6
BYLAYER
  9
$CECOLOR
 62
   256
  9
$DIMSCALE
 40
1.0
  9
$DIMASZ
 40
0.1875
  9
$DIMEXO
 40
0.0625
  9
$DIMDLI
 40
0.4443307087
  9
$DIMRND
 40
0.0
  9
$DIMDLE
 40
0.0
  9
$DIMEXE
 40
0.125
  9
$DIMTP
 40
0.01
  9
$DIMTM
 40
0.01
  9
$DIMTXT
 40
2.0
  9
$DIMCEN
 40
0.1052362205
  9
$DIMTSZ
 40
0.0
  9
$DIMTOL
 70
     1
  9
$DIMLIM
 70
     0
  9
$DIMTIH
 70
     1
  9
$DIMTOH
 70
     1
  9
$DIMSE1
 70
     0
  9
$DIMSE2
 70
     0
  9
$DIMTAD
 70
     0
  9
$DIMZIN
 70
     0
  9
$DIMBLK
  1

  9
$DIMASO
 70
     1
  9
$DIMSHO
 70
     1
  9
$DIMPOST
  1
\X
  9
$DIMAPOST
  1

  9
$DIMALT
 70
     1
  9
$DIMALTD
 70
     2
  9
$DIMALTF
 40
25.3999999999999986
  9
$DIMLFAC
 40
1.0
  9
$DIMTOFL
 70
     0
  9
$DIMTVP
 40
0.0
  9
$DIMTIX
 70
     0
  9
$DIMSOXD
 70
     0
  9
$DIMSAH
 70
     0
  9
$DIMBLK1
  1

  9
$DIMBLK2
  1

  9
$DIMSTYLE
  2
STANDARD
  9
$DIMCLRD
 70
     0
  9
$DIMCLRE
 70
     0
  9
$DIMCLRT
 70
     0
  9
$DIMTFAC
 40
1.0
  9
$DIMGAP
 40
0.09
  9
$LUNITS
 70
     2
  9
$LUPREC
 70
     4
  9
$SKETCHINC
 40
0.1
  9
$FILLETRAD
 40
0.0
  9
$AUNITS
 70
     0
  9
$AUPREC
 70
     0
  9
$MENU
  1
.
  9
$ELEVATION
 40
0.0
  9
$PELEVATION
 40
0.0
  9
$THICKNESS
 40
0.0
  9
$LIMCHECK
 70
     0
  9
$BLIPMODE
 70
     0
  9
$CHAMFERA
 40
0.0
  9
$CHAMFERB
 40
0.0
  9
$SKPOLY
 70
     0
  9
$TDCREATE
 40
2458060.468368056230247
  9
$TDUPDATE
 40
2459284.7546064821071923
  9
$TDINDWG
 40
1.5055006366000001
  9
$TDUSRTIMER
 40
1.5055006366000001
  9
$USRTIMER
 70
     1
  9
$ANGBASE
 50
0.0
  9
$ANGDIR
 70
     0
  9
$PDMODE
 70
     0
  9
$PDSIZE
 40
0.3125
  9
$PLINEWID
 40
0.0
  9
$COORDS
 70
     1
  9
$SPLFRAME
 70
     0
  9
$SPLINETYPE
 70
     6
  9
$SPLINESEGS
 70
     8
  9
$ATTDIA
 70
     1
  9
$ATTREQ
 70
     1
  9
$HANDLING
 70
     1
  9
$HANDSEED
  5
19551
  9
$SURFTAB1
 70
     6
  9
$SURFTAB2
 70
     6
  9
$SURFTYPE
 70
     6
  9
$SURFU
 70
     6
  9
$SURFV
 70
     6
  9
$UCSNAME
  2

  9
$UCSORG
 10
0.0
 20
0.0
 30
0.0
  9
$UCSXDIR
 10
1.0
 20
0.0
 30
0.0
  9
$UCSYDIR
 10
0.0
 20
1.0
 30
0.0
  9
$PUCSNAME
  2

  9
$PUCSORG
 10
0.0
 20
0.0
 30
0.0
  9
$PUCSXDIR
 10
1.0
 20
0.0
 30
0.0
  9
$PUCSYDIR
 10
0.0
 20
1.0
 30
0.0
  9
$USERI1
 70
     0
  9
$USERI2
 70
     0
  9
$USERI3
 70
     0
  9
$USERI4
 70
     0
  9
$USERI5
 70
     0
  9
$USERR1
 40
0.0
  9
$USERR2
 40
0.0
  9
$USERR3
 40
0.0
  9
$USERR4
 40
0.0
  9
$USERR5
 40
0.0
  9
$WORLDVIEW
 70
     1
  9
$SHADEDGE
 70
     3
  9
$SHADEDIF
 70
    70
  9
$TILEMODE
 70
     1
  9
$MAXACTVP
 70
    64
  9
$PLIMCHECK
 70
     0
  9
$PEXTMIN
 10
1.0000000000000000E+20
 20
1.0000000000000000E+20
 30
1.0000000000000000E+20
  9
$PEXTMAX
 10
-1.0000000000000000E+20
 20
-1.0000000000000000E+20
 30
-1.0000000000000000E+20
  9
$PLIMMIN
 10
0.0
 20
0.0
  9
$PLIMMAX
 10
12.0
 20
9.0
  9
$UNITMODE
 70
     0
  9
$VISRETAIN
 70
     1
  9
$PLINEGEN
 70
     0
  9
$PSLTSCALE
 70
     1
  0
ENDSEC
  0
SECTION
  2
TABLES
  0
TABLE
  2
VPORT
 70
     1
  0
VPORT
  2
*ACTIVE
 70
     0
 10
0.0
 20
0.0
 11
1.0
 21
1.0
 12
754.1455954841976563
 22
359.0379045664759019
 13
0.0
 23
0.0
 14
1.0
 24
1.0
 15
0.0
 25
0.0
 16
0.0
 26
0.0
 36
60.4960186965801583
 17
3911.3653564453120453
 27
132.5796051025390057
 37
0.0
 40
33.338235533290117
 41
2.005224660397074
 42
50.0
 43
0.0
 44
0.0
 50
0.0
 51
0.0
 71
     0
 72
   100
 73
     1
 74
     1
 75
     0
 76
     0
 77
     0
 78
     0
  0
ENDTAB
  0
TABLE
  2
LTYPE
 70
     2
  0
LTYPE
  2
CONTINUOUS
 70
     0
  3
Solid line
 72
    65
 73
     0
 40
0.0
  0
LTYPE
  2
PHANTOM2
 70
     0
  3
___ _ _ ___ _ _ ___ _ _ ___ _ _
 72
    65
 73
     6
 40
1.25
 49
0.625
 49
-0.125
 49
0.125
 49
-0.125
 49
0.125
 49
-0.125
  0
ENDTAB
  0
TABLE
  2
LAYER
 70
     2
  0
LAYER
  2
0
 70
     0
 62
   255
  6
CONTINUOUS
  0
LAYER
  2
DEFPOINTS
 70
     0
 62
     7
  6
CONTINUOUS
  0
ENDTAB
  0
TABLE
  2
STYLE
 70
     1
  0
STYLE
  2
STANDARD
 70
     0
 40
0.0
 41
0.8
 50
0.0
 71
     0
 42
0.2
  3
txt
  4

  0
ENDTAB
  0
TABLE
  2
VIEW
 70
     0
  0
ENDTAB
  0
TABLE
  2
UCS
 70
     0
  0
ENDTAB
  0
TABLE
  2
APPID
 70
    11
  0
APPID
  2
ACAD
 70
     0
  0
APPID
  2
ACAD_MLEADERVER
 70
     0
  0
APPID
  2
ACAD_EXEMPT_FROM_CAD_STANDARDS
 70
     0
  0
APPID
  2
ACAD_NAV_VCDISPLAY
 70
     0
  0
APPID
  2
ACAECLAYERSTANDARD
 70
     0
  0
APPID
  2
ACCMTRANSPARENCY
 70
     0
  0
APPID
  2
ACAD_DSTYLE_DIMJAG
 70
     0
  0
APPID
  2
ACAD_DSTYLE_DIMTALN
 70
     0
  0
APPID
  2
ACDBATTR
 70
     0
  0
APPID
  2
ACADANNOTATIVE
 70
     0
  0
APPID
  2
DCO15
 70
     0
  0
ENDTAB
  0
TABLE
  2
DIMSTYLE
 70
     1
  0
DIMSTYLE
  2
STANDARD
 70
     0
  3

  4

  5

  6

  7

 40
1.0
 41
0.1875
 42
0.0625
 43
0.38
 44
0.125
 45
0.0
 46
0.0
 47
0.01
 48
0.01
140
0.15625
141
0.09
142
0.0
143
25.3999999999999986
144
1.0
145
0.0
146
1.0
147
0.09
 71
     1
 72
     0
 73
     1
 74
     1
 75
     0
 76
     0
 77
     0
 78
     4
170
     0
171
     2
172
     0
173
     0
174
     0
175
     0
176
     0
177
     0
178
     0
  0
ENDTAB
  0
ENDSEC
  0
SECTION
  2
BLOCKS
  0
BLOCK
  8
0
  2
$MODEL_SPACE
 70
     0
 10
0.0
 20
0.0
 30
0.0
  3
$MODEL_SPACE
  1

  0
ENDBLK
  5
21
  8
0
  0
BLOCK
 67
     1
  8
0
  2
$PAPER_SPACE
 70
     0
 10
0.0
 20
0.0
 30
0.0
  3
$PAPER_SPACE
  1

  0
ENDBLK
  5
1D
 67
     1
  8
0
  0
ENDSEC
  0
SECTION
  2
ENTITIES
  0
ATTDEF
  5
159BF
  8
DEFPOINTS
 10
4665.4989811492596345
 20
475.0778734233491036
 30
0.0
 40
0.001
  1
K-98982T-1
  3

  2
MODELNUMBER
 70
     0
1001
ACDBATTR
1070
     0
1070
     1
  0
ATTDEF
  5
159C0
  8
DEFPOINTS
 10
4665.4989811492596345
 20
475.0762065829699168
 30
0.0
 40
0.001
  1
AMMERISSIC
  3

  2
TRADENAME
 70
     0
1001
ACDBATTR
1070
     0
1070
     1
  0
ATTDEF
  5
159C1
  8
DEFPOINTS
 10
4665.4989811492596345
 20
475.0745400900157165
 30
0.0
 40
0.001
  1
VANITY CABINET
  3

  2
PRODUCT
 70
     0
1001
ACDBATTR
1070
     0
1070
     1
  0
LINE
  5
193E3
  8
0
 10
4647.4281130166918956
 20
508.1454040998327173
 30
0.0
 11
4683.5698453817230984
 21
508.1454040998327173
 31
0.0
  0
LINE
  5
193E4
  8
0
 10
4646.9950421913572427
 20
507.3580025249326013
 30
0.0
 11
4646.9950421913572427
 21
507.830443469761974
 31
0.0
  0
LINE
  5
193E5
  8
0
 10
4684.0029162070577513
 20
507.830443469761974
 30
0.0
 11
4684.0029162070577513
 21
507.3580025250325889
 31
0.0
  0
LINE
  5
193E6
  8
0
 10
4646.9950421913572427
 20
507.3580025250325889
 30
0.0
 11
4684.0029162070577513
 21
507.3580025250325889
 31
0.0
  0
LINE
  5
193E7
  8
0
 10
4647.7824437661565753
 20
475.0745379580326926
 30
0.0
 11
4647.7824437661565753
 21
507.3580025250325889
 31
0.0
  0
LINE
  5
193E8
  8
0
 10
4649.750947703156271
 20
475.0745379580326926
 30
0.0
 11
4649.750947703156271
 21
507.3580025250325889
 31
0.0
  0
LINE
  5
193E9
  8
0
 10
4647.6643335299577302
 20
479.0115458320327093
 30
0.0
 11
4683.3336248684572638
 21
479.0115458320327093
 31
0.0
  0
LINE
  5
193EA
  8
0
 10
4649.750947703156271
 20
475.0745379580326926
 30
0.0
 11
4647.7824437661565753
 21
475.0745379580326926
 31
0.0
  0
LINE
  5
193EB
  8
0
 10
4647.6643335299577302
 20
507.3580025250325889
 30
0.0
 11
4647.3887823488566937
 21
506.3737505564326966
 31
0.0
  0
LINE
  5
193EC
  8
0
 10
4647.3887823488566937
 20
506.3737505564326966
 30
0.0
 11
4647.6643335299577302
 21
505.3894985879326782
 31
0.0
  0
LINE
  5
193ED
  8
0
 10
4647.6643335299577302
 20
505.3894985879326782
 30
0.0
 11
4649.750947703156271
 21
505.3894985879326782
 31
0.0
  0
LINE
  5
193EE
  8
0
 10
4649.750947703156271
 20
505.4280967044326758
 30
0.0
 11
4647.7824437661565753
 21
507.3580025250325889
 31
0.0
  0
LINE
  5
193EF
  8
0
 10
4647.6643335299577302
 20
507.3580025250325889
 30
0.0
 11
4647.6643335299577302
 21
505.3894985879326782
 31
0.0
  0
LINE
  5
193F0
  8
0
 10
4647.7824437661565753
 20
505.3894985879326782
 30
0.0
 11
4649.750947703156271
 21
507.319404408532705
 31
0.0
  0
LINE
  5
193F1
  8
0
 10
4649.8296878606579412
 20
507.2398922887326762
 30
0.0
 11
4649.8296878606579412
 21
500.2713883517326963
 31
0.0
  0
LINE
  5
193F2
  8
0
 10
4649.8296878606579412
 20
500.1532781155327143
 30
0.0
 11
4649.8296878606579412
 21
479.0115458320327093
 31
0.0
  0
LINE
  5
193F3
  8
0
 10
4647.6643335299577302
 20
479.0115458320327093
 30
0.0
 11
4647.3887823488566937
 21
479.9957978006327153
 31
0.0
  0
LINE
  5
193F4
  8
0
 10
4647.3887823488566937
 20
479.9957978006327153
 30
0.0
 11
4647.6643335299577302
 21
480.9800497691326768
 31
0.0
  0
LINE
  5
193F5
  8
0
 10
4647.6643335299577302
 20
480.9800497691326768
 30
0.0
 11
4649.750947703156271
 21
480.9800497691326768
 31
0.0
  0
LINE
  5
193F6
  8
0
 10
4649.750947703156271
 20
480.9414516526326793
 30
0.0
 11
4647.7824437661565753
 21
479.0115458320327093
 31
0.0
  0
LINE
  5
193F7
  8
0
 10
4647.6643335299577302
 20
479.0115458320327093
 30
0.0
 11
4647.6643335299577302
 21
480.9800497691326768
 31
0.0
  0
LINE
  5
193F8
  8
0
 10
4647.7824437661565753
 20
480.9800497691326768
 30
0.0
 11
4649.750947703156271
 21
479.0501439485327069
 31
0.0
  0
LINE
  5
193F9
  8
0
 10
4649.8296878606579412
 20
507.2398922887326762
 30
0.0
 11
4665.4596091204566619
 21
507.2398922887326762
 31
0.0
  0
LINE
  5
193FA
  8
0
 10
4665.5383492779583321
 20
507.2398922887326762
 30
0.0
 11
4681.1682705377570528
 21
507.2398922887326762
 31
0.0
  0
LINE
  5
193FB
  8
0
 10
4652.1918925850568485
 20
504.0902857161325983
 30
0.0
 11
4652.1918925850568485
 21
502.2398922887326762
 31
0.0
  0
LINE
  5
193FC
  8
0
 10
4652.1918925850568485
 20
502.2398922887326762
 30
0.0
 11
4663.0974043960568451
 21
502.2398922887326762
 31
0.0
  0
LINE
  5
193FD
  8
0
 10
4663.0974043960568451
 20
502.2398922887326762
 30
0.0
 11
4663.0974043960568451
 21
504.0902857161325983
 31
0.0
  0
LINE
  5
193FE
  8
0
 10
4663.0974043960568451
 20
504.0902857161325983
 30
0.0
 11
4662.506533748691254
 21
504.0902857161665906
 31
0.0
  0
LINE
  5
193FF
  8
0
 10
4652.1918925850568485
 20
504.0902857161325983
 30
0.0
 11
4652.7827632324570004
 21
504.0902857161325983
 31
0.0
  0
LINE
  5
19400
  8
0
 10
4662.5280061772564295
 20
504.1965849287325909
 30
0.0
 11
4663.2037036086567241
 21
504.1965849287325909
 31
0.0
  0
LINE
  5
19401
  8
0
 10
4663.2037036086567241
 20
504.1965849287325909
 30
0.0
 11
4663.2037036086567241
 21
502.1335930761326836
 31
0.0
  0
LINE
  5
19402
  8
0
 10
4663.2037036086567241
 20
502.1335930761326836
 30
0.0
 11
4652.085593372457879
 21
502.1335930761326836
 31
0.0
  0
LINE
  5
19403
  8
0
 10
4652.085593372457879
 20
502.1335930761326836
 30
0.0
 11
4652.085593372457879
 21
504.1965849287325909
 31
0.0
  0
LINE
  5
19404
  8
0
 10
4652.085593372457879
 20
504.1965849287325909
 30
0.0
 11
4652.7612908041455739
 21
504.196584928761979
 31
0.0
  0
ARC
  5
19405
  8
0
 10
4657.6446484906664409
 20
492.5745541780589747
 30
0.0
 40
12.6062992612736995
 50
67.208774394552492
 51
112.7912256051074991
  0
ARC
  5
19406
  8
0
 10
4657.6446484905573016
 20
492.5745542267326869
 30
0.0
 40
12.5
 50
67.1107678599235555
 51
112.8892321400764018
  0
LINE
  5
19407
  8
0
 10
4656.8966169944569629
 20
506.9406796903326722
 30
0.0
 11
4656.8966169944569629
 21
505.4446166982327213
 31
0.0
  0
LINE
  5
19408
  8
0
 10
4656.8966169944569629
 20
505.4446166982327213
 30
0.0
 11
4658.3926799866567308
 21
505.4446166982327213
 31
0.0
  0
LINE
  5
19409
  8
0
 10
4658.3926799866567308
 20
505.4446166982327213
 30
0.0
 11
4658.3926799866567308
 21
506.9406796903326722
 31
0.0
  0
LINE
  5
1940A
  8
0
 10
4658.3926799866567308
 20
506.9406796903326722
 30
0.0
 11
4656.8966169944569629
 21
506.9406796903326722
 31
0.0
  0
LINE
  5
1940B
  8
0
 10
4657.1565207571566134
 20
506.7060825264326809
 30
0.0
 11
4658.1327762239570802
 21
506.7060825264326809
 31
0.0
  0
LINE
  5
1940C
  8
0
 10
4658.1580828227570237
 20
506.6807759276326806
 30
0.0
 11
4658.1580828227570237
 21
505.7045204609327129
 31
0.0
  0
LINE
  5
1940D
  8
0
 10
4658.1327762239570802
 20
505.6792138621327126
 30
0.0
 11
4657.1565207571566134
 21
505.6792138621327126
 31
0.0
  0
LINE
  5
1940E
  8
0
 10
4657.1312141583566699
 20
506.6807759276326806
 30
0.0
 11
4657.1312141583566699
 21
505.7045204609327129
 31
0.0
  0
ARC
  5
1940F
  8
0
 10
4657.1543163021096916
 20
506.682980382679375
 30
0.0
 40
0.023207082282097
 50
84.5492202806856454
 51
185.4507797192931946
  0
ARC
  5
19410
  8
0
 10
4658.134980679004002
 20
506.682980382679375
 30
0.0
 40
0.0232070822820906
 50
354.5492202806807995
 51
95.4507797193143404
  0
ARC
  5
19411
  8
0
 10
4658.1349806791422452
 20
505.7023160057481732
 30
0.0
 40
0.0232070821581487
 50
264.5492199101215078
 51
5.4507800898610341
  0
ARC
  5
19412
  8
0
 10
4657.1543163019732674
 20
505.7023160057481732
 30
0.0
 40
0.0232070821581483
 50
174.5492199101389872
 51
275.4507800898782079
  0
LINE
  5
19413
  8
0
 10
4657.3887429787573637
 20
506.4485537061327136
 30
0.0
 11
4657.9005540023572394
 21
506.4485537061327136
 31
0.0
  0
LINE
  5
19414
  8
0
 10
4657.9005540023572394
 20
506.4485537061327136
 30
0.0
 11
4657.9005540023572394
 21
505.9367426824326799
 31
0.0
  0
LINE
  5
19415
  8
0
 10
4657.9005540023572394
 20
505.9367426824326799
 30
0.0
 11
4657.3887429787573637
 21
505.9367426824326799
 31
0.0
  0
LINE
  5
19416
  8
0
 10
4657.3887429787573637
 20
505.9367426824326799
 30
0.0
 11
4657.3887429787573637
 21
506.4485537061327136
 31
0.0
  0
LINE
  5
19417
  8
0
 10
4656.8966169944569629
 20
506.9406796903326722
 30
0.0
 11
4657.137906416856822
 21
506.6993902679325856
 31
0.0
  0
LINE
  5
19418
  8
0
 10
4658.1513905642577811
 20
506.6993902679324151
 30
0.0
 11
4658.3926799866567308
 21
506.9406796903326722
 31
0.0
  0
LINE
  5
19419
  8
0
 10
4658.1513905643078033
 20
505.685906120582672
 30
0.0
 11
4658.3926799866567308
 21
505.4446166982327213
 31
0.0
  0
LINE
  5
1941A
  8
0
 10
4657.137906416856822
 20
505.6859061205327066
 30
0.0
 11
4656.8966169944569629
 21
505.4446166982327213
 31
0.0
  0
LINE
  5
1941B
  8
0
 10
4649.8296878606579412
 20
500.2713883517326963
 30
0.0
 11
4665.4596091204566619
 21
500.2713883517326963
 31
0.0
  0
LINE
  5
1941C
  8
0
 10
4665.4596091204566619
 20
500.2713883517326963
 30
0.0
 11
4665.4596091204566619
 21
507.2398922887326762
 31
0.0
  0
LINE
  5
1941D
  8
0
 10
4663.7273256558573848
 20
499.2477663044326732
 30
0.0
 11
4663.7273256558573848
 21
497.7517033123326087
 31
0.0
  0
LINE
  5
1941E
  8
0
 10
4663.7273256558573848
 20
497.7517033123326087
 30
0.0
 11
4665.2233886480571527
 21
497.7517033123326087
 31
0.0
  0
LINE
  5
1941F
  8
0
 10
4665.2233886480571527
 20
497.7517033123326087
 30
0.0
 11
4665.2233886480571527
 21
499.2477663044326732
 31
0.0
  0
LINE
  5
19420
  8
0
 10
4665.2233886480571527
 20
499.2477663044326732
 30
0.0
 11
4663.7273256558573848
 21
499.2477663044326732
 31
0.0
  0
LINE
  5
19421
  8
0
 10
4663.9872294185570354
 20
499.0131691405326819
 30
0.0
 11
4664.9634848853565927
 21
499.0131691405326819
 31
0.0
  0
LINE
  5
19422
  8
0
 10
4664.9887914841583552
 20
498.9878625417326816
 30
0.0
 11
4664.9887914841583552
 21
498.011607075032714
 31
0.0
  0
LINE
  5
19423
  8
0
 10
4664.9634848853565927
 20
497.9863004762327137
 30
0.0
 11
4663.9872294185570354
 21
497.9863004762327137
 31
0.0
  0
LINE
  5
19424
  8
0
 10
4663.9619228197570919
 20
498.9878625417326816
 30
0.0
 11
4663.9619228197570919
 21
498.011607075032714
 31
0.0
  0
ARC
  5
19425
  8
0
 10
4663.9850249635110231
 20
498.990066996779376
 30
0.0
 40
0.023207082282097
 50
84.5492202806856454
 51
185.4507797192931946
  0
ARC
  5
19426
  8
0
 10
4664.965689340404424
 20
498.990066996779376
 30
0.0
 40
0.0232070822820906
 50
354.5492202806807995
 51
95.4507797193143404
  0
ARC
  5
19427
  8
0
 10
4664.9656893405417577
 20
498.0094026198481743
 30
0.0
 40
0.0232070821581487
 50
264.5492199101215078
 51
5.4507800898610341
  0
ARC
  5
19428
  8
0
 10
4663.9850249633718704
 20
498.0094026198481743
 30
0.0
 40
0.0232070821581483
 50
174.5492199101389872
 51
275.4507800898782079
  0
LINE
  5
19429
  8
0
 10
4664.2194516401577857
 20
498.7556403202327147
 30
0.0
 11
4664.7312626637576614
 21
498.7556403202327147
 31
0.0
  0
LINE
  5
1942A
  8
0
 10
4664.7312626637576614
 20
498.7556403202327147
 30
0.0
 11
4664.7312626637576614
 21
498.2438292965326809
 31
0.0
  0
LINE
  5
1942B
  8
0
 10
4664.7312626637576614
 20
498.2438292965326809
 30
0.0
 11
4664.2194516401577857
 21
498.2438292965326809
 31
0.0
  0
LINE
  5
1942C
  8
0
 10
4664.2194516401577857
 20
498.2438292965326809
 30
0.0
 11
4664.2194516401577857
 21
498.7556403202327147
 31
0.0
  0
LINE
  5
1942D
  8
0
 10
4663.7273256558573848
 20
499.2477663044326732
 30
0.0
 11
4663.968615078257244
 21
499.0064768820325867
 31
0.0
  0
LINE
  5
1942E
  8
0
 10
4664.9820992256582031
 20
499.0064768820324161
 30
0.0
 11
4665.2233886480571527
 21
499.2477663044326732
 31
0.0
  0
LINE
  5
1942F
  8
0
 10
4664.9820992257073158
 20
497.992992734682673
 30
0.0
 11
4665.2233886480571527
 21
497.7517033123326087
 31
0.0
  0
LINE
  5
19430
  8
0
 10
4663.968615078257244
 20
497.9929927346327077
 30
0.0
 11
4663.7273256558573848
 21
497.7517033123326087
 31
0.0
  0
LINE
  5
19431
  8
0
 10
4652.7612908041573974
 20
497.1099707555326859
 30
0.0
 11
4652.085593372457879
 21
497.1099707555326859
 31
0.0
  0
LINE
  5
19432
  8
0
 10
4652.085593372457879
 20
497.1099707555326859
 30
0.0
 11
4652.085593372457879
 21
480.8737505564326966
 31
0.0
  0
LINE
  5
19433
  8
0
 10
4652.085593372457879
 20
480.8737505564326966
 30
0.0
 11
4663.2037036086567241
 21
480.8737505564326966
 31
0.0
  0
LINE
  5
19434
  8
0
 10
4663.2037036086567241
 20
480.8737505564326966
 30
0.0
 11
4663.2037036086567241
 21
497.1099707555326859
 31
0.0
  0
LINE
  5
19435
  8
0
 10
4663.2037036086567241
 20
497.1099707555326859
 30
0.0
 11
4662.5280061772564295
 21
497.1099707555326859
 31
0.0
  0
LINE
  5
19436
  8
0
 10
4652.7827632324570004
 20
497.0036715429325795
 30
0.0
 11
4652.1918925850568485
 21
497.0036715429325795
 31
0.0
  0
LINE
  5
19437
  8
0
 10
4652.1918925850568485
 20
497.0036715429325795
 30
0.0
 11
4652.1918925850568485
 21
480.9800497690326893
 31
0.0
  0
LINE
  5
19438
  8
0
 10
4652.1918925850568485
 20
480.9800497690326893
 30
0.0
 11
4663.0974043960568451
 21
480.9800497690326893
 31
0.0
  0
LINE
  5
19439
  8
0
 10
4663.0974043960568451
 20
480.9800497690326893
 30
0.0
 11
4663.0974043960568451
 21
497.0036715429325795
 31
0.0
  0
LINE
  5
1943A
  8
0
 10
4663.0974043960568451
 20
497.0036715429325795
 30
0.0
 11
4662.5065337486566932
 21
497.0036715429325795
 31
0.0
  0
ARC
  5
1943B
  8
0
 10
4657.6446484906664409
 20
485.4879400035782169
 30
0.0
 40
12.6062992624545007
 50
67.2087743968122737
 51
112.7912256028477032
  0
ARC
  5
1943C
  8
0
 10
4657.6446484906191472
 20
485.4879400531298757
 30
0.0
 40
12.5000000003027605
 50
67.1107678609472913
 51
112.8892321398426049
  0
LINE
  5
1943D
  8
0
 10
4648.0974043960568451
 20
482.3580025250325889
 30
0.0
 11
4648.0974043960568451
 21
504.0115458320327093
 31
0.0
  0
LINE
  5
1943E
  8
0
 10
4648.3336248684572638
 20
482.3580025250325889
 30
0.0
 11
4648.3336248684572638
 21
504.0115458320327093
 31
0.0
  0
ARC
  5
1943F
  8
0
 10
4648.2155146322584187
 20
504.0115458320327093
 30
0.0
 40
0.1181102362000015
 50
0.0
 51
180.0
  0
ARC
  5
19440
  8
0
 10
4648.2155146322584187
 20
482.3580025250325889
 30
0.0
 40
0.1181102361999997
 50
180.0
 51
0.0
  0
LINE
  5
19441
  8
0
 10
4648.6485854984575781
 20
482.3580025250325889
 30
0.0
 11
4648.6485854984575781
 21
504.0115458320327093
 31
0.0
  0
LINE
  5
19442
  8
0
 10
4648.8848059708570872
 20
482.3580025250325889
 30
0.0
 11
4648.8848059708570872
 21
504.0115458320327093
 31
0.0
  0
ARC
  5
19443
  8
0
 10
4648.7666957346573327
 20
504.0115458320327093
 30
0.0
 40
0.1181102362000015
 50
0.0
 51
180.0
  0
ARC
  5
19444
  8
0
 10
4648.7666957346573327
 20
482.3580025250325889
 30
0.0
 40
0.1181102361999997
 50
180.0
 51
0.0
  0
LINE
  5
19445
  8
0
 10
4649.1997666007582666
 20
482.3580025250325889
 30
0.0
 11
4649.1997666007582666
 21
504.0115458320327093
 31
0.0
  0
LINE
  5
19446
  8
0
 10
4649.4359870731568662
 20
482.3580025250325889
 30
0.0
 11
4649.4359870731568662
 21
504.0115458320327093
 31
0.0
  0
ARC
  5
19447
  8
0
 10
4649.3178768369571117
 20
504.0115458320327093
 30
0.0
 40
0.1181102362000015
 50
0.0
 51
180.0
  0
ARC
  5
19448
  8
0
 10
4649.3178768369571117
 20
482.3580025250325889
 30
0.0
 40
0.1181102361999997
 50
180.0
 51
0.0
  0
LINE
  5
19449
  8
0
 10
4649.8296878606579412
 20
500.1532781155327143
 30
0.0
 11
4665.4596091204566619
 21
500.1532781155327143
 31
0.0
  0
LINE
  5
1944A
  8
0
 10
4665.4596091204566619
 20
500.1532781155327143
 30
0.0
 11
4665.4596091204566619
 21
479.0115458320327093
 31
0.0
  0
LINE
  5
1944B
  8
0
 10
4683.2155146322584187
 20
507.3580025250325889
 30
0.0
 11
4683.2155146322584187
 21
475.0745379580326926
 31
0.0
  0
LINE
  5
1944C
  8
0
 10
4681.247010695256904
 20
475.0745379580326926
 30
0.0
 11
4683.2155146322584187
 21
475.0745379580326926
 31
0.0
  0
LINE
  5
1944D
  8
0
 10
4683.3336248684572638
 20
507.3580025250325889
 30
0.0
 11
4683.6091760495573908
 21
506.3737505564326966
 31
0.0
  0
LINE
  5
1944E
  8
0
 10
4683.6091760495573908
 20
506.3737505564326966
 30
0.0
 11
4683.3336248684572638
 21
505.3894985879326782
 31
0.0
  0
LINE
  5
1944F
  8
0
 10
4683.3336248684572638
 20
505.3894985879326782
 30
0.0
 11
4681.247010695256904
 21
505.3894985879326782
 31
0.0
  0
LINE
  5
19450
  8
0
 10
4681.247010695256904
 20
505.3894985879326782
 30
0.0
 11
4683.2155146322584187
 21
507.3580025250325889
 31
0.0
  0
LINE
  5
19451
  8
0
 10
4683.3336248684572638
 20
507.3580025250325889
 30
0.0
 11
4683.3336248684572638
 21
505.3894985879326782
 31
0.0
  0
LINE
  5
19452
  8
0
 10
4683.2155146322584187
 20
505.3894985879326782
 30
0.0
 11
4681.247010695256904
 21
507.3580025250325889
 31
0.0
  0
LINE
  5
19453
  8
0
 10
4681.1682705377570528
 20
507.2398922887326762
 30
0.0
 11
4681.1682705377570528
 21
500.2713883517326963
 31
0.0
  0
LINE
  5
19454
  8
0
 10
4681.1682705377570528
 20
500.1532781155327143
 30
0.0
 11
4681.1682705377570528
 21
479.0115458320327093
 31
0.0
  0
LINE
  5
19455
  8
0
 10
4683.3336248684572638
 20
479.0115458320327093
 30
0.0
 11
4683.6091760495573908
 21
479.9957978006327153
 31
0.0
  0
LINE
  5
19456
  8
0
 10
4683.6091760495573908
 20
479.9957978006327153
 30
0.0
 11
4683.3336248684572638
 21
480.9800497691326768
 31
0.0
  0
LINE
  5
19457
  8
0
 10
4683.3336248684572638
 20
480.9800497691326768
 30
0.0
 11
4681.247010695256904
 21
480.9800497691326768
 31
0.0
  0
LINE
  5
19458
  8
0
 10
4681.247010695256904
 20
480.9800497690326893
 30
0.0
 11
4683.2155146322584187
 21
479.0115458320327093
 31
0.0
  0
LINE
  5
19459
  8
0
 10
4683.3336248684572638
 20
479.0115458320327093
 30
0.0
 11
4683.3336248684572638
 21
480.9800497691326768
 31
0.0
  0
LINE
  5
1945A
  8
0
 10
4683.2155146322584187
 20
480.9800497691326768
 30
0.0
 11
4681.247010695256904
 21
479.0115458320327093
 31
0.0
  0
LINE
  5
1945B
  8
0
 10
4678.806065813357236
 20
504.0902857161325983
 30
0.0
 11
4678.806065813357236
 21
502.2398922887326762
 31
0.0
  0
LINE
  5
1945C
  8
0
 10
4678.806065813357236
 20
502.2398922887326762
 30
0.0
 11
4667.9005540023572394
 21
502.2398922887326762
 31
0.0
  0
LINE
  5
1945D
  8
0
 10
4667.9005540023572394
 20
502.2398922887326762
 30
0.0
 11
4667.9005540023572394
 21
504.0902857161325983
 31
0.0
  0
LINE
  5
1945E
  8
0
 10
4667.9005540023572394
 20
504.0902857161325983
 30
0.0
 11
4668.4914246497228305
 21
504.0902857161665906
 31
0.0
  0
LINE
  5
1945F
  8
0
 10
4678.806065813357236
 20
504.0902857161325983
 30
0.0
 11
4678.2151951659561746
 21
504.0902857161325983
 31
0.0
  0
LINE
  5
19460
  8
0
 10
4668.4699522211567455
 20
504.1965849287325909
 30
0.0
 11
4667.7942547897573604
 21
504.1965849287325909
 31
0.0
  0
LINE
  5
19461
  8
0
 10
4667.7942547897573604
 20
504.1965849287325909
 30
0.0
 11
4667.7942547897573604
 21
502.1335930761326836
 31
0.0
  0
LINE
  5
19462
  8
0
 10
4667.7942547897573604
 20
502.1335930761326836
 30
0.0
 11
4678.912365025957115
 21
502.1335930761326836
 31
0.0
  0
LINE
  5
19463
  8
0
 10
4678.912365025957115
 20
502.1335930761326836
 30
0.0
 11
4678.912365025957115
 21
504.1965849287325909
 31
0.0
  0
LINE
  5
19464
  8
0
 10
4678.912365025957115
 20
504.1965849287325909
 30
0.0
 11
4678.2366675942694201
 21
504.196584928761979
 31
0.0
  0
ARC
  5
19465
  8
0
 10
4673.3533099077476436
 20
492.5745541780589747
 30
0.0
 40
12.6062992612736995
 50
67.2087743948924725
 51
112.7912256054474938
  0
ARC
  5
19466
  8
0
 10
4673.3533099078576925
 20
492.5745542267326869
 30
0.0
 40
12.5
 50
67.1107678599235555
 51
112.8892321400764018
  0
LINE
  5
19467
  8
0
 10
4674.1013414039562122
 20
506.9406796903326722
 30
0.0
 11
4674.1013414039562122
 21
505.4446166982327213
 31
0.0
  0
LINE
  5
19468
  8
0
 10
4674.1013414039562122
 20
505.4446166982327213
 30
0.0
 11
4672.6052784117573538
 21
505.4446166982327213
 31
0.0
  0
LINE
  5
19469
  8
0
 10
4672.6052784117573538
 20
505.4446166982327213
 30
0.0
 11
4672.6052784117573538
 21
506.9406796903326722
 31
0.0
  0
LINE
  5
1946A
  8
0
 10
4672.6052784117573538
 20
506.9406796903326722
 30
0.0
 11
4674.1013414039562122
 21
506.9406796903326722
 31
0.0
  0
LINE
  5
1946B
  8
0
 10
4673.8414376412565616
 20
506.7060825264326809
 30
0.0
 11
4672.8651821744570043
 21
506.7060825264326809
 31
0.0
  0
LINE
  5
1946C
  8
0
 10
4672.8398755756570608
 20
506.6807759276326806
 30
0.0
 11
4672.8398755756570608
 21
505.7045204609327129
 31
0.0
  0
LINE
  5
1946D
  8
0
 10
4672.8651821744570043
 20
505.6792138621327126
 30
0.0
 11
4673.8414376412565616
 21
505.6792138621327126
 31
0.0
  0
LINE
  5
1946E
  8
0
 10
4673.8667442400574146
 20
506.6807759276326806
 30
0.0
 11
4673.8667442400574146
 21
505.7045204609327129
 31
0.0
  0
ARC
  5
1946F
  8
0
 10
4673.8436420963043929
 20
506.682980382679375
 30
0.0
 40
0.023207082282097
 50
354.549220280706777
 51
95.4507797193143404
  0
ARC
  5
19470
  8
0
 10
4672.8629777194100825
 20
506.682980382679375
 30
0.0
 40
0.0232070822820906
 50
84.5492202806856454
 51
185.4507797193190868
  0
ARC
  5
19471
  8
0
 10
4672.8629777192718393
 20
505.7023160057481732
 30
0.0
 40
0.0232070821581487
 50
174.5492199101389872
 51
275.4507800898783785
  0
ARC
  5
19472
  8
0
 10
4673.8436420964417266
 20
505.7023160057481732
 30
0.0
 40
0.0232070821581483
 50
264.5492199101215078
 51
5.4507800898577914
  0
LINE
  5
19473
  8
0
 10
4673.6092154196576303
 20
506.4485537061327136
 30
0.0
 11
4673.0974043960577546
 21
506.4485537061327136
 31
0.0
  0
LINE
  5
19474
  8
0
 10
4673.0974043960577546
 20
506.4485537061327136
 30
0.0
 11
4673.0974043960577546
 21
505.9367426824326799
 31
0.0
  0
LINE
  5
19475
  8
0
 10
4673.0974043960577546
 20
505.9367426824326799
 30
0.0
 11
4673.6092154196576303
 21
505.9367426824326799
 31
0.0
  0
LINE
  5
19476
  8
0
 10
4673.6092154196576303
 20
505.9367426824326799
 30
0.0
 11
4673.6092154196576303
 21
506.4485537061327136
 31
0.0
  0
LINE
  5
19477
  8
0
 10
4674.1013414039562122
 20
506.9406796903326722
 30
0.0
 11
4673.8600519815572625
 21
506.6993902679325856
 31
0.0
  0
LINE
  5
19478
  8
0
 10
4672.8465678341572129
 20
506.6993902679324151
 30
0.0
 11
4672.6052784117573538
 21
506.9406796903326722
 31
0.0
  0
LINE
  5
19479
  8
0
 10
4672.8465678341071907
 20
505.685906120582672
 30
0.0
 11
4672.6052784117573538
 21
505.4446166982327213
 31
0.0
  0
LINE
  5
1947A
  8
0
 10
4673.8600519815572625
 20
505.6859061205327066
 30
0.0
 11
4674.1013414039562122
 21
505.4446166982327213
 31
0.0
  0
LINE
  5
1947B
  8
0
 10
4681.1682705377570528
 20
500.2713883517326963
 30
0.0
 11
4665.5383492779583321
 21
500.2713883517326963
 31
0.0
  0
LINE
  5
1947C
  8
0
 10
4665.5383492779583321
 20
500.2713883517326963
 30
0.0
 11
4665.5383492779583321
 21
507.2398922887326762
 31
0.0
  0
LINE
  5
1947D
  8
0
 10
4667.2706327425576092
 20
499.2477663044326732
 30
0.0
 11
4667.2706327425576092
 21
497.7517033123326087
 31
0.0
  0
LINE
  5
1947E
  8
0
 10
4667.2706327425576092
 20
497.7517033123326087
 30
0.0
 11
4665.7745697503569318
 21
497.7517033123326087
 31
0.0
  0
LINE
  5
1947F
  8
0
 10
4665.7745697503569318
 20
497.7517033123326087
 30
0.0
 11
4665.7745697503569318
 21
499.2477663044326732
 31
0.0
  0
LINE
  5
19480
  8
0
 10
4665.7745697503569318
 20
499.2477663044326732
 30
0.0
 11
4667.2706327425576092
 21
499.2477663044326732
 31
0.0
  0
LINE
  5
19481
  8
0
 10
4667.0107289798570491
 20
499.0131691405326819
 30
0.0
 11
4666.0344735130565823
 21
499.0131691405326819
 31
0.0
  0
LINE
  5
19482
  8
0
 10
4666.0091669142566388
 20
498.9878625417326816
 30
0.0
 11
4666.0091669142566388
 21
498.011607075032714
 31
0.0
  0
LINE
  5
19483
  8
0
 10
4666.0344735130565823
 20
497.9863004762327137
 30
0.0
 11
4667.0107289798570491
 21
497.9863004762327137
 31
0.0
  0
LINE
  5
19484
  8
0
 10
4667.0360355786569926
 20
498.9878625417326816
 30
0.0
 11
4667.0360355786569926
 21
498.011607075032714
 31
0.0
  0
ARC
  5
19485
  8
0
 10
4667.0129334349039709
 20
498.990066996779376
 30
0.0
 40
0.023207082282097
 50
354.549220280706777
 51
95.4507797193143404
  0
ARC
  5
19486
  8
0
 10
4666.0322690580096605
 20
498.990066996779376
 30
0.0
 40
0.0232070822820906
 50
84.5492202806856454
 51
185.4507797193190868
  0
ARC
  5
19487
  8
0
 10
4666.0322690578732363
 20
498.0094026198481743
 30
0.0
 40
0.0232070821581487
 50
174.5492199101389872
 51
275.4507800898783785
  0
ARC
  5
19488
  8
0
 10
4667.0129334350413046
 20
498.0094026198481743
 30
0.0
 40
0.0232070821581483
 50
264.5492199101215078
 51
5.4507800898577914
  0
LINE
  5
19489
  8
0
 10
4666.7785067582572083
 20
498.7556403202327147
 30
0.0
 11
4666.2666957346573327
 21
498.7556403202327147
 31
0.0
  0
LINE
  5
1948A
  8
0
 10
4666.2666957346573327
 20
498.7556403202327147
 30
0.0
 11
4666.2666957346573327
 21
498.2438292965326809
 31
0.0
  0
LINE
  5
1948B
  8
0
 10
4666.2666957346573327
 20
498.2438292965326809
 30
0.0
 11
4666.7785067582572083
 21
498.2438292965326809
 31
0.0
  0
LINE
  5
1948C
  8
0
 10
4666.7785067582572083
 20
498.2438292965326809
 30
0.0
 11
4666.7785067582572083
 21
498.7556403202327147
 31
0.0
  0
LINE
  5
1948D
  8
0
 10
4667.2706327425576092
 20
499.2477663044326732
 30
0.0
 11
4667.02934332015775
 21
499.0064768820325867
 31
0.0
  0
LINE
  5
1948E
  8
0
 10
4666.0158591727558814
 20
499.0064768820324161
 30
0.0
 11
4665.7745697503569318
 21
499.2477663044326732
 31
0.0
  0
LINE
  5
1948F
  8
0
 10
4666.0158591727067687
 20
497.992992734682673
 30
0.0
 11
4665.7745697503569318
 21
497.7517033123326087
 31
0.0
  0
LINE
  5
19490
  8
0
 10
4667.02934332015775
 20
497.9929927346327077
 30
0.0
 11
4667.2706327425576092
 21
497.7517033123326087
 31
0.0
  0
LINE
  5
19491
  8
0
 10
4678.2366675942575966
 20
497.1099707555326859
 30
0.0
 11
4678.912365025957115
 21
497.1099707555326859
 31
0.0
  0
LINE
  5
19492
  8
0
 10
4678.912365025957115
 20
497.1099707555326859
 30
0.0
 11
4678.912365025957115
 21
480.8737505564326966
 31
0.0
  0
LINE
  5
19493
  8
0
 10
4678.912365025957115
 20
480.8737505564326966
 30
0.0
 11
4667.7942547897573604
 21
480.8737505564326966
 31
0.0
  0
LINE
  5
19494
  8
0
 10
4667.7942547897573604
 20
480.8737505564326966
 30
0.0
 11
4667.7942547897573604
 21
497.1099707555326859
 31
0.0
  0
LINE
  5
19495
  8
0
 10
4667.7942547897573604
 20
497.1099707555326859
 30
0.0
 11
4668.4699522211567455
 21
497.1099707555326859
 31
0.0
  0
LINE
  5
19496
  8
0
 10
4678.2151951659561746
 20
497.0036715429325795
 30
0.0
 11
4678.806065813357236
 21
497.0036715429325795
 31
0.0
  0
LINE
  5
19497
  8
0
 10
4678.806065813357236
 20
497.0036715429325795
 30
0.0
 11
4678.806065813357236
 21
480.9800497690326893
 31
0.0
  0
LINE
  5
19498
  8
0
 10
4678.806065813357236
 20
480.9800497690326893
 30
0.0
 11
4667.9005540023572394
 21
480.9800497690326893
 31
0.0
  0
LINE
  5
19499
  8
0
 10
4667.9005540023572394
 20
480.9800497690326893
 30
0.0
 11
4667.9005540023572394
 21
497.0036715429325795
 31
0.0
  0
LINE
  5
1949A
  8
0
 10
4667.9005540023572394
 20
497.0036715429325795
 30
0.0
 11
4668.4914246497573913
 21
497.0036715429325795
 31
0.0
  0
ARC
  5
1949B
  8
0
 10
4673.3533099077476436
 20
485.4879400035782169
 30
0.0
 40
12.6062992624545007
 50
67.2087743971522542
 51
112.7912256031876979
  0
ARC
  5
1949C
  8
0
 10
4673.3533099077949373
 20
485.4879400531298757
 30
0.0
 40
12.5000000003027605
 50
67.1107678601573951
 51
112.8892321390526945
  0
LINE
  5
1949D
  8
0
 10
4682.9005540023572394
 20
482.3580025250325889
 30
0.0
 11
4682.9005540023572394
 21
504.0115458320327093
 31
0.0
  0
LINE
  5
1949E
  8
0
 10
4682.6643335299577302
 20
482.3580025250325889
 30
0.0
 11
4682.6643335299577302
 21
504.0115458320327093
 31
0.0
  0
ARC
  5
1949F
  8
0
 10
4682.7824437661565753
 20
504.0115458320327093
 30
0.0
 40
0.1181102362000015
 50
0.0
 51
180.0
  0
ARC
  5
194A0
  8
0
 10
4682.7824437661565753
 20
482.3580025250325889
 30
0.0
 40
0.1181102361999997
 50
180.0
 51
0.0
  0
LINE
  5
194A1
  8
0
 10
4682.3493728999574159
 20
482.3580025250325889
 30
0.0
 11
4682.3493728999574159
 21
504.0115458320327093
 31
0.0
  0
LINE
  5
194A2
  8
0
 10
4682.1131524275569973
 20
482.3580025250325889
 30
0.0
 11
4682.1131524275569973
 21
504.0115458320327093
 31
0.0
  0
ARC
  5
194A3
  8
0
 10
4682.2312626637576614
 20
504.0115458320327093
 30
0.0
 40
0.1181102362000015
 50
0.0
 51
180.0
  0
ARC
  5
194A4
  8
0
 10
4682.2312626637576614
 20
482.3580025250325889
 30
0.0
 40
0.1181102361999997
 50
180.0
 51
0.0
  0
LINE
  5
194A5
  8
0
 10
4681.7981917976567274
 20
482.3580025250325889
 30
0.0
 11
4681.7981917976567274
 21
504.0115458320327093
 31
0.0
  0
LINE
  5
194A6
  8
0
 10
4681.5619713252572183
 20
482.3580025250325889
 30
0.0
 11
4681.5619713252572183
 21
504.0115458320327093
 31
0.0
  0
ARC
  5
194A7
  8
0
 10
4681.6800815614578823
 20
504.0115458320327093
 30
0.0
 40
0.1181102362000015
 50
0.0
 51
180.0
  0
ARC
  5
194A8
  8
0
 10
4681.6800815614578823
 20
482.3580025250325889
 30
0.0
 40
0.1181102361999997
 50
180.0
 51
0.0
  0
LINE
  5
194A9
  8
0
 10
4681.1682705377570528
 20
500.1532781155327143
 30
0.0
 11
4665.5383492779583321
 21
500.1532781155327143
 31
0.0
  0
LINE
  5
194AA
  8
0
 10
4665.5383492779583321
 20
500.1532781155327143
 30
0.0
 11
4665.5383492779583321
 21
479.0115458320327093
 31
0.0
  0
LINE
  5
194AB
  8
0
 10
4681.247010695256904
 20
475.0745379580326926
 30
0.0
 11
4681.247010695256904
 21
507.3580025250325889
 31
0.0
  0
LINE
  5
194AD
  8
0
 10
4647.1131524275569973
 20
507.9485537061325999
 30
0.0
 11
4683.8848059708570872
 21
507.9485537061325999
 31
0.0
  0
ARC
  5
194AE
  8
0
 10
4647.1131524277279823
 20
507.830443469761974
 30
0.0
 40
0.1181102363707183
 50
90.0000000828031261
 51
179.9999999656951957
  0
LINE
  5
194AF
  8
0
 10
4647.3100028212566031
 20
508.0272938634619209
 30
0.0
 11
4647.3100028212566031
 21
507.9485537061325999
 31
0.0
  0
ARC
  5
194B0
  8
0
 10
4647.4281130576273426
 20
508.0272938634619209
 30
0.0
 40
0.1181102363707183
 50
90.0000000828031261
 51
179.9999999656984073
  0
ARC
  5
194B1
  8
0
 10
4683.8848059706870117
 20
507.830443469761974
 30
0.0
 40
0.1181102363707183
 50
0.0000000343048012
 51
89.9999999171968739
  0
ARC
  5
194B2
  8
0
 10
4683.5698453407867419
 20
508.0272938634619209
 30
0.0
 40
0.1181102363707183
 50
0.0000000343015444
 51
89.9999999171968739
  0
LINE
  5
194B3
  8
0
 10
4683.687955577156572
 20
508.0272938634619209
 30
0.0
 11
4683.687955577156572
 21
507.9485537061325999
 31
0.0
  0
LINE
  5
194B4
  8
0
 10
4649.750947703156271
 20
479.7202072494326899
 30
0.0
 11
4649.8296878606579412
 21
479.7202072494326899
 31
0.0
  0
LINE
  5
194B5
  8
0
 10
4665.4596091204566619
 20
479.7202072494326899
 30
0.0
 11
4665.5383492779583321
 21
479.7202072494326899
 31
0.0
  0
LINE
  5
194B6
  8
0
 10
4681.1682705377570528
 20
479.7202072494326899
 30
0.0
 11
4681.247010695256904
 21
479.7202072494326899
 31
0.0
  0
LINE
  5
194B7
  8
0
 10
4649.750947703156271
 20
482.8698135486326919
 30
0.0
 11
4649.8296878606579412
 21
482.8698135486326919
 31
0.0
  0
LINE
  5
194B8
  8
0
 10
4665.4596091204566619
 20
482.8698135486326919
 30
0.0
 11
4665.5383492779583321
 21
482.8698135486326919
 31
0.0
  0
LINE
  5
194B9
  8
0
 10
4681.1682705377570528
 20
482.8698135486326919
 30
0.0
 11
4681.247010695256904
 21
482.8698135486326919
 31
0.0
  0
LINE
  5
194BA
  8
0
 10
4649.750947703156271
 20
484.1690261470325822
 30
0.0
 11
4649.8296878606579412
 21
484.1690261470325822
 31
0.0
  0
LINE
  5
194BB
  8
0
 10
4665.4596091204566619
 20
484.1690261470325822
 30
0.0
 11
4665.5383492779583321
 21
484.1690261470325822
 31
0.0
  0
LINE
  5
194BC
  8
0
 10
4681.1682705377570528
 20
484.1690261470325822
 30
0.0
 11
4681.247010695256904
 21
484.1690261470325822
 31
0.0
  0
LINE
  5
194BD
  8
0
 10
4649.750947703156271
 20
484.8776875643325752
 30
0.0
 11
4649.8296878606579412
 21
484.8776875643325752
 31
0.0
  0
LINE
  5
194BE
  8
0
 10
4665.4596091204566619
 20
484.8776875643325752
 30
0.0
 11
4665.5383492779583321
 21
484.8776875643325752
 31
0.0
  0
LINE
  5
194BF
  8
0
 10
4681.1682705377570528
 20
484.8776875643325752
 30
0.0
 11
4681.247010695256904
 21
484.8776875643325752
 31
0.0
  0
LINE
  5
194C0
  8
0
 10
4649.750947703156271
 20
486.8461915013327257
 30
0.0
 11
4649.8296878606579412
 21
486.8461915013327257
 31
0.0
  0
LINE
  5
194C1
  8
0
 10
4665.4596091204566619
 20
486.8461915013327257
 30
0.0
 11
4665.5383492779583321
 21
486.8461915013327257
 31
0.0
  0
LINE
  5
194C2
  8
0
 10
4681.1682705377570528
 20
486.8461915013327257
 30
0.0
 11
4681.247010695256904
 21
486.8461915013327257
 31
0.0
  0
LINE
  5
194C3
  8
0
 10
4649.750947703156271
 20
499.8776875643326889
 30
0.0
 11
4649.8296878606579412
 21
499.8776875643326889
 31
0.0
  0
LINE
  5
194C4
  8
0
 10
4665.4596091204566619
 20
499.8776875643326889
 30
0.0
 11
4665.5383492779583321
 21
499.8776875643326889
 31
0.0
  0
LINE
  5
194C5
  8
0
 10
4681.1682705377570528
 20
499.8776875643326889
 30
0.0
 11
4681.247010695256904
 21
499.8776875643326889
 31
0.0
  0
LINE
  5
194C6
  8
0
 10
4649.750947703156271
 20
499.2871363832326779
 30
0.0
 11
4649.8296878606579412
 21
499.2871363832326779
 31
0.0
  0
LINE
  5
194C7
  8
0
 10
4665.4596091204566619
 20
499.2871363832326779
 30
0.0
 11
4665.5383492779583321
 21
499.2871363832326779
 31
0.0
  0
LINE
  5
194C8
  8
0
 10
4681.1682705377570528
 20
499.2871363832326779
 30
0.0
 11
4681.247010695256904
 21
499.2871363832326779
 31
0.0
  0
LINE
  5
194C9
  8
0
 10
4665.4596091204566619
 20
499.8776875643326889
 30
0.0
 11
4665.5383492779583321
 21
499.8776875643326889
 31
0.0
  0
ENDSEC
  0
EOF
