  0
SECTION
  2
HEADER
  9
$ACADVER
  1
AC1009
  9
$INSBASE
 10
4710.9480204700776085
 20
497.9631547215270189
 30
0.0
  9
$EXTMIN
 10
4692.3501669432662311
 20
473.3490358559621995
 30
-0.0000000349181948
  9
$EXTMAX
 10
4729.5177201178739779
 20
497.9689905266786809
 30
0.0000000814935746
  9
$LIMMIN
 10
0.0
 20
0.0
  9
$LIMMAX
 10
11.6929133858000007
 20
8.2677165353999982
  9
$ORTHOMODE
 70
     0
  9
$REGENMODE
 70
     1
  9
$FILLMODE
 70
     1
  9
$QTEXTMODE
 70
     0
  9
$MIRRTEXT
 70
     0
  9
$DRAGMODE
 70
     2
  9
$LTSCALE
 40
0.6431102362
  9
$OSMODE
 70
    19
  9
$ATTMODE
 70
     1
  9
$TEXTSIZE
 40
0.2
  9
$TRACEWID
 40
0.05
  9
$TEXTSTYLE
  7
STANDARD
  9
$CLAYER
  8
0
  9
$CELTYPE
  6
BYLAYER
  9
$CECOLOR
 62
   256
  9
$DIMSCALE
 40
1.0
  9
$DIMASZ
 40
0.1875
  9
$DIMEXO
 40
0.0625
  9
$DIMDLI
 40
0.4443307087
  9
$DIMRND
 40
0.0
  9
$DIMDLE
 40
0.0
  9
$DIMEXE
 40
0.125
  9
$DIMTP
 40
0.01
  9
$DIMTM
 40
0.01
  9
$DIMTXT
 40
2.0
  9
$DIMCEN
 40
0.1052362205
  9
$DIMTSZ
 40
0.0
  9
$DIMTOL
 70
     1
  9
$DIMLIM
 70
     0
  9
$DIMTIH
 70
     1
  9
$DIMTOH
 70
     1
  9
$DIMSE1
 70
     0
  9
$DIMSE2
 70
     0
  9
$DIMTAD
 70
     0
  9
$DIMZIN
 70
     0
  9
$DIMBLK
  1

  9
$DIMASO
 70
     1
  9
$DIMSHO
 70
     1
  9
$DIMPOST
  1
\X
  9
$DIMAPOST
  1

  9
$DIMALT
 70
     1
  9
$DIMALTD
 70
     2
  9
$DIMALTF
 40
25.3999999999999986
  9
$DIMLFAC
 40
1.0
  9
$DIMTOFL
 70
     0
  9
$DIMTVP
 40
0.0
  9
$DIMTIX
 70
     0
  9
$DIMSOXD
 70
     0
  9
$DIMSAH
 70
     0
  9
$DIMBLK1
  1

  9
$DIMBLK2
  1

  9
$DIMSTYLE
  2
STANDARD
  9
$DIMCLRD
 70
     0
  9
$DIMCLRE
 70
     0
  9
$DIMCLRT
 70
     0
  9
$DIMTFAC
 40
1.0
  9
$DIMGAP
 40
0.09
  9
$LUNITS
 70
     2
  9
$LUPREC
 70
     4
  9
$SKETCHINC
 40
0.1
  9
$FILLETRAD
 40
0.0
  9
$AUNITS
 70
     0
  9
$AUPREC
 70
     0
  9
$MENU
  1
.
  9
$ELEVATION
 40
0.0
  9
$PELEVATION
 40
0.0
  9
$THICKNESS
 40
0.0
  9
$LIMCHECK
 70
     0
  9
$BLIPMODE
 70
     0
  9
$CHAMFERA
 40
0.0
  9
$CHAMFERB
 40
0.0
  9
$SKPOLY
 70
     0
  9
$TDCREATE
 40
2458060.468368056230247
  9
$TDUPDATE
 40
2459284.7547106482088566
  9
$TDINDWG
 40
1.5065770254999999
  9
$TDUSRTIMER
 40
1.5065770254999999
  9
$USRTIMER
 70
     1
  9
$ANGBASE
 50
0.0
  9
$ANGDIR
 70
     0
  9
$PDMODE
 70
     0
  9
$PDSIZE
 40
0.3125
  9
$PLINEWID
 40
0.0
  9
$COORDS
 70
     1
  9
$SPLFRAME
 70
     0
  9
$SPLINETYPE
 70
     6
  9
$SPLINESEGS
 70
     8
  9
$ATTDIA
 70
     1
  9
$ATTREQ
 70
     1
  9
$HANDLING
 70
     1
  9
$HANDSEED
  5
196F2
  9
$SURFTAB1
 70
     6
  9
$SURFTAB2
 70
     6
  9
$SURFTYPE
 70
     6
  9
$SURFU
 70
     6
  9
$SURFV
 70
     6
  9
$UCSNAME
  2

  9
$UCSORG
 10
0.0
 20
0.0
 30
0.0
  9
$UCSXDIR
 10
1.0
 20
0.0
 30
0.0
  9
$UCSYDIR
 10
0.0
 20
1.0
 30
0.0
  9
$PUCSNAME
  2

  9
$PUCSORG
 10
0.0
 20
0.0
 30
0.0
  9
$PUCSXDIR
 10
1.0
 20
0.0
 30
0.0
  9
$PUCSYDIR
 10
0.0
 20
1.0
 30
0.0
  9
$USERI1
 70
     0
  9
$USERI2
 70
     0
  9
$USERI3
 70
     0
  9
$USERI4
 70
     0
  9
$USERI5
 70
     0
  9
$USERR1
 40
0.0
  9
$USERR2
 40
0.0
  9
$USERR3
 40
0.0
  9
$USERR4
 40
0.0
  9
$USERR5
 40
0.0
  9
$WORLDVIEW
 70
     1
  9
$SHADEDGE
 70
     3
  9
$SHADEDIF
 70
    70
  9
$TILEMODE
 70
     1
  9
$MAXACTVP
 70
    64
  9
$PLIMCHECK
 70
     0
  9
$PEXTMIN
 10
1.0000000000000000E+20
 20
1.0000000000000000E+20
 30
1.0000000000000000E+20
  9
$PEXTMAX
 10
-1.0000000000000000E+20
 20
-1.0000000000000000E+20
 30
-1.0000000000000000E+20
  9
$PLIMMIN
 10
0.0
 20
0.0
  9
$PLIMMAX
 10
12.0
 20
9.0
  9
$UNITMODE
 70
     0
  9
$VISRETAIN
 70
     1
  9
$PLINEGEN
 70
     0
  9
$PSLTSCALE
 70
     1
  0
ENDSEC
  0
SECTION
  2
TABLES
  0
TABLE
  2
VPORT
 70
     1
  0
VPORT
  2
*ACTIVE
 70
     0
 10
0.0
 20
0.0
 11
1.0
 21
1.0
 12
799.5685870852576045
 22
353.0794080887814061
 13
0.0
 23
0.0
 14
1.0
 24
1.0
 15
0.0
 25
0.0
 16
0.0
 26
0.0
 36
60.4960186965801583
 17
3911.3653564453120453
 27
132.5796051025390057
 37
0.0
 40
24.7741506289880817
 41
2.005224660397074
 42
50.0
 43
0.0
 44
0.0
 50
0.0
 51
0.0
 71
     0
 72
   100
 73
     1
 74
     1
 75
     0
 76
     0
 77
     0
 78
     0
  0
ENDTAB
  0
TABLE
  2
LTYPE
 70
     2
  0
LTYPE
  2
CONTINUOUS
 70
     0
  3
Solid line
 72
    65
 73
     0
 40
0.0
  0
LTYPE
  2
PHANTOM2
 70
     0
  3
___ _ _ ___ _ _ ___ _ _ ___ _ _
 72
    65
 73
     6
 40
1.25
 49
0.625
 49
-0.125
 49
0.125
 49
-0.125
 49
0.125
 49
-0.125
  0
ENDTAB
  0
TABLE
  2
LAYER
 70
     2
  0
LAYER
  2
0
 70
     0
 62
   255
  6
CONTINUOUS
  0
LAYER
  2
DEFPOINTS
 70
     0
 62
     7
  6
CONTINUOUS
  0
ENDTAB
  0
TABLE
  2
STYLE
 70
     1
  0
STYLE
  2
STANDARD
 70
     0
 40
0.0
 41
0.8
 50
0.0
 71
     0
 42
0.2
  3
txt
  4

  0
ENDTAB
  0
TABLE
  2
VIEW
 70
     0
  0
ENDTAB
  0
TABLE
  2
UCS
 70
     0
  0
ENDTAB
  0
TABLE
  2
APPID
 70
    11
  0
APPID
  2
ACAD
 70
     0
  0
APPID
  2
ACAD_MLEADERVER
 70
     0
  0
APPID
  2
ACAD_EXEMPT_FROM_CAD_STANDARDS
 70
     0
  0
APPID
  2
ACAD_NAV_VCDISPLAY
 70
     0
  0
APPID
  2
ACAECLAYERSTANDARD
 70
     0
  0
APPID
  2
ACCMTRANSPARENCY
 70
     0
  0
APPID
  2
ACAD_DSTYLE_DIMJAG
 70
     0
  0
APPID
  2
ACAD_DSTYLE_DIMTALN
 70
     0
  0
APPID
  2
ACDBATTR
 70
     0
  0
APPID
  2
ACADANNOTATIVE
 70
     0
  0
APPID
  2
DCO15
 70
     0
  0
ENDTAB
  0
TABLE
  2
DIMSTYLE
 70
     1
  0
DIMSTYLE
  2
STANDARD
 70
     0
  3

  4

  5

  6

  7

 40
1.0
 41
0.1875
 42
0.0625
 43
0.38
 44
0.125
 45
0.0
 46
0.0
 47
0.01
 48
0.01
140
0.15625
141
0.09
142
0.0
143
25.3999999999999986
144
1.0
145
0.0
146
1.0
147
0.09
 71
     1
 72
     0
 73
     1
 74
     1
 75
     0
 76
     0
 77
     0
 78
     4
170
     0
171
     2
172
     0
173
     0
174
     0
175
     0
176
     0
177
     0
178
     0
  0
ENDTAB
  0
ENDSEC
  0
SECTION
  2
BLOCKS
  0
BLOCK
  8
0
  2
$MODEL_SPACE
 70
     0
 10
0.0
 20
0.0
 30
0.0
  3
$MODEL_SPACE
  1

  0
ENDBLK
  5
21
  8
0
  0
BLOCK
 67
     1
  8
0
  2
$PAPER_SPACE
 70
     0
 10
0.0
 20
0.0
 30
0.0
  3
$PAPER_SPACE
  1

  0
ENDBLK
  5
1D
 67
     1
  8
0
  0
ENDSEC
  0
SECTION
  2
ENTITIES
  0
ATTDEF
  5
159BF
  8
DEFPOINTS
 10
4710.9480239642698507
 20
497.9664895623511143
 30
0.0
 40
0.001
  1
K-98982T-1
  3

  2
MODELNUMBER
 70
     0
1001
ACDBATTR
1070
     0
1070
     1
  0
ATTDEF
  5
159C0
  8
DEFPOINTS
 10
4710.9480239642698507
 20
497.9648227219719274
 30
0.0
 40
0.001
  1
AMMERISSIC
  3

  2
TRADENAME
 70
     0
1001
ACDBATTR
1070
     0
1070
     1
  0
ATTDEF
  5
159C1
  8
DEFPOINTS
 10
4710.9480239642698507
 20
497.963156229017784
 30
0.0
 40
0.001
  1
VANITY CABINET
  3

  2
PRODUCT
 70
     0
1001
ACDBATTR
1070
     0
1070
     1
  0
LINE
  5
195E3
  8
0
 10
4692.4440834622273542
 20
473.5537452727269851
 30
0.0
 11
4692.4440834622273542
 21
497.5694933042270236
 31
0.0
  0
LINE
  5
195E4
  8
0
 10
4729.4519574779278628
 20
497.5694933042270236
 30
0.0
 11
4729.4519574779278628
 21
473.5537452727269851
 31
0.0
  0
LINE
  5
195E5
  8
0
 10
4692.7590440921267145
 20
473.8687059026270276
 30
0.0
 11
4692.7590440921267145
 21
497.2545326742269935
 31
0.0
  0
LINE
  5
195E6
  8
0
 10
4729.1369968480266834
 20
497.2545326742269935
 30
0.0
 11
4729.1369968480266834
 21
473.8687059026270276
 31
0.0
  0
LINE
  5
195E7
  8
0
 10
4729.4519574779278628
 20
497.5694933042270236
 30
0.0
 11
4692.4440834622273542
 21
497.5694933042270236
 31
0.0
  0
LINE
  5
195E8
  8
0
 10
4729.1369968480266834
 20
497.2545326742269935
 30
0.0
 11
4692.7590440921267145
 21
497.2545326742269935
 31
0.0
  0
LINE
  5
195E9
  8
0
 10
4729.1369968480266834
 20
473.8687059026270276
 30
0.0
 11
4692.7590440921267145
 21
473.8687059026270276
 31
0.0
  0
LINE
  5
195EA
  8
0
 10
4729.4519574779278628
 20
473.5537452727269851
 30
0.0
 11
4692.4440834622273542
 21
473.5537452727269851
 31
0.0
  0
LINE
  5
195EB
  8
0
 10
4702.2866031472276518
 20
492.6876035404270056
 30
0.0
 11
4719.6094377929275652
 21
492.6876035404270056
 31
0.0
  0
LINE
  5
195EC
  8
0
 10
4701.8929023598266213
 20
478.5931153514270022
 30
0.0
 11
4701.8929023598266213
 21
492.2939027530269982
 31
0.0
  0
LINE
  5
195ED
  8
0
 10
4702.2866031472276518
 20
478.1994145640269949
 30
0.0
 11
4719.6094377929275652
 21
478.1994145640269949
 31
0.0
  0
LINE
  5
195EE
  8
0
 10
4720.0031385803267767
 20
478.5931153514270022
 30
0.0
 11
4720.0031385803267767
 21
492.2939027530269982
 31
0.0
  0
LINE
  5
195EF
  8
0
 10
4702.4119657725277648
 20
492.499939123626973
 30
0.0
 11
4719.4840751676274522
 21
492.499939123626973
 31
0.0
  0
LINE
  5
195F0
  8
0
 10
4702.163282839126623
 20
478.8705152183900964
 30
0.0
 11
4702.163282839126623
 21
492.253642237514498
 31
0.0
  0
LINE
  5
195F1
  8
0
 10
4702.4119657725268553
 20
478.6232994532269913
 30
0.0
 11
4719.4840751676274522
 21
478.6232994532269913
 31
0.0
  0
LINE
  5
195F2
  8
0
 10
4719.732758101026775
 20
478.870515218390608
 30
0.0
 11
4719.732758101026775
 21
492.2536422375139864
 31
0.0
  0
CIRCLE
  5
195F3
  8
0
 10
4710.9479204701274284
 20
488.8506021886270787
 30
0.0
 40
1.121955809616882
  0
CIRCLE
  5
195F4
  8
0
 10
4710.9479204701274284
 20
488.8506021886270787
 30
0.0
 40
0.875
  0
LINE
  5
195F5
  8
0
 10
4703.1374770569291286
 20
492.0151659008270144
 30
0.0
 11
4718.7585638832242694
 21
492.0151659008270144
 31
0.0
  0
LINE
  5
195F6
  8
0
 10
4703.3453468028274074
 20
491.7845922115271264
 30
0.0
 11
4718.5760755614182926
 21
491.7845922115271264
 31
0.0
  0
LINE
  5
195F7
  8
0
 10
4703.1374786921269333
 20
479.1080726754270245
 30
0.0
 11
4718.7585622480273742
 21
479.1080726754270245
 31
0.0
  0
LINE
  5
195F8
  8
0
 10
4703.3036420574799195
 20
479.3676607452269991
 30
0.0
 11
4718.592398882674388
 21
479.3676607452269991
 31
0.0
  0
LINE
  5
195F9
  8
0
 10
4702.8882681794266318
 20
479.3575192670271008
 30
0.0
 11
4702.8882681794266318
 21
491.765719013627006
 31
0.0
  0
LINE
  5
195FA
  8
0
 10
4703.1422808016268391
 20
479.562409066926989
 30
0.0
 11
4703.1422808016268391
 21
491.6098098640269995
 31
0.0
  0
LINE
  5
195FB
  8
0
 10
4718.7537601385265589
 20
479.562409066926989
 30
0.0
 11
4718.7537601385265589
 21
491.6298187915382982
 31
0.0
  0
LINE
  5
195FC
  8
0
 10
4719.0077727607267661
 20
479.3575192670285219
 30
0.0
 11
4719.0077727607267661
 21
491.7657190136256986
 31
0.0
  0
ARC
  5
195FD
  8
0
 10
4703.3326560907817111
 20
491.578277016128709
 30
0.0
 40
0.2067051378762863
 50
86.4800980564751995
 51
119.8024649759956048
  0
ARC
  5
195FE
  8
0
 10
4703.275973277894991
 20
491.6198143277827057
 30
0.0
 40
0.1340662802710122
 50
149.7694709889287026
 51
184.2795764038984885
  0
ARC
  5
195FF
  8
0
 10
4703.3288612466758423
 20
491.5896907235439244
 30
0.0
 40
0.1949294078674411
 50
120.5019756243024034
 51
149.9461415452873894
  0
ARC
  5
19600
  8
0
 10
4703.1387249314566361
 20
491.7647102259082885
 30
0.0
 40
0.250458783614868
 50
90.2854690847065058
 51
179.7692257618035114
  0
ARC
  5
19601
  8
0
 10
4702.4125038650208808
 20
492.2507013272210088
 30
0.0
 40
0.2492383772634
 50
90.1236986581605777
 51
179.3239176890247109
  0
ARC
  5
19602
  8
0
 10
4702.2866031472276518
 20
492.2939027530269982
 30
0.0
 40
0.3937007873999856
 50
90.0
 51
180.0000000000032117
  0
ARC
  5
19603
  8
0
 10
4703.3797267288191506
 20
479.5265869216535748
 30
0.0
 40
0.2401328682875426
 50
171.4208020235001015
 51
202.0864502962591018
  0
ARC
  5
19604
  8
0
 10
4703.2678200093887426
 20
479.4862124230234031
 30
0.0
 40
0.1213468487727749
 50
204.2900140094388917
 51
242.3989895210328029
  0
ARC
  5
19605
  8
0
 10
4703.272136032128401
 20
479.4944678584628264
 30
0.0
 40
0.130662441430826
 50
242.3989895210328029
 51
283.9529682307983762
  0
ARC
  5
19606
  8
0
 10
4703.1387201652241856
 20
479.3585235979938943
 30
0.0
 40
0.2504539995090513
 50
180.2297590774184073
 51
269.7159899213207268
  0
ARC
  5
19607
  8
0
 10
4702.4129697630069131
 20
478.8729966892086054
 30
0.0
 40
0.2496992544115982
 50
180.5694055658339039
 51
269.7696245739185201
  0
ARC
  5
19608
  8
0
 10
4702.2866031472276518
 20
478.5931153514270022
 30
0.0
 40
0.393700787399998
 50
180.0
 51
270.0
  0
ARC
  5
19609
  8
0
 10
4710.9480204700776085
 20
1242.9593990650989781
 30
0.0
 40
751.5220863527722486
 50
269.895912796456912
 51
270.104087203543088
  0
ARC
  5
1960A
  8
0
 10
4708.8284144548306358
 20
534.2295491564644863
 30
0.0
 40
42.7976448059241292
 50
262.6392571076548279
 51
271.0099370645169188
  0
CIRCLE
  5
1960B
  8
0
 10
4710.9480204701267212
 20
495.2072885798269795
 30
0.0
 40
0.6889763780000004
  0
LINE
  5
1960C
  8
0
 10
4703.7478823919427668
 20
473.5537452727269851
 30
0.0
 11
4703.6071240936271352
 21
473.4356350365271169
 31
0.0
  0
LINE
  5
1960D
  8
0
 10
4703.6071240936271352
 20
473.4356350365271169
 30
0.0
 11
4702.5802554292276909
 21
473.4356350365271169
 31
0.0
  0
LINE
  5
1960E
  8
0
 10
4702.5802554292276909
 20
473.4356350365271169
 30
0.0
 11
4702.4394971309111497
 21
473.5537452727269851
 31
0.0
  0
LINE
  5
1960F
  8
0
 10
4702.8377842496265657
 20
473.3568948790270952
 30
0.0
 11
4703.3495952732273508
 21
473.3568948790270952
 31
0.0
  0
ARC
  5
19610
  8
0
 10
4702.759044092127624
 20
473.3568948790270952
 30
0.0
 40
0.0787401575000057
 50
0.0000000000065138
 51
90.0
  0
ARC
  5
19611
  8
0
 10
4703.428335430727202
 20
473.3568948790270952
 30
0.0
 40
0.078740157500006
 50
90.0
 51
179.9999999999934914
  0
LINE
  5
19612
  8
0
 10
4710.5785910533431888
 20
473.5537452727269851
 30
0.0
 11
4710.4378327550275571
 21
473.4356350365271169
 31
0.0
  0
LINE
  5
19613
  8
0
 10
4710.4378327550275571
 20
473.4356350365271169
 30
0.0
 11
4709.4109640906272034
 21
473.4356350365271169
 31
0.0
  0
LINE
  5
19614
  8
0
 10
4709.4109640906272034
 20
473.4356350365271169
 30
0.0
 11
4709.2702057923115717
 21
473.5537452727269851
 31
0.0
  0
LINE
  5
19615
  8
0
 10
4709.6684929110269877
 20
473.3568948790270952
 30
0.0
 11
4710.1803039346268633
 21
473.3568948790270952
 31
0.0
  0
ARC
  5
19616
  8
0
 10
4709.5897527535271365
 20
473.3568948790270952
 30
0.0
 40
0.0787401575000057
 50
0.0000000000065138
 51
90.0
  0
ARC
  5
19617
  8
0
 10
4710.2590440921267145
 20
473.3568948790270952
 30
0.0
 40
0.078740157500006
 50
90.0
 51
179.9999999999934914
  0
LINE
  5
19618
  8
0
 10
4712.6258351478427358
 20
473.5537452727269851
 30
0.0
 11
4712.4850768495271041
 21
473.4356350365271169
 31
0.0
  0
LINE
  5
19619
  8
0
 10
4712.4850768495271041
 20
473.4356350365271169
 30
0.0
 11
4711.4582081851267503
 21
473.4356350365271169
 31
0.0
  0
LINE
  5
1961A
  8
0
 10
4711.4582081851267503
 20
473.4356350365271169
 30
0.0
 11
4711.3174498868111186
 21
473.5537452727269851
 31
0.0
  0
LINE
  5
1961B
  8
0
 10
4711.7157370055274441
 20
473.3568948790270952
 30
0.0
 11
4712.2275480291273198
 21
473.3568948790270952
 31
0.0
  0
ARC
  5
1961C
  8
0
 10
4711.6369968480266834
 20
473.3568948790270952
 30
0.0
 40
0.0787401575000057
 50
0.0000000000065138
 51
90.0
  0
ARC
  5
1961D
  8
0
 10
4712.3062881866271709
 20
473.3568948790270952
 30
0.0
 40
0.078740157500006
 50
90.0
 51
179.9999999999934914
  0
LINE
  5
1961E
  8
0
 10
4719.4565438092431577
 20
473.5537452727269851
 30
0.0
 11
4719.3157855109284355
 21
473.4356350365271169
 31
0.0
  0
LINE
  5
1961F
  8
0
 10
4719.3157855109284355
 20
473.4356350365271169
 30
0.0
 11
4718.2889168465271723
 21
473.4356350365271169
 31
0.0
  0
LINE
  5
19620
  8
0
 10
4718.2889168465271723
 20
473.4356350365271169
 30
0.0
 11
4718.1481585482124501
 21
473.5537452727269851
 31
0.0
  0
LINE
  5
19621
  8
0
 10
4718.5464456669278661
 20
473.3568948790270952
 30
0.0
 11
4719.0582566905268322
 21
473.3568948790270952
 31
0.0
  0
ARC
  5
19622
  8
0
 10
4718.4677055094271054
 20
473.3568948790270952
 30
0.0
 40
0.0787401575000057
 50
0.0000000000065138
 51
90.0
  0
ARC
  5
19623
  8
0
 10
4719.1369968480266834
 20
473.3568948790270952
 30
0.0
 40
0.078740157500006
 50
90.0
 51
179.9999999999934914
  0
LINE
  5
19624
  8
0
 10
4693.2314850370266868
 20
497.6876035404270056
 30
0.0
 11
4694.2157370055274441
 21
497.9631547215270189
 31
0.0
  0
LINE
  5
19625
  8
0
 10
4694.2157370055274441
 20
497.9631547215270189
 30
0.0
 11
4695.199988974027292
 21
497.6876035404270056
 31
0.0
  0
LINE
  5
19626
  8
0
 10
4695.199988974027292
 20
497.6876035404270056
 30
0.0
 11
4693.2314850370266868
 21
497.6876035404270056
 31
0.0
  0
LINE
  5
19627
  8
0
 10
4693.2314850370266868
 20
497.6876035404270056
 30
0.0
 11
4693.2314850370266868
 21
497.5694933042270236
 31
0.0
  0
LINE
  5
19628
  8
0
 10
4695.199988974027292
 20
497.6876035404270056
 30
0.0
 11
4695.199988974027292
 21
497.5694933042270236
 31
0.0
  0
ARC
  5
19629
  8
0
 10
4709.6471796637315492
 20
479.0628435576151105
 30
0.0
 40
0.0141713770848612
 50
143.4602420043804898
 51
220.1400485629251875
  0
ARC
  5
1962A
  8
0
 10
4709.9480204508381576
 20
475.3245759447239038
 30
0.0
 40
3.7795436792051942
 50
87.8480230805325419
 51
92.1519769194674581
  0
ARC
  5
1962B
  8
0
 10
4709.6793161655350559
 20
479.0235150323161974
 30
0.0
 40
0.064620274809693
 50
98.2926338354960478
 51
132.3385584044737868
  0
ARC
  5
1962C
  8
0
 10
4709.8230442775566189
 20
478.2678204167590934
 30
0.0
 40
0.8338058817759904
 50
91.1645854434829488
 51
100.5768267902277984
  0
ARC
  5
1962D
  8
0
 10
4710.2488612379438564
 20
479.0628435576151105
 30
0.0
 40
0.0141713770848612
 50
319.8599514370746988
 51
36.5397579956195102
  0
ARC
  5
1962E
  8
0
 10
4710.2167247361412592
 20
479.0235150323161974
 30
0.0
 40
0.064620274809693
 50
47.6614415955262132
 51
81.7073661645039664
  0
ARC
  5
1962F
  8
0
 10
4710.0729966241178772
 20
478.2678204167590934
 30
0.0
 40
0.8338058817759904
 50
79.423173209772159
 51
88.8354145565170512
  0
ARC
  5
19630
  8
0
 10
4709.7614721865547835
 20
479.1754226522646718
 30
0.0
 40
0.1745595541053377
 50
224.2082227909515098
 51
249.7653987472677954
  0
ARC
  5
19631
  8
0
 10
4709.9265440977778781
 20
479.5463212952791991
 30
0.0
 40
0.5802706815343531
 50
247.1376483445129111
 51
257.3105690818214271
  0
ARC
  5
19632
  8
0
 10
4710.1345687151188031
 20
479.1754226522646718
 30
0.0
 40
0.1745595541053377
 50
290.2346012527320909
 51
315.7917772090485187
  0
ARC
  5
19633
  8
0
 10
4709.9694968038966181
 20
479.5463212952791991
 30
0.0
 40
0.5802706815343531
 50
282.6894309181785729
 51
292.8623516554870889
  0
ARC
  5
19634
  8
0
 10
4709.9480204508381576
 20
479.6277374668525795
 30
0.0
 40
0.6644229802648597
 50
257.0460534466711806
 51
282.9539465533288194
  0
ARC
  5
19635
  8
0
 10
4710.6471796637306397
 20
479.0628435576151105
 30
0.0
 40
0.0141713770848612
 50
143.4602420043804898
 51
220.1400485629251875
  0
ARC
  5
19636
  8
0
 10
4710.9480204508381576
 20
475.3245759447239038
 30
0.0
 40
3.7795436792051942
 50
87.8480230805325419
 51
92.1519769194674581
  0
ARC
  5
19637
  8
0
 10
4710.6793161655350559
 20
479.0235150323161974
 30
0.0
 40
0.064620274809693
 50
98.2926338354960478
 51
132.3385584044737868
  0
ARC
  5
19638
  8
0
 10
4710.8230442775584379
 20
478.2678204167590934
 30
0.0
 40
0.8338058817759904
 50
91.1645854434829488
 51
100.5768267902277984
  0
ARC
  5
19639
  8
0
 10
4711.2488612379429469
 20
479.0628435576151105
 30
0.0
 40
0.0141713770848612
 50
319.8599514370746988
 51
36.5397579956195102
  0
ARC
  5
1963A
  8
0
 10
4711.2167247361403497
 20
479.0235150323161974
 30
0.0
 40
0.064620274809693
 50
47.6614415955262132
 51
81.7073661645039664
  0
ARC
  5
1963B
  8
0
 10
4711.0729966241178772
 20
478.2678204167590934
 30
0.0
 40
0.8338058817759904
 50
79.423173209772159
 51
88.8354145565170512
  0
ARC
  5
1963C
  8
0
 10
4710.761472186555693
 20
479.1754226522646718
 30
0.0
 40
0.1745595541053377
 50
224.2082227909515098
 51
249.7653987472677954
  0
ARC
  5
1963D
  8
0
 10
4710.9265440977778781
 20
479.5463212952791991
 30
0.0
 40
0.5802706815343531
 50
247.1376483445129111
 51
257.3105690818214271
  0
ARC
  5
1963E
  8
0
 10
4711.1345687151188031
 20
479.1754226522646718
 30
0.0
 40
0.1745595541053377
 50
290.2346012527320909
 51
315.7917772090485187
  0
ARC
  5
1963F
  8
0
 10
4710.9694968038966181
 20
479.5463212952791991
 30
0.0
 40
0.5802706815343531
 50
282.6894309181785729
 51
292.8623516554870889
  0
ARC
  5
19640
  8
0
 10
4710.9480204508381576
 20
479.6277374668525795
 30
0.0
 40
0.6644229802648597
 50
257.0460534466711806
 51
282.9539465533288194
  0
ARC
  5
19641
  8
0
 10
4718.5633848493725964
 20
491.5782770161292206
 30
0.0
 40
0.206705137875908
 50
60.1975350239995421
 51
86.4800980565274102
  0
ARC
  5
19642
  8
0
 10
4718.6200676622602259
 20
491.6198143277827057
 30
0.0
 40
0.1340662802710122
 50
355.7204235961015115
 51
30.230529011071301
  0
ARC
  5
19643
  8
0
 10
4718.5671796934775557
 20
491.5896907235439812
 30
0.0
 40
0.1949294078674064
 50
30.0538584547069583
 51
59.4980243756975824
  0
ARC
  5
19644
  8
0
 10
4718.7573160086967619
 20
491.7647102259082885
 30
0.0
 40
0.250458783614868
 50
0.2307742381964856
 51
89.71453091529348
  0
ARC
  5
19645
  8
0
 10
4719.4835370751343362
 20
492.2507013272210088
 30
0.0
 40
0.2492383772633874
 50
0.6760823108580674
 51
89.8763013418394365
  0
ARC
  5
19646
  8
0
 10
4719.6094377929275652
 20
492.2939027530269982
 30
0.0
 40
0.3937007873999856
 50
359.9999999999968168
 51
90.0
  0
ARC
  5
19647
  8
0
 10
4718.5163142113351569
 20
479.5265869216535748
 30
0.0
 40
0.2401328682875426
 50
337.9135497037407845
 51
8.5791979764998576
  0
ARC
  5
19648
  8
0
 10
4718.6282209307646553
 20
479.4862124230234031
 30
0.0
 40
0.1213468487727749
 50
297.6010104789672255
 51
335.7099859905580956
  0
ARC
  5
19649
  8
0
 10
4718.623904908026816
 20
479.4944678584628264
 30
0.0
 40
0.130662441430826
 50
256.0470317692016238
 51
297.6010104789672255
  0
ARC
  5
1964A
  8
0
 10
4718.7573207749310313
 20
479.3585235979938943
 30
0.0
 40
0.2504539995090513
 50
270.2840100786792732
 51
359.770240922581479
  0
ARC
  5
1964B
  8
0
 10
4719.4830711771483038
 20
478.8729966892086054
 30
0.0
 40
0.2496992544115988
 50
270.2303754260814799
 51
359.4305944342638099
  0
ARC
  5
1964C
  8
0
 10
4719.6094377929275652
 20
478.5931153514270022
 30
0.0
 40
0.393700787399998
 50
270.0
 51
0.0
  0
ARC
  5
1964D
  8
0
 10
4713.0560473183249997
 20
534.8422195664331866
 30
0.0
 40
43.4100217143288702
 50
269.0195966896147866
 51
277.3055233712568111
  0
LINE
  5
1964E
  8
0
 10
4718.1481585482124501
 20
473.5537452727269851
 30
0.0
 11
4718.2889168465271723
 21
473.4356350365271169
 31
0.0
  0
LINE
  5
1964F
  8
0
 10
4718.2889168465271723
 20
473.4356350365271169
 30
0.0
 11
4719.3157855109284355
 21
473.4356350365271169
 31
0.0
  0
LINE
  5
19650
  8
0
 10
4719.3157855109284355
 20
473.4356350365271169
 30
0.0
 11
4719.4565438092431577
 21
473.5537452727269851
 31
0.0
  0
LINE
  5
19651
  8
0
 10
4719.0582566905268322
 20
473.3568948790270952
 30
0.0
 11
4718.5464456669269566
 21
473.3568948790270952
 31
0.0
  0
ARC
  5
19652
  8
0
 10
4719.1369968480266834
 20
473.3568948790270952
 30
0.0
 40
0.0787401575000057
 50
90.0
 51
179.9999999999934914
  0
ARC
  5
19653
  8
0
 10
4718.4677055094271054
 20
473.3568948790270952
 30
0.0
 40
0.078740157500006
 50
0.0000000000065138
 51
90.0
  0
LINE
  5
19654
  8
0
 10
4711.3174498868111186
 20
473.5537452727269851
 30
0.0
 11
4711.4582081851267503
 21
473.4356350365271169
 31
0.0
  0
LINE
  5
19655
  8
0
 10
4711.4582081851267503
 20
473.4356350365271169
 30
0.0
 11
4712.4850768495271041
 21
473.4356350365271169
 31
0.0
  0
LINE
  5
19656
  8
0
 10
4712.4850768495271041
 20
473.4356350365271169
 30
0.0
 11
4712.6258351478427358
 21
473.5537452727269851
 31
0.0
  0
LINE
  5
19657
  8
0
 10
4712.2275480291273198
 20
473.3568948790270952
 30
0.0
 11
4711.7157370055274441
 21
473.3568948790270952
 31
0.0
  0
ARC
  5
19658
  8
0
 10
4712.3062881866271709
 20
473.3568948790270952
 30
0.0
 40
0.0787401575000057
 50
90.0
 51
179.9999999999934914
  0
ARC
  5
19659
  8
0
 10
4711.6369968480266834
 20
473.3568948790270952
 30
0.0
 40
0.078740157500006
 50
0.0000000000065138
 51
90.0
  0
LINE
  5
1965A
  8
0
 10
4728.6645559031276207
 20
497.6876035404270056
 30
0.0
 11
4727.6803039346277728
 21
497.9631547215270189
 31
0.0
  0
LINE
  5
1965B
  8
0
 10
4727.6803039346277728
 20
497.9631547215270189
 30
0.0
 11
4726.696051966126106
 21
497.6876035404270056
 31
0.0
  0
LINE
  5
1965C
  8
0
 10
4726.696051966126106
 20
497.6876035404270056
 30
0.0
 11
4728.6645559031276207
 21
497.6876035404270056
 31
0.0
  0
LINE
  5
1965D
  8
0
 10
4728.6645559031276207
 20
497.6876035404270056
 30
0.0
 11
4728.6645559031276207
 21
497.5694933042270236
 31
0.0
  0
LINE
  5
1965E
  8
0
 10
4726.696051966126106
 20
497.6876035404270056
 30
0.0
 11
4726.696051966126106
 21
497.5694933042270236
 31
0.0
  0
ARC
  5
1965F
  8
0
 10
4712.2488612764227582
 20
479.0628435576151105
 30
0.0
 40
0.0141713770848612
 50
319.8599514370746988
 51
36.5397579956195102
  0
ARC
  5
19660
  8
0
 10
4711.9480204893170594
 20
475.3245759447239038
 30
0.0
 40
3.7795436792051942
 50
87.8480230805325419
 51
92.1519769194674581
  0
ARC
  5
19661
  8
0
 10
4712.2167247746192515
 20
479.0235150323161974
 30
0.0
 40
0.064620274809693
 50
47.6614415955262132
 51
81.7073661645039664
  0
ARC
  5
19662
  8
0
 10
4712.0729966625958696
 20
478.2678204167590934
 30
0.0
 40
0.8338058817759904
 50
79.423173209772159
 51
88.8354145565170512
  0
ARC
  5
19663
  8
0
 10
4711.6471797022113606
 20
479.0628435576151105
 30
0.0
 40
0.0141713770848612
 50
143.4602420043804898
 51
220.1400485629251875
  0
ARC
  5
19664
  8
0
 10
4711.6793162040148673
 20
479.0235150323161974
 30
0.0
 40
0.064620274809693
 50
98.2926338354960478
 51
132.3385584044737868
  0
ARC
  5
19665
  8
0
 10
4711.8230443160364302
 20
478.2678204167590934
 30
0.0
 40
0.8338058817759904
 50
91.1645854434829488
 51
100.5768267902277984
  0
ARC
  5
19666
  8
0
 10
4712.1345687536004334
 20
479.1754226522646718
 30
0.0
 40
0.1745595541053377
 50
290.2346012527320909
 51
315.7917772090485187
  0
ARC
  5
19667
  8
0
 10
4711.9694968423764294
 20
479.5463212952791991
 30
0.0
 40
0.5802706815343531
 50
282.6894309181785729
 51
292.8623516554870889
  0
ARC
  5
19668
  8
0
 10
4711.7614722250336854
 20
479.1754226522646718
 30
0.0
 40
0.1745595541053377
 50
224.2082227909515098
 51
249.7653987472677954
  0
ARC
  5
19669
  8
0
 10
4711.9265441362567799
 20
479.5463212952791991
 30
0.0
 40
0.5802706815343531
 50
247.1376483445129111
 51
257.3105690818214271
  0
ARC
  5
1966A
  8
0
 10
4711.9480204893170594
 20
479.6277374668525795
 30
0.0
 40
0.6644229802648597
 50
257.0460534466711806
 51
282.9539465533288194
  0
POINT
  5
1966C
  8
DEFPOINTS
 10
4710.9480204701267212
 20
495.2072885798269795
 30
0.0
  0
ENDSEC
  0
EOF
