  0
SECTION
  2
HEADER
  9
$ACADVER
  1
AC1009
  9
$INSBASE
 10
4764.7389966669761634
 20
474.9134824045821119
 30
0.0
  9
$EXTMIN
 10
4739.9957938549678147
 20
474.897143999260777
 30
-0.0015258207003583
  9
$EXTMAX
 10
4764.7650936614236343
 20
507.9891307415766164
 30
0.0000000349246037
  9
$LIMMIN
 10
0.0
 20
0.0
  9
$LIMMAX
 10
11.6929133858000007
 20
8.2677165353999982
  9
$ORTHOMODE
 70
     0
  9
$REGENMODE
 70
     1
  9
$FILLMODE
 70
     1
  9
$QTEXTMODE
 70
     0
  9
$MIRRTEXT
 70
     0
  9
$DRAGMODE
 70
     2
  9
$LTSCALE
 40
0.6431102362
  9
$OSMODE
 70
    19
  9
$ATTMODE
 70
     1
  9
$TEXTSIZE
 40
0.2
  9
$TRACEWID
 40
0.05
  9
$TEXTSTYLE
  7
STANDARD
  9
$CLAYER
  8
0
  9
$CELTYPE
  6
BYLAYER
  9
$CECOLOR
 62
   256
  9
$DIMSCALE
 40
1.0
  9
$DIMASZ
 40
0.1875
  9
$DIMEXO
 40
0.0625
  9
$DIMDLI
 40
0.4443307087
  9
$DIMRND
 40
0.0
  9
$DIMDLE
 40
0.0
  9
$DIMEXE
 40
0.125
  9
$DIMTP
 40
0.01
  9
$DIMTM
 40
0.01
  9
$DIMTXT
 40
2.0
  9
$DIMCEN
 40
0.1052362205
  9
$DIMTSZ
 40
0.0
  9
$DIMTOL
 70
     1
  9
$DIMLIM
 70
     0
  9
$DIMTIH
 70
     1
  9
$DIMTOH
 70
     1
  9
$DIMSE1
 70
     0
  9
$DIMSE2
 70
     0
  9
$DIMTAD
 70
     0
  9
$DIMZIN
 70
     0
  9
$DIMBLK
  1

  9
$DIMASO
 70
     1
  9
$DIMSHO
 70
     1
  9
$DIMPOST
  1
\X
  9
$DIMAPOST
  1

  9
$DIMALT
 70
     1
  9
$DIMALTD
 70
     2
  9
$DIMALTF
 40
25.3999999999999986
  9
$DIMLFAC
 40
1.0
  9
$DIMTOFL
 70
     0
  9
$DIMTVP
 40
0.0
  9
$DIMTIX
 70
     0
  9
$DIMSOXD
 70
     0
  9
$DIMSAH
 70
     0
  9
$DIMBLK1
  1

  9
$DIMBLK2
  1

  9
$DIMSTYLE
  2
STANDARD
  9
$DIMCLRD
 70
     0
  9
$DIMCLRE
 70
     0
  9
$DIMCLRT
 70
     0
  9
$DIMTFAC
 40
1.0
  9
$DIMGAP
 40
0.09
  9
$LUNITS
 70
     2
  9
$LUPREC
 70
     4
  9
$SKETCHINC
 40
0.1
  9
$FILLETRAD
 40
0.0
  9
$AUNITS
 70
     0
  9
$AUPREC
 70
     0
  9
$MENU
  1
.
  9
$ELEVATION
 40
0.0
  9
$PELEVATION
 40
0.0
  9
$THICKNESS
 40
0.0
  9
$LIMCHECK
 70
     0
  9
$BLIPMODE
 70
     0
  9
$CHAMFERA
 40
0.0
  9
$CHAMFERB
 40
0.0
  9
$SKPOLY
 70
     0
  9
$TDCREATE
 40
2458060.468368056230247
  9
$TDUPDATE
 40
2459284.7548032412305474
  9
$TDINDWG
 40
1.5075145255
  9
$TDUSRTIMER
 40
1.5075145255
  9
$USRTIMER
 70
     1
  9
$ANGBASE
 50
0.0
  9
$ANGDIR
 70
     0
  9
$PDMODE
 70
     0
  9
$PDSIZE
 40
0.3125
  9
$PLINEWID
 40
0.0
  9
$COORDS
 70
     1
  9
$SPLFRAME
 70
     0
  9
$SPLINETYPE
 70
     6
  9
$SPLINESEGS
 70
     8
  9
$ATTDIA
 70
     1
  9
$ATTREQ
 70
     1
  9
$HANDLING
 70
     1
  9
$HANDSEED
  5
1983F
  9
$SURFTAB1
 70
     6
  9
$SURFTAB2
 70
     6
  9
$SURFTYPE
 70
     6
  9
$SURFU
 70
     6
  9
$SURFV
 70
     6
  9
$UCSNAME
  2

  9
$UCSORG
 10
0.0
 20
0.0
 30
0.0
  9
$UCSXDIR
 10
1.0
 20
0.0
 30
0.0
  9
$UCSYDIR
 10
0.0
 20
1.0
 30
0.0
  9
$PUCSNAME
  2

  9
$PUCSORG
 10
0.0
 20
0.0
 30
0.0
  9
$PUCSXDIR
 10
1.0
 20
0.0
 30
0.0
  9
$PUCSYDIR
 10
0.0
 20
1.0
 30
0.0
  9
$USERI1
 70
     0
  9
$USERI2
 70
     0
  9
$USERI3
 70
     0
  9
$USERI4
 70
     0
  9
$USERI5
 70
     0
  9
$USERR1
 40
0.0
  9
$USERR2
 40
0.0
  9
$USERR3
 40
0.0
  9
$USERR4
 40
0.0
  9
$USERR5
 40
0.0
  9
$WORLDVIEW
 70
     1
  9
$SHADEDGE
 70
     3
  9
$SHADEDIF
 70
    70
  9
$TILEMODE
 70
     1
  9
$MAXACTVP
 70
    64
  9
$PLIMCHECK
 70
     0
  9
$PEXTMIN
 10
1.0000000000000000E+20
 20
1.0000000000000000E+20
 30
1.0000000000000000E+20
  9
$PEXTMAX
 10
-1.0000000000000000E+20
 20
-1.0000000000000000E+20
 30
-1.0000000000000000E+20
  9
$PLIMMIN
 10
0.0
 20
0.0
  9
$PLIMMAX
 10
12.0
 20
9.0
  9
$UNITMODE
 70
     0
  9
$VISRETAIN
 70
     1
  9
$PLINEGEN
 70
     0
  9
$PSLTSCALE
 70
     1
  0
ENDSEC
  0
SECTION
  2
TABLES
  0
TABLE
  2
VPORT
 70
     1
  0
VPORT
  2
*ACTIVE
 70
     0
 10
0.0
 20
0.0
 11
1.0
 21
1.0
 12
841.015087312884134
 22
358.8635322678796911
 13
0.0
 23
0.0
 14
1.0
 24
1.0
 15
0.0
 25
0.0
 16
0.0
 26
0.0
 36
60.4960186965801583
 17
3911.3653564453120453
 27
132.5796051025390057
 37
0.0
 40
33.300696054710258
 41
2.005224660397074
 42
50.0
 43
0.0
 44
0.0
 50
0.0
 51
0.0
 71
     0
 72
   100
 73
     1
 74
     1
 75
     0
 76
     0
 77
     0
 78
     0
  0
ENDTAB
  0
TABLE
  2
LTYPE
 70
     3
  0
LTYPE
  2
CONTINUOUS
 70
     0
  3
Solid line
 72
    65
 73
     0
 40
0.0
  0
LTYPE
  2
PHANTOM2
 70
     0
  3
___ _ _ ___ _ _ ___ _ _ ___ _ _
 72
    65
 73
     6
 40
1.25
 49
0.625
 49
-0.125
 49
0.125
 49
-0.125
 49
0.125
 49
-0.125
  0
ENDTAB
  0
TABLE
  2
LAYER
 70
     2
  0
LAYER
  2
0
 70
     0
 62
   255
  6
CONTINUOUS
  0
LAYER
  2
DEFPOINTS
 70
     0
 62
     7
  6
CONTINUOUS
  0
ENDTAB
  0
TABLE
  2
STYLE
 70
     1
  0
STYLE
  2
STANDARD
 70
     0
 40
0.0
 41
0.8
 50
0.0
 71
     0
 42
0.2
  3
txt
  4

  0
ENDTAB
  0
TABLE
  2
VIEW
 70
     0
  0
ENDTAB
  0
TABLE
  2
UCS
 70
     0
  0
ENDTAB
  0
TABLE
  2
APPID
 70
    11
  0
APPID
  2
ACAD
 70
     0
  0
APPID
  2
ACAD_MLEADERVER
 70
     0
  0
APPID
  2
ACAD_EXEMPT_FROM_CAD_STANDARDS
 70
     0
  0
APPID
  2
ACAD_NAV_VCDISPLAY
 70
     0
  0
APPID
  2
ACAECLAYERSTANDARD
 70
     0
  0
APPID
  2
ACCMTRANSPARENCY
 70
     0
  0
APPID
  2
ACAD_DSTYLE_DIMJAG
 70
     0
  0
APPID
  2
ACAD_DSTYLE_DIMTALN
 70
     0
  0
APPID
  2
ACDBATTR
 70
     0
  0
APPID
  2
ACADANNOTATIVE
 70
     0
  0
APPID
  2
DCO15
 70
     0
  0
ENDTAB
  0
TABLE
  2
DIMSTYLE
 70
     2
  0
DIMSTYLE
  2
STANDARD
 70
     0
  3

  4

  5

  6

  7

 40
1.0
 41
0.1875
 42
0.0625
 43
0.38
 44
0.125
 45
0.0
 46
0.0
 47
0.01
 48
0.01
140
0.15625
141
0.09
142
0.0
143
25.3999999999999986
144
1.0
145
0.0
146
1.0
147
0.09
 71
     1
 72
     0
 73
     1
 74
     1
 75
     0
 76
     0
 77
     0
 78
     4
170
     0
171
     2
172
     0
173
     0
174
     0
175
     0
176
     0
177
     0
178
     0
  0
ENDTAB
  0
ENDSEC
  0
SECTION
  2
BLOCKS
  0
BLOCK
  8
0
  2
$MODEL_SPACE
 70
     0
 10
0.0
 20
0.0
 30
0.0
  3
$MODEL_SPACE
  1

  0
ENDBLK
  5
21
  8
0
  0
BLOCK
 67
     1
  8
0
  2
$PAPER_SPACE
 70
     0
 10
0.0
 20
0.0
 30
0.0
  3
$PAPER_SPACE
  1

  0
ENDBLK
  5
1D
 67
     1
  8
0
  0
ENDSEC
  0
SECTION
  2
ENTITIES
  0
ATTDEF
  5
159BF
  8
DEFPOINTS
 10
4764.7389965210149967
 20
474.9168183088038973
 30
0.0
 40
0.001
  1
K-98982T-1
  3

  2
MODELNUMBER
 70
     0
1001
ACDBATTR
1070
     0
1070
     1
  0
ATTDEF
  5
159C0
  8
DEFPOINTS
 10
4764.7389965210149967
 20
474.9151514684248809
 30
0.0
 40
0.001
  1
AMMERISSIC
  3

  2
TRADENAME
 70
     0
1001
ACDBATTR
1070
     0
1070
     1
  0
ATTDEF
  5
159C1
  8
DEFPOINTS
 10
4764.7389965210149967
 20
474.9134849754706806
 30
0.0
 40
0.001
  1
VANITY CABINET
  3

  2
PRODUCT
 70
     0
1001
ACDBATTR
1070
     0
1070
     1
  0
LINE
  5
1975A
  8
0
 10
4740.3295872181770392
 20
507.1969469715821219
 30
0.0
 11
4764.4634454858760364
 21
507.1969469715821219
 31
0.0
  0
LINE
  5
1975B
  8
0
 10
4740.9988785567757077
 20
478.8504902785820718
 30
0.0
 11
4764.4634454858760364
 21
478.8504902785820718
 31
0.0
  0
LINE
  5
1975C
  8
0
 10
4764.3453352496771913
 20
474.9134824045821119
 30
0.0
 11
4762.3768313126765861
 21
474.9134824045821119
 31
0.0
  0
LINE
  5
1975D
  8
0
 10
4743.085492729976977
 20
474.9134824045821119
 30
0.0
 11
4741.1169887929772813
 21
474.9134824045821119
 31
0.0
  0
LINE
  5
1975E
  8
0
 10
4741.1169887929772813
 20
474.9134824045821119
 30
0.0
 11
4741.1169887929772813
 21
507.1969469715821219
 31
0.0
  0
LINE
  5
1975F
  8
0
 10
4743.085492729976977
 20
474.9134824045821119
 30
0.0
 11
4743.085492729976977
 21
507.1969469715821219
 31
0.0
  0
LINE
  5
19761
  8
0
 10
4740.9988785567757077
 20
507.1969469715821219
 30
0.0
 11
4740.7233273756755807
 21
506.2126950029821728
 31
0.0
  0
LINE
  5
19762
  8
0
 10
4740.7233273756755807
 20
506.2126950029821728
 30
0.0
 11
4740.9988785567757077
 21
505.2284430344820976
 31
0.0
  0
LINE
  5
19763
  8
0
 10
4740.9988785567757077
 20
505.2284430344820976
 30
0.0
 11
4743.085492729976977
 21
505.2284430344820976
 31
0.0
  0
LINE
  5
19764
  8
0
 10
4743.085492729976977
 20
505.2670411509820951
 30
0.0
 11
4741.1169887929772813
 21
507.1969469715821219
 31
0.0
  0
LINE
  5
19765
  8
0
 10
4740.9988785567757077
 20
507.1969469715821219
 30
0.0
 11
4740.9988785567757077
 21
505.2284430344820976
 31
0.0
  0
LINE
  5
19766
  8
0
 10
4741.1169887929772813
 20
505.2284430344820976
 30
0.0
 11
4743.085492729976977
 21
507.1583488550821244
 31
0.0
  0
LINE
  5
19767
  8
0
 10
4740.9988785567757077
 20
478.8504902785820718
 30
0.0
 11
4740.7233273756755807
 21
479.8347422471820778
 31
0.0
  0
LINE
  5
19768
  8
0
 10
4740.7233273756755807
 20
479.8347422471820778
 30
0.0
 11
4740.9988785567757077
 21
480.8189942156820962
 31
0.0
  0
LINE
  5
19769
  8
0
 10
4740.9988785567757077
 20
480.8189942156820962
 30
0.0
 11
4743.085492729976977
 21
480.8189942156820962
 31
0.0
  0
LINE
  5
1976A
  8
0
 10
4743.085492729976977
 20
480.7803960991820986
 30
0.0
 11
4741.1169887929772813
 21
478.8504902785820718
 31
0.0
  0
LINE
  5
1976B
  8
0
 10
4740.9988785567757077
 20
478.8504902785820718
 30
0.0
 11
4740.9988785567757077
 21
480.8189942156820962
 31
0.0
  0
LINE
  5
1976C
  8
0
 10
4741.1169887929772813
 20
480.8189942156820962
 30
0.0
 11
4743.085492729976977
 21
478.8890883950821831
 31
0.0
  0
LINE
  5
1976D
  8
0
 10
4741.4319494228766416
 20
482.1969469715821219
 30
0.0
 11
4741.4319494228766416
 21
503.8504902785820718
 31
0.0
  0
LINE
  5
1976E
  8
0
 10
4741.6681698952770603
 20
482.1969469715821219
 30
0.0
 11
4741.6681698952770603
 21
503.8504902785820718
 31
0.0
  0
ARC
  5
1976F
  8
0
 10
4741.5500596590773057
 20
503.8504902785820718
 30
0.0
 40
0.1181102362000015
 50
0.0
 51
180.0
  0
ARC
  5
19770
  8
0
 10
4741.5500596590773057
 20
482.1969469715821219
 30
0.0
 40
0.1181102361999997
 50
180.0
 51
0.0
  0
LINE
  5
19771
  8
0
 10
4741.9831305252755556
 20
482.1969469715821219
 30
0.0
 11
4741.9831305252755556
 21
503.8504902785820718
 31
0.0
  0
LINE
  5
19772
  8
0
 10
4742.2193509976768837
 20
482.1969469715821219
 30
0.0
 11
4742.2193509976768837
 21
503.8504902785820718
 31
0.0
  0
ARC
  5
19773
  8
0
 10
4742.1012407614771291
 20
503.8504902785820718
 30
0.0
 40
0.1181102362000015
 50
0.0
 51
180.0
  0
ARC
  5
19774
  8
0
 10
4742.1012407614771291
 20
482.1969469715821219
 30
0.0
 40
0.1181102361999997
 50
180.0
 51
0.0
  0
LINE
  5
19775
  8
0
 10
4742.5343116275771536
 20
482.1969469715821219
 30
0.0
 11
4742.5343116275771536
 21
503.8504902785820718
 31
0.0
  0
LINE
  5
19776
  8
0
 10
4742.7705320999766627
 20
482.1969469715821219
 30
0.0
 11
4742.7705320999766627
 21
503.8504902785820718
 31
0.0
  0
ARC
  5
19777
  8
0
 10
4742.6524218637769081
 20
503.8504902785820718
 30
0.0
 40
0.1181102362000015
 50
0.0
 51
180.0
  0
ARC
  5
19778
  8
0
 10
4742.6524218637769081
 20
482.1969469715821219
 30
0.0
 40
0.1181102361999997
 50
180.0
 51
0.0
  0
LINE
  5
19779
  8
0
 10
4740.834543155207939
 20
505.8154390395172868
 30
0.0
 11
4740.6051777693774056
 21
505.7953721684821176
 31
0.0
  0
LINE
  5
1977A
  8
0
 10
4740.735564633831018
 20
506.2564057407868745
 30
0.0
 11
4740.6051777693774056
 21
506.2678131132821022
 31
0.0
  0
LINE
  5
1977B
  8
0
 10
4740.6051777693774056
 20
506.7796241369820791
 30
0.0
 11
4740.6051777693774056
 21
505.2835611447820838
 31
0.0
  0
LINE
  5
1977C
  8
0
 10
4740.6051777693774056
 20
505.2835611447820838
 30
0.0
 11
4740.4083273756768904
 21
505.2835611447820838
 31
0.0
  0
LINE
  5
1977D
  8
0
 10
4740.4083273756768904
 20
505.2835611447820838
 30
0.0
 11
4740.2114769819772846
 21
505.5181583086820751
 31
0.0
  0
LINE
  5
1977E
  8
0
 10
4740.2114769819772846
 20
505.5181583086820751
 30
0.0
 11
4740.2114769819772846
 21
506.5450269730820878
 31
0.0
  0
LINE
  5
1977F
  8
0
 10
4740.2114769819772846
 20
506.5450269730820878
 30
0.0
 11
4740.4083273756768904
 21
506.7796241369820791
 31
0.0
  0
LINE
  5
19780
  8
0
 10
4740.4083273756768904
 20
506.7796241369820791
 30
0.0
 11
4740.6051777693774056
 21
506.7796241369820791
 31
0.0
  0
LINE
  5
19781
  8
0
 10
4740.4083273756768904
 20
506.7543175381820788
 30
0.0
 11
4740.4083273756768904
 21
505.3088677436820717
 31
0.0
  0
LINE
  5
19782
  8
0
 10
4740.1327368244756144
 20
506.2874981526821898
 30
0.0
 11
4740.1327368244756144
 21
505.7756871290820868
 31
0.0
  0
ARC
  5
19783
  8
0
 10
4740.1327368244756144
 20
506.3662383101820978
 30
0.0
 40
0.0787401575000057
 50
270.0
 51
359.9999999999968168
  0
ARC
  5
19784
  8
0
 10
4740.1327368244756144
 20
505.6969469715821788
 30
0.0
 40
0.078740157500006
 50
0.0000000000032569
 51
90.0
  0
ARC
  5
19785
  8
0
 10
4740.4750772835695898
 20
506.7527822280313785
 30
0.0
 40
0.0667675623417786
 50
156.2954679770975019
 51
178.6823759485953076
  0
ARC
  5
19786
  8
0
 10
4740.4750772835250245
 20
505.3104030537169251
 30
0.0
 40
0.0667675622941033
 50
181.3176239527475957
 51
203.704532025292508
  0
LINE
  5
19787
  8
0
 10
4741.1169887929772813
 20
498.1472364449469978
 30
0.0
 11
4740.6051777693774056
 21
498.1024587825821186
 31
0.0
  0
LINE
  5
19788
  8
0
 10
4741.1169887929772813
 20
498.530122065017224
 30
0.0
 11
4740.6051777693774056
 21
498.5748997273821033
 31
0.0
  0
LINE
  5
19789
  8
0
 10
4740.6051777693774056
 20
499.0867107510820802
 30
0.0
 11
4740.6051777693774056
 21
497.5906477588820849
 31
0.0
  0
LINE
  5
1978A
  8
0
 10
4740.6051777693774056
 20
497.5906477588820849
 30
0.0
 11
4740.4083273756768904
 21
497.5906477588820849
 31
0.0
  0
LINE
  5
1978B
  8
0
 10
4740.4083273756768904
 20
497.5906477588820849
 30
0.0
 11
4740.2114769819772846
 21
497.8252449227821899
 31
0.0
  0
LINE
  5
1978C
  8
0
 10
4740.2114769819772846
 20
497.8252449227821899
 30
0.0
 11
4740.2114769819772846
 21
498.8521135871820888
 31
0.0
  0
LINE
  5
1978D
  8
0
 10
4740.2114769819772846
 20
498.8521135871820888
 30
0.0
 11
4740.4083273756768904
 21
499.0867107510820802
 31
0.0
  0
LINE
  5
1978E
  8
0
 10
4740.4083273756768904
 20
499.0867107510820802
 30
0.0
 11
4740.6051777693774056
 21
499.0867107510820802
 31
0.0
  0
LINE
  5
1978F
  8
0
 10
4740.4083273756768904
 20
499.0614041522820798
 30
0.0
 11
4740.4083273756768904
 21
497.6159543577820727
 31
0.0
  0
LINE
  5
19790
  8
0
 10
4740.1327368244756144
 20
498.5945847667821909
 30
0.0
 11
4740.1327368244756144
 21
498.0827737431820879
 31
0.0
  0
ARC
  5
19791
  8
0
 10
4740.1327368244756144
 20
498.6733249242822126
 30
0.0
 40
0.0787401575000057
 50
270.0
 51
359.9999999999968168
  0
ARC
  5
19792
  8
0
 10
4740.1327368244756144
 20
498.0040335856821798
 30
0.0
 40
0.078740157500006
 50
0.0000000000032569
 51
90.0
  0
ARC
  5
19793
  8
0
 10
4740.4750772835695898
 20
499.0598688421313796
 30
0.0
 40
0.0667675623417786
 50
156.2954679770975019
 51
178.6823759485953076
  0
ARC
  5
19794
  8
0
 10
4740.4750772835250245
 20
497.6174896678169262
 30
0.0
 40
0.0667675622941033
 50
181.3176239527475957
 51
203.704532025292508
  0
LINE
  5
19795
  8
0
 10
4764.3453352496771913
 20
474.9134824045821119
 30
0.0
 11
4764.3453352496771913
 21
507.6693879163821066
 31
0.0
  0
LINE
  5
19796
  8
0
 10
4762.3768313126765861
 20
474.9134824045821119
 30
0.0
 11
4762.3768313126765861
 21
507.1969469715821219
 31
0.0
  0
LINE
  5
19798
  8
0
 10
4764.4634454858760364
 20
507.1969469715821219
 30
0.0
 11
4764.7389966669761634
 21
506.2126950029821728
 31
0.0
  0
LINE
  5
19799
  8
0
 10
4764.7389966669761634
 20
506.2126950029821728
 30
0.0
 11
4764.4634454858760364
 21
505.2284430344820976
 31
0.0
  0
LINE
  5
1979A
  8
0
 10
4764.4634454858760364
 20
505.2284430344820976
 30
0.0
 11
4762.3768313126765861
 21
505.2284430344820976
 31
0.0
  0
LINE
  5
1979B
  8
0
 10
4762.3768313126765861
 20
505.2284430344820976
 30
0.0
 11
4764.3453352496771913
 21
507.1969469715821219
 31
0.0
  0
LINE
  5
1979C
  8
0
 10
4764.4634454858760364
 20
507.1969469715821219
 30
0.0
 11
4764.4634454858760364
 21
505.2284430344820976
 31
0.0
  0
LINE
  5
1979D
  8
0
 10
4764.3453352496771913
 20
505.2284430344820976
 30
0.0
 11
4762.3768313126765861
 21
507.1969469715821219
 31
0.0
  0
LINE
  5
1979E
  8
0
 10
4764.4634454858760364
 20
478.8504902785820718
 30
0.0
 11
4764.7389966669761634
 21
479.8347422471820778
 31
0.0
  0
LINE
  5
1979F
  8
0
 10
4764.7389966669761634
 20
479.8347422471820778
 30
0.0
 11
4764.4634454858760364
 21
480.8189942156820962
 31
0.0
  0
LINE
  5
197A0
  8
0
 10
4764.4634454858760364
 20
480.8189942156820962
 30
0.0
 11
4762.3768313126765861
 21
480.8189942156820962
 31
0.0
  0
LINE
  5
197A1
  8
0
 10
4762.3768313126765861
 20
480.8189942155821086
 30
0.0
 11
4764.3453352496771913
 21
478.8504902785820718
 31
0.0
  0
LINE
  5
197A2
  8
0
 10
4764.4634454858760364
 20
478.8504902785820718
 30
0.0
 11
4764.4634454858760364
 21
480.8189942156820962
 31
0.0
  0
LINE
  5
197A3
  8
0
 10
4764.3453352496771913
 20
480.8189942156820962
 30
0.0
 11
4762.3768313126765861
 21
478.8504902785820718
 31
0.0
  0
LINE
  5
197A4
  8
0
 10
4764.0303746197769215
 20
482.1969469715821219
 30
0.0
 11
4764.0303746197769215
 21
503.8504902785820718
 31
0.0
  0
LINE
  5
197A5
  8
0
 10
4763.7941541473755933
 20
482.1969469715821219
 30
0.0
 11
4763.7941541473755933
 21
503.8504902785820718
 31
0.0
  0
ARC
  5
197A6
  8
0
 10
4763.9122643835762574
 20
503.8504902785820718
 30
0.0
 40
0.1181102362000015
 50
0.0
 51
180.0
  0
ARC
  5
197A7
  8
0
 10
4763.9122643835762574
 20
482.1969469715821219
 30
0.0
 40
0.1181102361999997
 50
180.0
 51
0.0
  0
LINE
  5
197A8
  8
0
 10
4763.479193517377098
 20
482.1969469715821219
 30
0.0
 11
4763.479193517377098
 21
503.8504902785820718
 31
0.0
  0
LINE
  5
197A9
  8
0
 10
4763.2429730449766794
 20
482.1969469715821219
 30
0.0
 11
4763.2429730449766794
 21
503.8504902785820718
 31
0.0
  0
ARC
  5
197AA
  8
0
 10
4763.3610832811782529
 20
503.8504902785820718
 30
0.0
 40
0.1181102362000015
 50
0.0
 51
180.0
  0
ARC
  5
197AB
  8
0
 10
4763.3610832811782529
 20
482.1969469715821219
 30
0.0
 40
0.1181102361999997
 50
180.0
 51
0.0
  0
LINE
  5
197AC
  8
0
 10
4762.928012415077319
 20
482.1969469715821219
 30
0.0
 11
4762.928012415077319
 21
503.8504902785820718
 31
0.0
  0
LINE
  5
197AD
  8
0
 10
4762.6917919426759909
 20
482.1969469715821219
 30
0.0
 11
4762.6917919426759909
 21
503.8504902785820718
 31
0.0
  0
ARC
  5
197AE
  8
0
 10
4762.8099021788766549
 20
503.8504902785820718
 30
0.0
 40
0.1181102362000015
 50
0.0
 51
180.0
  0
ARC
  5
197AF
  8
0
 10
4762.8099021788766549
 20
482.1969469715821219
 30
0.0
 40
0.1181102361999997
 50
180.0
 51
0.0
  0
ARC
  5
197B1
  8
0
 10
4764.2272250133064517
 20
507.6693879163113934
 30
0.0
 40
0.1181102363707147
 50
0.0000000343048012
 51
89.9999999171968739
  0
ARC
  5
197B2
  8
0
 10
4763.9122643834061819
 20
507.8662383100113971
 30
0.0
 40
0.1181102363707183
 50
0.0000000343015444
 51
89.9999999171968739
  0
ARC
  5
197B3
  8
0
 10
4740.4476974545468693
 20
507.6693879163821066
 30
0.0
 40
0.1181102363707147
 50
90.0000000828031261
 51
179.9999999656951957
  0
ARC
  5
197B4
  8
0
 10
4740.7626580844480486
 20
507.8662383100821103
 30
0.0
 40
0.1181102363707183
 50
90.0000000828031261
 51
179.9999999656984073
  0
LINE
  5
197B5
  8
0
 10
4740.3295872181770392
 20
507.1969469714820775
 30
0.0
 11
4740.3295872181770392
 21
507.6693879163821066
 31
0.0
  0
LINE
  5
197B6
  8
0
 10
4740.644547848077309
 20
507.8662383100821103
 30
0.0
 11
4740.644547848077309
 21
507.7874981526820761
 31
0.0
  0
LINE
  5
197B7
  8
0
 10
4764.0303746197769215
 20
507.7874981526820761
 30
0.0
 11
4764.0303746197769215
 21
507.8662383100113971
 31
0.0
  0
LINE
  5
197B8
  8
0
 10
4740.7626580844480486
 20
507.9843485463821935
 30
0.0
 11
4763.9122643834061819
 21
507.9843485463821935
 31
0.0
  0
LINE
  5
197B9
  8
0
 10
4740.4476974545468693
 20
507.7874981526820761
 30
0.0
 11
4764.2272250133064517
 21
507.7874981526820761
 31
0.0
  0
ENDSEC
  0
EOF
