  0
SECTION
  2
HEADER
  9
$ACADVER
  1
AC1009
  9
$INSBASE
 10
4643.6993245078738255
 20
205.1660671639444047
 30
0.0
  9
$EXTMIN
 10
4627.6885709821781347
 20
205.1556879779741962
 30
-0.0000000000000058
  9
$EXTMAX
 10
4659.6830937666445607
 20
227.6081028493960048
 30
0.0000000000000104
  9
$LIMMIN
 10
0.0
 20
0.0
  9
$LIMMAX
 10
11.6929133858000007
 20
8.2677165353999982
  9
$ORTHOMODE
 70
     0
  9
$REGENMODE
 70
     1
  9
$FILLMODE
 70
     1
  9
$QTEXTMODE
 70
     0
  9
$MIRRTEXT
 70
     0
  9
$DRAGMODE
 70
     2
  9
$LTSCALE
 40
0.6431102362
  9
$OSMODE
 70
  4095
  9
$ATTMODE
 70
     1
  9
$TEXTSIZE
 40
0.2
  9
$TRACEWID
 40
0.05
  9
$TEXTSTYLE
  7
STANDARD
  9
$CLAYER
  8
0
  9
$CELTYPE
  6
BYLAYER
  9
$CECOLOR
 62
   256
  9
$DIMSCALE
 40
1.0
  9
$DIMASZ
 40
0.1875
  9
$DIMEXO
 40
0.0625
  9
$DIMDLI
 40
0.4443307087
  9
$DIMRND
 40
0.0
  9
$DIMDLE
 40
0.0
  9
$DIMEXE
 40
0.125
  9
$DIMTP
 40
0.01
  9
$DIMTM
 40
0.01
  9
$DIMTXT
 40
2.0
  9
$DIMCEN
 40
0.1052362205
  9
$DIMTSZ
 40
0.0
  9
$DIMTOL
 70
     1
  9
$DIMLIM
 70
     0
  9
$DIMTIH
 70
     1
  9
$DIMTOH
 70
     1
  9
$DIMSE1
 70
     0
  9
$DIMSE2
 70
     0
  9
$DIMTAD
 70
     0
  9
$DIMZIN
 70
     0
  9
$DIMBLK
  1

  9
$DIMASO
 70
     1
  9
$DIMSHO
 70
     1
  9
$DIMPOST
  1
\X
  9
$DIMAPOST
  1

  9
$DIMALT
 70
     1
  9
$DIMALTD
 70
     2
  9
$DIMALTF
 40
25.3999999999999986
  9
$DIMLFAC
 40
1.0
  9
$DIMTOFL
 70
     0
  9
$DIMTVP
 40
0.0
  9
$DIMTIX
 70
     0
  9
$DIMSOXD
 70
     0
  9
$DIMSAH
 70
     0
  9
$DIMBLK1
  1

  9
$DIMBLK2
  1

  9
$DIMSTYLE
  2
STANDARD
  9
$DIMCLRD
 70
     0
  9
$DIMCLRE
 70
     0
  9
$DIMCLRT
 70
     0
  9
$DIMTFAC
 40
1.0
  9
$DIMGAP
 40
0.09
  9
$LUNITS
 70
     2
  9
$LUPREC
 70
     4
  9
$SKETCHINC
 40
0.1
  9
$FILLETRAD
 40
0.0
  9
$AUNITS
 70
     0
  9
$AUPREC
 70
     0
  9
$MENU
  1
.
  9
$ELEVATION
 40
0.0
  9
$PELEVATION
 40
0.0
  9
$THICKNESS
 40
0.0
  9
$LIMCHECK
 70
     0
  9
$BLIPMODE
 70
     0
  9
$CHAMFERA
 40
0.0
  9
$CHAMFERB
 40
0.0
  9
$SKPOLY
 70
     0
  9
$TDCREATE
 40
2458060.468368056230247
  9
$TDUPDATE
 40
2459221.9349421299993992
  9
$TDINDWG
 40
0.6365001157
  9
$TDUSRTIMER
 40
0.6365001157
  9
$USRTIMER
 70
     1
  9
$ANGBASE
 50
0.0
  9
$ANGDIR
 70
     0
  9
$PDMODE
 70
     0
  9
$PDSIZE
 40
0.3125
  9
$PLINEWID
 40
0.0
  9
$COORDS
 70
     1
  9
$SPLFRAME
 70
     0
  9
$SPLINETYPE
 70
     6
  9
$SPLINESEGS
 70
     8
  9
$ATTDIA
 70
     1
  9
$ATTREQ
 70
     1
  9
$HANDLING
 70
     1
  9
$HANDSEED
  5
1272A
  9
$SURFTAB1
 70
     6
  9
$SURFTAB2
 70
     6
  9
$SURFTYPE
 70
     6
  9
$SURFU
 70
     6
  9
$SURFV
 70
     6
  9
$UCSNAME
  2

  9
$UCSORG
 10
0.0
 20
0.0
 30
0.0
  9
$UCSXDIR
 10
1.0
 20
0.0
 30
0.0
  9
$UCSYDIR
 10
0.0
 20
1.0
 30
0.0
  9
$PUCSNAME
  2

  9
$PUCSORG
 10
0.0
 20
0.0
 30
0.0
  9
$PUCSXDIR
 10
1.0
 20
0.0
 30
0.0
  9
$PUCSYDIR
 10
0.0
 20
1.0
 30
0.0
  9
$USERI1
 70
     0
  9
$USERI2
 70
     0
  9
$USERI3
 70
     0
  9
$USERI4
 70
     0
  9
$USERI5
 70
     0
  9
$USERR1
 40
0.0
  9
$USERR2
 40
0.0
  9
$USERR3
 40
0.0
  9
$USERR4
 40
0.0
  9
$USERR5
 40
0.0
  9
$WORLDVIEW
 70
     1
  9
$SHADEDGE
 70
     3
  9
$SHADEDIF
 70
    70
  9
$TILEMODE
 70
     1
  9
$MAXACTVP
 70
    64
  9
$PLIMCHECK
 70
     0
  9
$PEXTMIN
 10
1.0000000000000000E+20
 20
1.0000000000000000E+20
 30
1.0000000000000000E+20
  9
$PEXTMAX
 10
-1.0000000000000000E+20
 20
-1.0000000000000000E+20
 30
-1.0000000000000000E+20
  9
$PLIMMIN
 10
0.0
 20
0.0
  9
$PLIMMAX
 10
12.0
 20
9.0
  9
$UNITMODE
 70
     0
  9
$VISRETAIN
 70
     1
  9
$PLINEGEN
 70
     0
  9
$PSLTSCALE
 70
     1
  0
ENDSEC
  0
SECTION
  2
TABLES
  0
TABLE
  2
VPORT
 70
     1
  0
VPORT
  2
*ACTIVE
 70
     0
 10
0.0
 20
0.0
 11
1.0
 21
1.0
 12
482.1294358900368024
 22
-9.7289368006703398
 13
0.0
 23
0.0
 14
1.0
 24
1.0
 15
0.0
 25
0.0
 16
0.0
 26
0.0
 36
202.37134017897489
 17
4161.556396484375
 27
226.1108322143554972
 37
0.0
 40
22.7537895676824391
 41
2.8789237668161429
 42
50.0
 43
0.0
 44
0.0
 50
0.0
 51
0.0
 71
     0
 72
   100
 73
     1
 74
     1
 75
     0
 76
     0
 77
     0
 78
     0
  0
ENDTAB
  0
TABLE
  2
LTYPE
 70
     2
  0
LTYPE
  2
CONTINUOUS
 70
     0
  3
Solid line
 72
    65
 73
     0
 40
0.0
  0
LTYPE
  2
PHANTOM2
 70
     0
  3
___ _ _ ___ _ _ ___ _ _ ___ _ _
 72
    65
 73
     6
 40
1.25
 49
0.625
 49
-0.125
 49
0.125
 49
-0.125
 49
0.125
 49
-0.125
  0
ENDTAB
  0
TABLE
  2
LAYER
 70
     2
  0
LAYER
  2
0
 70
     0
 62
   255
  6
CONTINUOUS
  0
LAYER
  2
DEFPOINTS
 70
     0
 62
     7
  6
CONTINUOUS
  0
ENDTAB
  0
TABLE
  2
STYLE
 70
     1
  0
STYLE
  2
STANDARD
 70
     0
 40
0.0
 41
0.8
 50
0.0
 71
     0
 42
0.2
  3
txt
  4

  0
ENDTAB
  0
TABLE
  2
VIEW
 70
     0
  0
ENDTAB
  0
TABLE
  2
UCS
 70
     0
  0
ENDTAB
  0
TABLE
  2
APPID
 70
     9
  0
APPID
  2
ACAD
 70
     0
  0
APPID
  2
ACAD_MLEADERVER
 70
     0
  0
APPID
  2
ACAD_EXEMPT_FROM_CAD_STANDARDS
 70
     0
  0
APPID
  2
ACAD_NAV_VCDISPLAY
 70
     0
  0
APPID
  2
ACAECLAYERSTANDARD
 70
     0
  0
APPID
  2
ACCMTRANSPARENCY
 70
     0
  0
APPID
  2
ACAD_DSTYLE_DIMJAG
 70
     0
  0
APPID
  2
ACAD_DSTYLE_DIMTALN
 70
     0
  0
APPID
  2
ACDBATTR
 70
     0
  0
ENDTAB
  0
TABLE
  2
DIMSTYLE
 70
     1
  0
DIMSTYLE
  2
STANDARD
 70
     0
  3

  4

  5

  6

  7

 40
1.0
 41
0.1875
 42
0.0625
 43
0.38
 44
0.125
 45
0.0
 46
0.0
 47
0.01
 48
0.01
140
0.15625
141
0.09
142
0.0
143
25.3999999999999986
144
1.0
145
0.0
146
1.0
147
0.09
 71
     1
 72
     0
 73
     1
 74
     1
 75
     0
 76
     0
 77
     0
 78
     4
170
     0
171
     2
172
     0
173
     0
174
     0
175
     0
176
     0
177
     0
178
     0
  0
ENDTAB
  0
ENDSEC
  0
SECTION
  2
BLOCKS
  0
BLOCK
  8
0
  2
$MODEL_SPACE
 70
     0
 10
0.0
 20
0.0
 30
0.0
  3
$MODEL_SPACE
  1

  0
ENDBLK
  5
21
  8
0
  0
BLOCK
 67
     1
  8
0
  2
$PAPER_SPACE
 70
     0
 10
0.0
 20
0.0
 30
0.0
  3
$PAPER_SPACE
  1

  0
ENDBLK
  5
1D
 67
     1
  8
0
  0
ENDSEC
  0
SECTION
  2
ENTITIES
  0
ATTDEF
  5
3930
  8
DEFPOINTS
 10
4643.6957490599897937
 20
205.1700441409857092
 30
0.0
 40
0.001
  1
K-99015T
  3

  2
MODELNUMBER
 70
     0
1001
ACDBATTR
1070
     0
1070
     1
  0
ATTDEF
  5
3931
  8
DEFPOINTS
 10
4643.6957490599897937
 20
205.1683774743189872
 30
0.0
 40
0.001
  1
ALEUTIAN
  3

  2
TRADENAME
 70
     0
1001
ACDBATTR
1070
     0
1070
     1
  0
ATTDEF
  5
3932
  8
DEFPOINTS
 10
4643.6957490599897937
 20
205.1667108076522936
 30
0.0
 40
0.001
  1
BATH
  3

  2
PRODUCT
 70
     0
1001
ACDBATTR
1070
     0
1070
     1
  0
LINE
  5
12511
  8
0
 10
4627.9511010878450179
 20
225.9086026763444011
 30
0.0
 11
4659.4475479279044521
 21
225.9086026763444011
 31
0.0
  0
LINE
  5
12512
  8
0
 10
4628.2381527503557663
 20
227.5968808768988936
 30
0.0
 11
4659.1604962654300834
 21
227.5968808768988936
 31
0.0
  0
LINE
  5
12513
  8
0
 10
4628.0020966370148017
 20
227.3689241380236865
 30
0.0
 11
4627.9511010878450179
 21
225.9086026763444011
 31
0.0
  0
LINE
  5
12514
  8
0
 10
4659.3965523787719576
 20
227.3689241380176895
 30
0.0
 11
4659.4475479279044521
 21
225.9086026763444011
 31
0.0
  0
ARC
  5
12515
  8
0
 10
4659.1604962654300834
 20
227.3606808768988969
 30
0.0
 40
0.2362
 50
1.9999999994308979
 51
90.0
  0
ARC
  5
12516
  8
0
 10
4628.2381527503557663
 20
227.3606808768988969
 30
0.0
 40
0.2362
 50
90.0
 51
177.9999999991123047
  0
LINE
  5
12517
  8
0
 10
4651.3764898622248438
 20
205.1660671639444047
 30
0.0
 11
4649.4079859252251481
 21
205.1660671639444047
 31
0.0
  0
LINE
  5
12518
  8
0
 10
4641.5339701772236367
 20
205.1660671639444047
 30
0.0
 11
4639.5654662402248505
 21
205.1660671639444047
 31
0.0
  0
LINE
  5
12519
  8
0
 10
4637.9906630906243663
 20
205.1660671639444047
 30
0.0
 11
4636.0221591535246262
 21
205.1660671639444047
 31
0.0
  0
LINE
  5
1251A
  8
0
 10
4632.9207591531221624
 20
209.5888982425935865
 30
0.0
 11
4631.7558550460607876
 21
225.3830944198859072
 31
0.0
  0
ARC
  5
1251B
  8
0
 10
4635.5438817250742431
 20
210.0799939855168077
 30
0.0
 40
2.668697632966341
 50
190.6040454159017088
 51
227.83706356473391
  0
ARC
  5
1251C
  8
0
 10
4635.3841220979611535
 20
209.903574459699712
 30
0.0
 40
2.4306913566945978
 50
227.837063564733711
 51
263.681659788771185
  0
LINE
  5
1251D
  8
0
 10
4635.1166185116735505
 20
207.8042185547018903
 30
0.0
 11
4635.1166185116735505
 21
207.151133863749692
 31
0.0
  0
ARC
  5
1251E
  8
0
 10
4636.7177917653853001
 20
178.6449493543181859
 30
0.0
 40
29.2031973607000488
 50
88.4376122633553337
 51
93.1430290212485801
  0
ARC
  5
1251F
  8
0
 10
4644.6849381945457935
 20
470.7431933025616786
 30
0.0
 40
263.0036806211011253
 50
268.4376122633552768
 51
271.3834339561078082
  0
ARC
  5
12520
  8
0
 10
4651.2408256427461311
 20
196.0827023467078902
 30
0.0
 40
11.7352836338151594
 50
84.7169350250590441
 51
91.0065730410003653
  0
LINE
  5
12521
  8
0
 10
4652.3213668473235884
 20
206.6803163792629903
 30
0.0
 11
4652.3213668473235884
 21
207.7681339891234131
 31
0.0
  0
LINE
  5
12522
  8
0
 10
4652.3213668473235884
 20
206.6803163792629903
 30
0.0
 11
4651.3764898622248438
 21
206.6473205478743012
 31
0.0
  0
LINE
  5
12523
  8
0
 10
4649.4079859252251481
 20
206.5785788756593888
 30
0.0
 11
4647.4394819882236334
 21
206.5098372034443912
 31
0.0
  0
LINE
  5
12524
  8
0
 10
4647.4394819882236334
 20
206.5098372034443912
 30
0.0
 11
4643.5024741142251514
 21
206.5098372034443912
 31
0.0
  0
LINE
  5
12525
  8
0
 10
4643.5024741142251514
 20
206.5098372034443912
 30
0.0
 11
4641.5339701772236367
 21
206.5785788756616057
 31
0.0
  0
LINE
  5
12526
  8
0
 10
4639.5654662402248505
 20
206.6473205478787918
 30
0.0
 11
4638.620584350424906
 21
206.6803165505444042
 31
0.0
  0
LINE
  5
12527
  8
0
 10
4638.620584350424906
 20
206.6803165505444042
 30
0.0
 11
4638.6205947951239068
 21
206.8565453919590027
 31
0.0
  0
ARC
  5
12528
  8
0
 10
4635.2344608578987391
 20
207.5232402866963071
 30
0.0
 40
0.3903203921931074
 50
252.4275313296809884
 51
265.0642432798131267
  0
ARC
  5
12529
  8
0
 10
4636.8006164504677145
 20
225.6586607569765022
 30
0.0
 40
18.5932410087863182
 50
265.0642432798131267
 51
267.6004528447031134
  0
ARC
  5
1252A
  8
0
 10
4637.8765381899356726
 20
203.6323441257646039
 30
0.0
 40
3.3480482864478911
 50
78.0716642411955348
 51
88.0465807156269165
  0
ARC
  5
1252B
  8
0
 10
4638.5545609345763296
 20
206.8419250062750052
 30
0.0
 40
0.0676330275535107
 50
12.4843114029018505
 51
78.0716642411956201
  0
ARC
  5
1252C
  8
0
 10
4652.3281148364767432
 20
207.5872107315188941
 30
0.0
 40
0.5522585566021069
 50
269.5929244568671947
 51
273.9608476680897979
  0
ARC
  5
1252D
  8
0
 10
4652.2168518571779714
 20
209.1941245420885025
 30
0.0
 40
2.1630196950586331
 50
273.9608476680897979
 51
318.7998597525123046
  0
ARC
  5
1252E
  8
0
 10
4650.898501355796725
 20
209.896539586027103
 30
0.0
 40
3.6335697019006559
 50
324.1670819261652241
 51
351.2936225416121943
  0
LINE
  5
1252F
  8
0
 10
4654.4902015946254323
 20
209.34652306538419
 30
0.0
 11
4655.629085924582796
 21
220.0956591153478996
 31
0.0
  0
LINE
  5
12530
  8
0
 10
4636.0221591535246262
 20
207.4363477094817938
 30
0.0
 11
4636.0221591535246262
 21
205.1660671639444047
 31
0.0
  0
LINE
  5
12531
  8
0
 10
4637.9906630906243663
 20
207.4157116178797082
 30
0.0
 11
4637.9906630906243663
 21
205.1660671639444047
 31
0.0
  0
LINE
  5
12532
  8
0
 10
4639.5654662402248505
 20
206.7228735683864898
 30
0.0
 11
4639.5654662402248505
 21
205.1660671639444047
 31
0.0
  0
LINE
  5
12533
  8
0
 10
4641.5339701772236367
 20
206.6772560113874135
 30
0.0
 11
4641.5339701772236367
 21
205.1660671639444047
 31
0.0
  0
LINE
  5
12534
  8
0
 10
4649.4079859252251481
 20
207.3912394641452863
 30
0.0
 11
4649.4079859252251481
 21
205.1660671639444047
 31
0.0
  0
LINE
  5
12535
  8
0
 10
4651.3764898622248438
 20
205.1660671639444047
 30
0.0
 11
4651.3764898622248438
 21
207.4024312936955994
 31
0.0
  0
ARC
  5
12536
  8
0
 10
4650.4756717786422087
 20
192.7218503641674943
 30
0.0
 40
14.7081926029892607
 50
86.4886646723391124
 51
94.162832819817524
  0
ARC
  5
12537
  8
0
 10
4640.1298303971843779
 20
188.5809267981024107
 30
0.0
 40
18.1507228373472813
 50
85.5631659847317536
 51
91.7817966341642659
  0
ARC
  5
12538
  8
0
 10
4636.8524164304253645
 20
192.7362733547467997
 30
0.0
 40
14.7235020692176803
 50
85.5661454360915741
 51
93.232619836633333
  0
LINE
  5
12539
  8
0
 10
4646.7443139384758979
 20
206.386539604944403
 30
0.0
 11
4644.1976421639719774
 21
206.386539604944403
 31
0.0
  0
LINE
  5
1253A
  8
0
 10
4643.9749035282566183
 20
206.4788009685117913
 30
0.0
 11
4643.9438672932237751
 21
206.5098372034443912
 31
0.0
  0
LINE
  5
1253B
  8
0
 10
4646.9670525745514169
 20
206.4788009688707859
 30
0.0
 11
4646.9980888091249653
 21
206.5098372034443912
 31
0.0
  0
ARC
  5
1253C
  8
0
 10
4646.7443139384758979
 20
206.7015396049444007
 30
0.0
 40
0.315
 50
270.0
 51
315.0000000000172236
  0
ARC
  5
1253D
  8
0
 10
4644.1976421639719774
 20
206.7015396049444007
 30
0.0
 40
0.315
 50
225.0000000923153038
 51
270.0
  0
LINE
  5
1253E
  8
0
 10
4656.821049489923098
 20
220.1660671639444047
 30
0.0
 11
4655.70734787920901
 21
220.1660671639444047
 31
0.0
  0
LINE
  5
1253F
  8
0
 10
4657.6808850450233876
 20
225.9086026763444011
 30
0.0
 11
4657.4442914573573944
 21
220.7613199995435025
 31
0.0
  0
ARC
  5
12540
  8
0
 10
4656.821049489923098
 20
220.7899671639443966
 30
0.0
 40
0.6239
 50
270.0
 51
357.3682658897704982
  0
ARC
  5
12541
  8
0
 10
4655.70734787920901
 20
220.0873671639444069
 30
0.0
 40
0.0787
 50
90.0
 51
173.952004494424699
  0
LINE
  5
12542
  8
0
 10
4630.4803506433490838
 20
225.4799208711762049
 30
0.0
 11
4631.6789392400587531
 21
225.455989927576212
 31
0.0
  0
ARC
  5
12543
  8
0
 10
4630.5209865905753759
 20
226.1049936117161963
 30
0.0
 40
0.6263922183210008
 50
198.2719190168668035
 51
266.2804383677333249
  0
ARC
  5
12544
  8
0
 10
4631.6773682339708103
 20
225.3773056093172897
 30
0.0
 40
0.0787
 50
4.218223967855236
 51
88.8561880876907964
  0
ARC
  5
12545
  8
0
 10
4645.4085261749542042
 20
220.0398443105742956
 30
0.0
 40
10.2207121517118793
 50
0.3128909801493765
 51
4.8070682596811318
  0
ARC
  5
12546
  8
0
 10
4662.2194835893924392
 20
221.4633401553574004
 30
0.0
 40
6.6504103579129117
 50
181.1511945769013892
 51
184.8907880991511092
  0
ARC
  5
12547
  8
0
 10
4823.6335987811171435
 20
220.6480263922630058
 30
0.0
 40
168.0645657913910895
 50
178.3770913019592115
 51
179.7675967966027883
  0
ARC
  5
12548
  8
0
 10
4655.7145067631317943
 20
225.4032989164199989
 30
0.0
 40
0.0781899496075836
 50
96.2252484594542921
 51
176.6738063797336054
  0
ARC
  5
12549
  8
0
 10
4656.8700977419248375
 20
226.110949053744406
 30
0.0
 40
0.629921259799985
 50
270.0000000273058163
 51
341.2629837403803776
  0
LINE
  5
1254A
  8
0
 10
4656.8700977419248375
 20
225.4810277939444063
 30
0.0
 11
4655.7060280462574156
 21
225.4810277939444063
 31
0.0
  0
ARC
  5
12550
  8
0
 10
4627.5696498327761219
 20
223.8636087962883892
 30
0.0
 40
3.1087871500230082
 50
18.1100490358141712
 51
34.0230159935520717
  0
ARC
  5
12551
  8
0
 10
4730.5454006919480889
 20
257.5412636545012219
 30
0.0
 40
105.2341392538693015
 50
198.110049035814086
 51
198.9334894292865954
  0
ARC
  5
12552
  8
0
 10
4651.5622292349980853
 20
230.4476921387455945
 30
0.0
 40
21.7332231458565097
 50
198.9334894292865954
 51
204.5593681020793895
  0
ARC
  5
12553
  8
0
 10
4632.9485728290837869
 20
221.941656674296496
 30
0.0
 40
1.268110292029047
 50
204.5593681020793895
 51
226.6244085729439064
  0
ENDSEC
  0
EOF
