  0
SECTION
  2
HEADER
  9
$ACADVER
  1
AC1009
  9
$INSBASE
 10
4837.2275324715437819
 20
186.6546557245069096
 30
0.0
  9
$EXTMIN
 10
4821.2959384190071432
 20
186.6496934466981088
 30
-0.0000000000112498
  9
$EXTMAX
 10
4853.1377532624337618
 20
209.1122361694750111
 30
0.0000000000002956
  9
$LIMMIN
 10
0.0
 20
0.0
  9
$LIMMAX
 10
11.6929133858000007
 20
8.2677165353999982
  9
$ORTHOMODE
 70
     0
  9
$REGENMODE
 70
     1
  9
$FILLMODE
 70
     1
  9
$QTEXTMODE
 70
     0
  9
$MIRRTEXT
 70
     0
  9
$DRAGMODE
 70
     2
  9
$LTSCALE
 40
0.6431102362
  9
$OSMODE
 70
  4095
  9
$ATTMODE
 70
     1
  9
$TEXTSIZE
 40
0.2
  9
$TRACEWID
 40
0.05
  9
$TEXTSTYLE
  7
STANDARD
  9
$CLAYER
  8
0
  9
$CELTYPE
  6
BYLAYER
  9
$CECOLOR
 62
   256
  9
$DIMSCALE
 40
1.0
  9
$DIMASZ
 40
0.1875
  9
$DIMEXO
 40
0.0625
  9
$DIMDLI
 40
0.4443307087
  9
$DIMRND
 40
0.0
  9
$DIMDLE
 40
0.0
  9
$DIMEXE
 40
0.125
  9
$DIMTP
 40
0.01
  9
$DIMTM
 40
0.01
  9
$DIMTXT
 40
2.0
  9
$DIMCEN
 40
0.1052362205
  9
$DIMTSZ
 40
0.0
  9
$DIMTOL
 70
     1
  9
$DIMLIM
 70
     0
  9
$DIMTIH
 70
     1
  9
$DIMTOH
 70
     1
  9
$DIMSE1
 70
     0
  9
$DIMSE2
 70
     0
  9
$DIMTAD
 70
     0
  9
$DIMZIN
 70
     0
  9
$DIMBLK
  1

  9
$DIMASO
 70
     1
  9
$DIMSHO
 70
     1
  9
$DIMPOST
  1
\X
  9
$DIMAPOST
  1

  9
$DIMALT
 70
     1
  9
$DIMALTD
 70
     2
  9
$DIMALTF
 40
25.3999999999999986
  9
$DIMLFAC
 40
1.0
  9
$DIMTOFL
 70
     0
  9
$DIMTVP
 40
0.0
  9
$DIMTIX
 70
     0
  9
$DIMSOXD
 70
     0
  9
$DIMSAH
 70
     0
  9
$DIMBLK1
  1

  9
$DIMBLK2
  1

  9
$DIMSTYLE
  2
STANDARD
  9
$DIMCLRD
 70
     0
  9
$DIMCLRE
 70
     0
  9
$DIMCLRT
 70
     0
  9
$DIMTFAC
 40
1.0
  9
$DIMGAP
 40
0.09
  9
$LUNITS
 70
     2
  9
$LUPREC
 70
     4
  9
$SKETCHINC
 40
0.1
  9
$FILLETRAD
 40
0.0
  9
$AUNITS
 70
     0
  9
$AUPREC
 70
     0
  9
$MENU
  1
.
  9
$ELEVATION
 40
0.0
  9
$PELEVATION
 40
0.0
  9
$THICKNESS
 40
0.0
  9
$LIMCHECK
 70
     0
  9
$BLIPMODE
 70
     0
  9
$CHAMFERA
 40
0.0
  9
$CHAMFERB
 40
0.0
  9
$SKPOLY
 70
     0
  9
$TDCREATE
 40
2458060.468368056230247
  9
$TDUPDATE
 40
2459265.5864236108027399
  9
$TDINDWG
 40
0.6431552082999999
  9
$TDUSRTIMER
 40
0.6431552082999999
  9
$USRTIMER
 70
     1
  9
$ANGBASE
 50
0.0
  9
$ANGDIR
 70
     0
  9
$PDMODE
 70
     0
  9
$PDSIZE
 40
0.3125
  9
$PLINEWID
 40
0.0
  9
$COORDS
 70
     1
  9
$SPLFRAME
 70
     0
  9
$SPLINETYPE
 70
     6
  9
$SPLINESEGS
 70
     8
  9
$ATTDIA
 70
     1
  9
$ATTREQ
 70
     1
  9
$HANDLING
 70
     1
  9
$HANDSEED
  5
128DE
  9
$SURFTAB1
 70
     6
  9
$SURFTAB2
 70
     6
  9
$SURFTYPE
 70
     6
  9
$SURFU
 70
     6
  9
$SURFV
 70
     6
  9
$UCSNAME
  2

  9
$UCSORG
 10
0.0
 20
0.0
 30
0.0
  9
$UCSXDIR
 10
1.0
 20
0.0
 30
0.0
  9
$UCSYDIR
 10
0.0
 20
1.0
 30
0.0
  9
$PUCSNAME
  2

  9
$PUCSORG
 10
0.0
 20
0.0
 30
0.0
  9
$PUCSXDIR
 10
1.0
 20
0.0
 30
0.0
  9
$PUCSYDIR
 10
0.0
 20
1.0
 30
0.0
  9
$USERI1
 70
     0
  9
$USERI2
 70
     0
  9
$USERI3
 70
     0
  9
$USERI4
 70
     0
  9
$USERI5
 70
     0
  9
$USERR1
 40
0.0
  9
$USERR2
 40
0.0
  9
$USERR3
 40
0.0
  9
$USERR4
 40
0.0
  9
$USERR5
 40
0.0
  9
$WORLDVIEW
 70
     1
  9
$SHADEDGE
 70
     3
  9
$SHADEDIF
 70
    70
  9
$TILEMODE
 70
     1
  9
$MAXACTVP
 70
    64
  9
$PLIMCHECK
 70
     0
  9
$PEXTMIN
 10
1.0000000000000000E+20
 20
1.0000000000000000E+20
 30
1.0000000000000000E+20
  9
$PEXTMAX
 10
-1.0000000000000000E+20
 20
-1.0000000000000000E+20
 30
-1.0000000000000000E+20
  9
$PLIMMIN
 10
0.0
 20
0.0
  9
$PLIMMAX
 10
12.0
 20
9.0
  9
$UNITMODE
 70
     0
  9
$VISRETAIN
 70
     1
  9
$PLINEGEN
 70
     0
  9
$PSLTSCALE
 70
     1
  0
ENDSEC
  0
SECTION
  2
TABLES
  0
TABLE
  2
VPORT
 70
     1
  0
VPORT
  2
*ACTIVE
 70
     0
 10
0.0
 20
0.0
 11
1.0
 21
1.0
 12
675.6604493563454525
 22
-28.2298674062688484
 13
0.0
 23
0.0
 14
1.0
 24
1.0
 15
0.0
 25
0.0
 16
0.0
 26
0.0
 36
202.37134017897489
 17
4161.556396484375
 27
226.1108322143554972
 37
0.0
 40
22.7517600110530012
 41
2.4365591397849462
 42
50.0
 43
0.0
 44
0.0
 50
0.0
 51
0.0
 71
     0
 72
   100
 73
     1
 74
     1
 75
     0
 76
     0
 77
     0
 78
     0
  0
ENDTAB
  0
TABLE
  2
LTYPE
 70
     3
  0
LTYPE
  2
CONTINUOUS
 70
     0
  3
Solid line
 72
    65
 73
     0
 40
0.0
  0
LTYPE
  2
PHANTOM2
 70
     0
  3
___ _ _ ___ _ _ ___ _ _ ___ _ _
 72
    65
 73
     6
 40
1.25
 49
0.625
 49
-0.125
 49
0.125
 49
-0.125
 49
0.125
 49
-0.125
  0
ENDTAB
  0
TABLE
  2
LAYER
 70
     2
  0
LAYER
  2
0
 70
     0
 62
   255
  6
CONTINUOUS
  0
LAYER
  2
DEFPOINTS
 70
     0
 62
     7
  6
CONTINUOUS
  0
ENDTAB
  0
TABLE
  2
STYLE
 70
     1
  0
STYLE
  2
STANDARD
 70
     0
 40
0.0
 41
0.8
 50
0.0
 71
     0
 42
0.2
  3
txt
  4

  0
ENDTAB
  0
TABLE
  2
VIEW
 70
     0
  0
ENDTAB
  0
TABLE
  2
UCS
 70
     0
  0
ENDTAB
  0
TABLE
  2
APPID
 70
     9
  0
APPID
  2
ACAD
 70
     0
  0
APPID
  2
ACAD_MLEADERVER
 70
     0
  0
APPID
  2
ACAD_EXEMPT_FROM_CAD_STANDARDS
 70
     0
  0
APPID
  2
ACAD_NAV_VCDISPLAY
 70
     0
  0
APPID
  2
ACAECLAYERSTANDARD
 70
     0
  0
APPID
  2
ACCMTRANSPARENCY
 70
     0
  0
APPID
  2
ACAD_DSTYLE_DIMJAG
 70
     0
  0
APPID
  2
ACAD_DSTYLE_DIMTALN
 70
     0
  0
APPID
  2
ACDBATTR
 70
     0
  0
ENDTAB
  0
TABLE
  2
DIMSTYLE
 70
     2
  0
DIMSTYLE
  2
STANDARD
 70
     0
  3

  4

  5

  6

  7

 40
1.0
 41
0.1875
 42
0.0625
 43
0.38
 44
0.125
 45
0.0
 46
0.0
 47
0.01
 48
0.01
140
0.15625
141
0.09
142
0.0
143
25.3999999999999986
144
1.0
145
0.0
146
1.0
147
0.09
 71
     1
 72
     0
 73
     1
 74
     1
 75
     0
 76
     0
 77
     0
 78
     4
170
     0
171
     2
172
     0
173
     0
174
     0
175
     0
176
     0
177
     0
178
     0
  0
ENDTAB
  0
ENDSEC
  0
SECTION
  2
BLOCKS
  0
BLOCK
  8
0
  2
$MODEL_SPACE
 70
     0
 10
0.0
 20
0.0
 30
0.0
  3
$MODEL_SPACE
  1

  0
ENDBLK
  5
21
  8
0
  0
BLOCK
 67
     1
  8
0
  2
$PAPER_SPACE
 70
     0
 10
0.0
 20
0.0
 30
0.0
  3
$PAPER_SPACE
  1

  0
ENDBLK
  5
1D
 67
     1
  8
0
  0
ENDSEC
  0
SECTION
  2
ENTITIES
  0
ATTDEF
  5
3930
  8
DEFPOINTS
 10
4837.2222021524321462
 20
186.6638688978738116
 30
0.0
 40
0.001
  1
K-99021T
  3

  2
MODELNUMBER
 70
     0
1001
ACDBATTR
1070
     0
1070
     1
  0
ATTDEF
  5
3931
  8
DEFPOINTS
 10
4837.2222021524321462
 20
186.6622022312070897
 30
0.0
 40
0.001
  1
ALEUTIAN
  3

  2
TRADENAME
 70
     0
1001
ACDBATTR
1070
     0
1070
     1
  0
ATTDEF
  5
3932
  8
DEFPOINTS
 10
4837.2222021524321462
 20
186.6605355645405098
 30
0.0
 40
0.001
  1
BATH
  3

  2
PRODUCT
 70
     0
1001
ACDBATTR
1070
     0
1070
     1
  0
LINE
  5
1270B
  8
0
 10
4852.68870503861217
 20
209.1002362805932933
 30
0.0
 11
4821.7663599044572038
 21
209.1002362805932933
 31
0.0
  0
LINE
  5
1270C
  8
0
 10
4821.4795009801409833
 20
207.4174773799105083
 30
0.0
 11
4852.9755639629483994
 21
207.4174773799105083
 31
0.0
  0
LINE
  5
1270D
  8
0
 10
4826.603612282227914
 20
190.6244158925748877
 30
0.0
 11
4825.2791366083538378
 21
206.984406379306904
 31
0.0
  0
LINE
  5
1270E
  8
0
 10
4821.5303037911162392
 20
208.8722795417185978
 30
0.0
 11
4821.4795009801409833
 21
207.4174773799105083
 31
0.0
  0
LINE
  5
1270F
  8
0
 10
4852.9247611519549537
 20
208.8722795417214115
 30
0.0
 11
4852.9755639629483994
 21
207.4174773799105083
 31
0.0
  0
ARC
  5
12710
  8
0
 10
4852.68870503861217
 20
208.8640362805932114
 30
0.0
 40
0.2362
 50
2.0000000017097141
 51
90.0
  0
ARC
  5
12711
  8
0
 10
4821.7663599044572038
 20
208.8640362805932114
 30
0.0
 40
0.2362
 50
90.0
 51
177.9999999989688888
  0
ARC
  5
12712
  8
0
 10
4828.4598750884661058
 20
-3896.647071730827065
 30
0.0
 40
4086.0591021839481982
 50
89.7495315794364359
 51
90.0018230585235557
  0
ARC
  5
12713
  8
0
 10
4828.4666770138510401
 20
191.7729876984845134
 30
0.0
 40
2.834340500154223
 50
260.0439028186027031
 51
266.8831673885482019
  0
ARC
  5
12714
  8
0
 10
4828.1882583132419313
 20
190.1868908819162129
 30
0.0
 40
1.223992685433076
 50
229.8012607532621132
 51
260.0439028186027031
  0
ARC
  5
12715
  8
0
 10
4829.0294368201421094
 20
191.1823356531583045
 30
0.0
 40
2.527254582775456
 50
211.210877883383688
 51
229.8012607532621132
  0
ARC
  5
12716
  8
0
 10
4828.6448568253808844
 20
190.9193702123561138
 30
0.0
 40
2.0622296784419452
 50
194.7524837978031087
 51
210.4990457948746041
  0
ARC
  5
12717
  8
0
 10
4828.6887557222153191
 20
190.9302579507875066
 30
0.0
 40
2.1074540398065129
 50
188.3444570192887113
 51
194.7348185887790919
  0
ARC
  5
1271A
  8
0
 10
4830.9113494032990275
 20
181.4409081195477995
 30
0.0
 40
7.0007371754032306
 50
79.1635339577008494
 51
87.2823744213699371
  0
ARC
  5
1271B
  8
0
 10
38609.945508018390683
 20
967450.6236306891078129
 30
0.0
 40
967852.0282788418699056
 50
267.9999899711659168
 51
268.0000576016482796
  0
ARC
  5
1271C
  8
0
 10
38609.945508018390683
 20
967450.6236306891078129
 30
0.0
 40
967852.0282788418699056
 50
268.0001742059483831
 51
268.0002871661951076
  0
ARC
  5
1271D
  8
0
 10
4655.4826147917719936
 20
5595.7375638399144009
 30
0.0
 40
5410.9134327723622846
 50
271.9679033644571859
 51
271.9882499115755081
  0
LINE
  5
1271F
  8
0
 10
4829.2747766028442129
 20
189.010974247095703
 30
0.0
 11
4829.2747768821445788
 21
186.6546557245069096
 31
0.0
  0
LINE
  5
12720
  8
0
 10
4829.2747768821445788
 20
186.6546557245069096
 30
0.0
 11
4831.243280503043934
 21
186.6546557245069096
 31
0.0
  0
LINE
  5
12721
  8
0
 10
4831.243280503043934
 20
186.6546557245069096
 30
0.0
 11
4831.2432804662439594
 21
188.9904791289069124
 31
0.0
  0
LINE
  5
12722
  8
0
 10
4833.3692647550442416
 20
188.3254518472170957
 30
0.0
 11
4833.3692650710454473
 21
186.6546557245069096
 31
0.0
  0
LINE
  5
12723
  8
0
 10
4833.3692650710454473
 20
186.6546557245069096
 30
0.0
 11
4835.3377683759454158
 21
186.6546557245069096
 31
0.0
  0
LINE
  5
12724
  8
0
 10
4835.3377683759454158
 20
186.6546557245069096
 30
0.0
 11
4835.3377686920439373
 21
188.2930669247585058
 31
0.0
  0
LINE
  5
12725
  8
0
 10
4843.2117844768463328
 20
188.9615619256396997
 30
0.0
 11
4843.2117844400436297
 21
186.6546557245069096
 31
0.0
  0
LINE
  5
12726
  8
0
 10
4843.2117844400436297
 20
186.6546557245069096
 30
0.0
 11
4845.1802883770442349
 21
186.6546556931043881
 31
0.0
  0
LINE
  5
12727
  8
0
 10
4845.1802883770442349
 20
186.6546556931043881
 30
0.0
 11
4845.1802883398004269
 21
189.0010183090163878
 31
0.0
  0
LINE
  5
12728
  8
0
 10
4841.2914370702028464
 20
188.0153762160068993
 30
0.0
 11
4837.244753983960436
 21
188.0153762160068993
 31
0.0
  0
LINE
  5
12729
  8
0
 10
4837.3086738428282843
 20
187.9535096741068969
 30
0.0
 11
4837.246807300927685
 21
188.0153762160068993
 31
0.0
  0
LINE
  5
1272A
  8
0
 10
4837.3086738428282843
 20
187.9535096741068969
 30
0.0
 11
4841.2456817169277201
 21
187.9535096741068969
 31
0.0
  0
LINE
  5
1272B
  8
0
 10
4841.2456817169277201
 20
187.9535096741068969
 30
0.0
 11
4841.3081215621623414
 21
188.0159495193402961
 31
0.0
  0
LINE
  5
1272C
  8
0
 10
4840.5505299747283061
 20
187.8899181903069007
 30
0.0
 11
4838.0038255849276538
 21
187.8899181903069007
 31
0.0
  0
ARC
  5
1272D
  8
0
 10
4840.5505299747283061
 20
188.2048788202068863
 30
0.0
 40
0.314960629900014
 50
270.0
 51
307.051234733485785
  0
ARC
  5
1272E
  8
0
 10
4838.0038255849276538
 20
188.2048788202068863
 30
0.0
 40
0.3149606298999903
 50
232.9487652665133055
 51
270.0
  0
LINE
  5
1272F
  8
0
 10
4846.3220198874951166
 20
188.1905692758255952
 30
0.0
 11
4846.3220198874951166
 21
189.3729882203560919
 31
0.0
  0
LINE
  5
12730
  8
0
 10
4828.3298633330450684
 20
188.6160957454962954
 30
0.0
 11
4828.3298633330450684
 21
189.4120283847396138
 31
0.0
  0
ARC
  5
12731
  8
0
 10
4844.8041145840470563
 20
158.6438862435927888
 30
0.0
 40
30.3594626752860393
 50
89.2900493549380343
 51
93.0064984042777354
  0
ARC
  5
12732
  8
0
 10
4834.0833229817199026
 20
171.8856460451150099
 30
0.0
 40
16.4553059516349194
 50
85.6278999188226493
 51
92.4870624459540238
  0
ARC
  5
12733
  8
0
 10
4830.1025834925776508
 20
173.9745791594774005
 30
0.0
 40
15.0591647005284699
 50
85.6558158710125355
 51
93.1511548779498781
  0
LINE
  5
12734
  8
0
 10
4832.2275331874361655
 20
188.3168066968572987
 30
0.0
 11
4832.2275331874361655
 21
188.190569277924709
 31
0.0
  0
LINE
  5
12735
  8
0
 10
4848.0358736359148679
 20
190.5149197706440134
 30
0.0
 11
4849.1582494017056888
 21
201.5986746095883859
 31
0.0
  0
LINE
  5
12736
  8
0
 10
4846.3220198874951166
 20
188.5451159649001909
 30
0.0
 11
4846.531459836304748
 21
188.5524869871397868
 31
0.0
  0
ARC
  5
12737
  8
0
 10
4846.4282193217613894
 20
189.6888420547577141
 30
0.0
 40
1.1410352507894559
 50
275.1912038350188254
 51
307.3428807624305819
  0
ARC
  5
12738
  8
0
 10
4845.9144616961675638
 20
190.3621993103793955
 30
0.0
 40
1.988004489636285
 50
307.3428807624305819
 51
325.5653274421816832
  0
ARC
  5
12739
  8
0
 10
4845.3672260201556128
 20
190.7373860183274985
 30
0.0
 40
2.651504264256026
 50
325.5653274421816832
 51
339.1811802325916005
  0
ARC
  5
1273A
  8
0
 10
4844.5245113033934103
 20
191.0578200948874894
 30
0.0
 40
3.5530840395792
 50
339.1811802325916005
 51
351.2109524464682977
  0
LINE
  5
1273B
  8
0
 10
4824.0042575956385917
 20
206.984406379306904
 30
0.0
 11
4825.2791366083547473
 21
206.984406379306904
 31
0.0
  0
ARC
  5
1273C
  8
0
 10
4824.0553869706991463
 20
207.6180919235281976
 30
0.0
 40
0.6357449032032394
 50
198.3945175973931043
 51
265.3870418016055055
  0
ARC
  5
1273D
  8
0
 10
4823.1797262229638363
 20
206.0592346589818931
 30
0.0
 40
1.239271841291163
 50
22.2537966008128798
 51
48.2919418053857186
  0
ARC
  5
1273E
  8
0
 10
5533.0653487917188613
 20
496.5360244430640932
 30
0.0
 40
765.7772615744466975
 50
202.2537966008121089
 51
202.4958612719715063
  0
LINE
  5
1273F
  8
0
 10
4850.3435269071223956
 20
201.6694457493069024
 30
0.0
 11
4849.2365489749781773
 21
201.6694457493069024
 31
0.0
  0
LINE
  5
12740
  8
0
 10
4851.2093456364145823
 20
207.4174773799105083
 30
0.0
 11
4850.9727625463046934
 21
202.270423087244211
 31
0.0
  0
ARC
  5
12741
  8
0
 10
4850.3435269071223956
 20
202.2993457493070082
 30
0.0
 40
0.6299000000000001
 50
270.0
 51
357.3682658890750758
  0
ARC
  5
12742
  8
0
 10
4849.2365489749781773
 20
201.5907457493069046
 30
0.0
 40
0.0787
 50
90.0
 51
174.217760096695514
  0
LINE
  5
12743
  8
0
 10
4849.1582494017056888
 20
201.5986746095883859
 30
0.0
 11
4849.1651033438693048
 21
206.9058080170003961
 31
0.0
  0
LINE
  5
12744
  8
0
 10
4850.3983057053183074
 20
206.984406379306904
 30
0.0
 11
4849.2438032782392838
 21
206.984406379306904
 31
0.0
  0
ARC
  5
12745
  8
0
 10
4850.3983057053183074
 20
207.6143276392911901
 30
0.0
 40
0.6299212600842418
 50
269.999999347528103
 51
341.7900560044636222
  0
ARC
  5
12746
  8
0
 10
4849.2438032782392838
 20
206.9057063793069062
 30
0.0
 40
0.0787
 50
90.0
 51
179.9260049238488079
  0
LINE
  5
1280E
  8
0
 10
4846.3220198874951166
 20
188.1905692758255952
 30
0.0
 11
4845.1961738825866632
 21
188.0991861667158105
 31
0.0
  0
LINE
  5
1280F
  8
0
 10
4828.3298633330450684
 20
188.6160957454962954
 30
0.0
 11
4829.2747766595875873
 21
188.5322571563513065
 31
0.0
  0
ENDSEC
  0
EOF
