  0
SECTION
  2
HEADER
  9
$ACADVER
  1
AC1009
  9
$INSBASE
 10
4626.6330999542524296
 20
205.5985678902933955
 30
0.0
  9
$EXTMIN
 10
4592.9445980449791023
 20
205.5919997133300967
 30
-0.0000000000112498
  9
$EXTMAX
 10
4660.3307774258346399
 20
231.2694818920899138
 30
0.0000000000002956
  9
$LIMMIN
 10
0.0
 20
0.0
  9
$LIMMAX
 10
11.6929133858000007
 20
8.2677165353999982
  9
$ORTHOMODE
 70
     0
  9
$REGENMODE
 70
     1
  9
$FILLMODE
 70
     1
  9
$QTEXTMODE
 70
     0
  9
$MIRRTEXT
 70
     0
  9
$DRAGMODE
 70
     2
  9
$LTSCALE
 40
0.6431102362
  9
$OSMODE
 70
  4095
  9
$ATTMODE
 70
     1
  9
$TEXTSIZE
 40
0.2
  9
$TRACEWID
 40
0.05
  9
$TEXTSTYLE
  7
STANDARD
  9
$CLAYER
  8
0
  9
$CELTYPE
  6
BYLAYER
  9
$CECOLOR
 62
   256
  9
$DIMSCALE
 40
1.0
  9
$DIMASZ
 40
0.1875
  9
$DIMEXO
 40
0.0625
  9
$DIMDLI
 40
0.4443307087
  9
$DIMRND
 40
0.0
  9
$DIMDLE
 40
0.0
  9
$DIMEXE
 40
0.125
  9
$DIMTP
 40
0.01
  9
$DIMTM
 40
0.01
  9
$DIMTXT
 40
2.0
  9
$DIMCEN
 40
0.1052362205
  9
$DIMTSZ
 40
0.0
  9
$DIMTOL
 70
     1
  9
$DIMLIM
 70
     0
  9
$DIMTIH
 70
     1
  9
$DIMTOH
 70
     1
  9
$DIMSE1
 70
     0
  9
$DIMSE2
 70
     0
  9
$DIMTAD
 70
     0
  9
$DIMZIN
 70
     0
  9
$DIMBLK
  1

  9
$DIMASO
 70
     1
  9
$DIMSHO
 70
     1
  9
$DIMPOST
  1
\X
  9
$DIMAPOST
  1

  9
$DIMALT
 70
     1
  9
$DIMALTD
 70
     2
  9
$DIMALTF
 40
25.3999999999999986
  9
$DIMLFAC
 40
1.0
  9
$DIMTOFL
 70
     0
  9
$DIMTVP
 40
0.0
  9
$DIMTIX
 70
     0
  9
$DIMSOXD
 70
     0
  9
$DIMSAH
 70
     0
  9
$DIMBLK1
  1

  9
$DIMBLK2
  1

  9
$DIMSTYLE
  2
STANDARD
  9
$DIMCLRD
 70
     0
  9
$DIMCLRE
 70
     0
  9
$DIMCLRT
 70
     0
  9
$DIMTFAC
 40
1.0
  9
$DIMGAP
 40
0.09
  9
$LUNITS
 70
     2
  9
$LUPREC
 70
     4
  9
$SKETCHINC
 40
0.1
  9
$FILLETRAD
 40
0.0
  9
$AUNITS
 70
     0
  9
$AUPREC
 70
     0
  9
$MENU
  1
.
  9
$ELEVATION
 40
0.0
  9
$PELEVATION
 40
0.0
  9
$THICKNESS
 40
0.0
  9
$LIMCHECK
 70
     0
  9
$BLIPMODE
 70
     0
  9
$CHAMFERA
 40
0.0
  9
$CHAMFERB
 40
0.0
  9
$SKPOLY
 70
     0
  9
$TDCREATE
 40
2458060.468368056230247
  9
$TDUPDATE
 40
2459265.8324421299621463
  9
$TDINDWG
 40
0.637796412
  9
$TDUSRTIMER
 40
0.637796412
  9
$USRTIMER
 70
     1
  9
$ANGBASE
 50
0.0
  9
$ANGDIR
 70
     0
  9
$PDMODE
 70
     0
  9
$PDSIZE
 40
0.3125
  9
$PLINEWID
 40
0.0
  9
$COORDS
 70
     1
  9
$SPLFRAME
 70
     0
  9
$SPLINETYPE
 70
     6
  9
$SPLINESEGS
 70
     8
  9
$ATTDIA
 70
     1
  9
$ATTREQ
 70
     1
  9
$HANDLING
 70
     1
  9
$HANDSEED
  5
12538
  9
$SURFTAB1
 70
     6
  9
$SURFTAB2
 70
     6
  9
$SURFTYPE
 70
     6
  9
$SURFU
 70
     6
  9
$SURFV
 70
     6
  9
$UCSNAME
  2

  9
$UCSORG
 10
0.0
 20
0.0
 30
0.0
  9
$UCSXDIR
 10
1.0
 20
0.0
 30
0.0
  9
$UCSYDIR
 10
0.0
 20
1.0
 30
0.0
  9
$PUCSNAME
  2

  9
$PUCSORG
 10
0.0
 20
0.0
 30
0.0
  9
$PUCSXDIR
 10
1.0
 20
0.0
 30
0.0
  9
$PUCSYDIR
 10
0.0
 20
1.0
 30
0.0
  9
$USERI1
 70
     0
  9
$USERI2
 70
     0
  9
$USERI3
 70
     0
  9
$USERI4
 70
     0
  9
$USERI5
 70
     0
  9
$USERR1
 40
0.0
  9
$USERR2
 40
0.0
  9
$USERR3
 40
0.0
  9
$USERR4
 40
0.0
  9
$USERR5
 40
0.0
  9
$WORLDVIEW
 70
     1
  9
$SHADEDGE
 70
     3
  9
$SHADEDIF
 70
    70
  9
$TILEMODE
 70
     1
  9
$MAXACTVP
 70
    64
  9
$PLIMCHECK
 70
     0
  9
$PEXTMIN
 10
1.0000000000000000E+20
 20
1.0000000000000000E+20
 30
1.0000000000000000E+20
  9
$PEXTMAX
 10
-1.0000000000000000E+20
 20
-1.0000000000000000E+20
 30
-1.0000000000000000E+20
  9
$PLIMMIN
 10
0.0
 20
0.0
  9
$PLIMMAX
 10
12.0
 20
9.0
  9
$UNITMODE
 70
     0
  9
$VISRETAIN
 70
     1
  9
$PLINEGEN
 70
     0
  9
$PSLTSCALE
 70
     1
  0
ENDSEC
  0
SECTION
  2
TABLES
  0
TABLE
  2
VPORT
 70
     1
  0
VPORT
  2
*ACTIVE
 70
     0
 10
0.0
 20
0.0
 11
1.0
 21
1.0
 12
465.0812912510319279
 22
-7.680091411645491
 13
0.0
 23
0.0
 14
1.0
 24
1.0
 15
0.0
 25
0.0
 16
0.0
 26
0.0
 36
202.37134017897489
 17
4161.556396484375
 27
226.1108322143554972
 37
0.0
 40
26.0686407054798508
 41
2.9182795698924728
 42
50.0
 43
0.0
 44
0.0
 50
0.0
 51
0.0
 71
     0
 72
   100
 73
     1
 74
     1
 75
     0
 76
     0
 77
     0
 78
     0
  0
ENDTAB
  0
TABLE
  2
LTYPE
 70
     2
  0
LTYPE
  2
CONTINUOUS
 70
     0
  3
Solid line
 72
    65
 73
     0
 40
0.0
  0
LTYPE
  2
PHANTOM2
 70
     0
  3
___ _ _ ___ _ _ ___ _ _ ___ _ _
 72
    65
 73
     6
 40
1.25
 49
0.625
 49
-0.125
 49
0.125
 49
-0.125
 49
0.125
 49
-0.125
  0
ENDTAB
  0
TABLE
  2
LAYER
 70
     2
  0
LAYER
  2
0
 70
     0
 62
   255
  6
CONTINUOUS
  0
LAYER
  2
DEFPOINTS
 70
     0
 62
     7
  6
CONTINUOUS
  0
ENDTAB
  0
TABLE
  2
STYLE
 70
     1
  0
STYLE
  2
STANDARD
 70
     0
 40
0.0
 41
0.8
 50
0.0
 71
     0
 42
0.2
  3
txt
  4

  0
ENDTAB
  0
TABLE
  2
VIEW
 70
     0
  0
ENDTAB
  0
TABLE
  2
UCS
 70
     0
  0
ENDTAB
  0
TABLE
  2
APPID
 70
     9
  0
APPID
  2
ACAD
 70
     0
  0
APPID
  2
ACAD_MLEADERVER
 70
     0
  0
APPID
  2
ACAD_EXEMPT_FROM_CAD_STANDARDS
 70
     0
  0
APPID
  2
ACAD_NAV_VCDISPLAY
 70
     0
  0
APPID
  2
ACAECLAYERSTANDARD
 70
     0
  0
APPID
  2
ACCMTRANSPARENCY
 70
     0
  0
APPID
  2
ACAD_DSTYLE_DIMJAG
 70
     0
  0
APPID
  2
ACAD_DSTYLE_DIMTALN
 70
     0
  0
APPID
  2
ACDBATTR
 70
     0
  0
ENDTAB
  0
TABLE
  2
DIMSTYLE
 70
     1
  0
DIMSTYLE
  2
STANDARD
 70
     0
  3

  4

  5

  6

  7

 40
1.0
 41
0.1875
 42
0.0625
 43
0.38
 44
0.125
 45
0.0
 46
0.0
 47
0.01
 48
0.01
140
0.15625
141
0.09
142
0.0
143
25.3999999999999986
144
1.0
145
0.0
146
1.0
147
0.09
 71
     1
 72
     0
 73
     1
 74
     1
 75
     0
 76
     0
 77
     0
 78
     4
170
     0
171
     2
172
     0
173
     0
174
     0
175
     0
176
     0
177
     0
178
     0
  0
ENDTAB
  0
ENDSEC
  0
SECTION
  2
BLOCKS
  0
BLOCK
  8
0
  2
$MODEL_SPACE
 70
     0
 10
0.0
 20
0.0
 30
0.0
  3
$MODEL_SPACE
  1

  0
ENDBLK
  5
21
  8
0
  0
BLOCK
 67
     1
  8
0
  2
$PAPER_SPACE
 70
     0
 10
0.0
 20
0.0
 30
0.0
  3
$PAPER_SPACE
  1

  0
ENDBLK
  5
1D
 67
     1
  8
0
  0
ENDSEC
  0
SECTION
  2
ENTITIES
  0
ATTDEF
  5
3930
  8
DEFPOINTS
 10
4626.6299433942731412
 20
205.6027137149100952
 30
0.0
 40
0.001
  1
K-99023T
  3

  2
MODELNUMBER
 70
     0
1001
ACDBATTR
1070
     0
1070
     1
  0
ATTDEF
  5
3931
  8
DEFPOINTS
 10
4626.6299433942731412
 20
205.6010470482434016
 30
0.0
 40
0.001
  1
ALEUTIAN
  3

  2
TRADENAME
 70
     0
1001
ACDBATTR
1070
     0
1070
     1
  0
ATTDEF
  5
3932
  8
DEFPOINTS
 10
4626.6299433942731412
 20
205.5993803815767933
 30
0.0
 40
0.001
  1
BATH
  3

  2
PRODUCT
 70
     0
1001
ACDBATTR
1070
     0
1070
     1
  0
LINE
  5
123F7
  8
0
 10
4659.9780126568230116
 20
206.2296880483687005
 30
0.0
 11
4593.2881872516809381
 21
206.2296880483687005
 31
0.0
  0
ARC
  5
123F8
  8
0
 10
4594.4268559439760793
 20
206.1115880483687022
 30
0.0
 40
0.1181
 50
90.0
 51
180.0009459757089871
  0
LINE
  5
123F9
  8
0
 10
4659.7502644089454407
 20
231.258214808319309
 30
0.0
 11
4593.3978221213983488
 21
231.258214808319309
 31
0.0
  0
LINE
  5
123FA
  8
0
 10
4660.0371024227306407
 20
229.5761446808866992
 30
0.0
 11
4593.1109872495726449
 21
229.5761446808866992
 31
0.0
  0
LINE
  5
123FB
  8
0
 10
4593.1109872516799442
 20
229.3989446808867001
 30
0.0
 11
4593.1109872516799442
 21
206.4068880483686996
 31
0.0
  0
LINE
  5
123FC
  8
0
 10
4660.155212656823096
 20
229.3989446808867001
 30
0.0
 11
4660.155212656823096
 21
206.4068880483686996
 31
0.0
  0
ARC
  5
123FD
  8
0
 10
4659.9780126568230116
 20
229.3989446808867001
 30
0.0
 40
0.1772
 50
0.0
 51
90.0
  0
ARC
  5
123FE
  8
0
 10
4659.9780126568230116
 20
206.4068880483686996
 30
0.0
 40
0.1772
 50
270.0
 51
359.9999999999984084
  0
ARC
  5
123FF
  8
0
 10
4593.2881872516809381
 20
206.4068880483686996
 30
0.0
 40
0.1772
 50
180.0
 51
270.0
  0
ARC
  5
12400
  8
0
 10
4593.2881872516809381
 20
229.3989446808867001
 30
0.0
 40
0.1772
 50
90.0
 51
179.9999999999984084
  0
LINE
  5
12401
  8
0
 10
4659.986320504496689
 20
231.0302585788793124
 30
0.0
 11
4660.0371024227306407
 21
229.5761446808866992
 31
0.0
  0
ARC
  5
12402
  8
0
 10
4659.7502644089454407
 20
231.0220148083193124
 30
0.0
 40
0.2362
 50
2.0001236515130159
 51
90.0
  0
LINE
  5
12403
  8
0
 10
4593.1617660080546557
 20
231.0302580694446988
 30
0.0
 11
4593.1109872495726449
 21
229.5761446808866992
 31
0.0
  0
ARC
  5
12404
  8
0
 10
4593.3978221213983488
 20
231.0220148083193124
 30
0.0
 40
0.2362
 50
90.0
 51
177.9999999989705088
  0
LINE
  5
12405
  8
0
 10
4596.2759594479957741
 20
227.265265458398602
 30
0.0
 11
4596.2759594479957741
 21
211.9777673311986064
 31
0.0
  0
LINE
  5
12406
  8
0
 10
4622.5444402522543896
 20
227.2652654583891945
 30
0.0
 11
4622.5444402522543896
 21
211.9777673311891988
 31
0.0
  0
LINE
  5
12407
  8
0
 10
4618.5046402522530116
 20
207.9379673311892134
 30
0.0
 11
4600.3157594479971522
 21
207.9379673311985925
 31
0.0
  0
LINE
  5
12408
  8
0
 10
4596.87855944799594
 20
227.8678654583985974
 30
0.0
 11
4621.9418402522542237
 21
227.8678654583891898
 31
0.0
  0
ARC
  5
12409
  8
0
 10
4596.87855944799594
 20
227.265265458398602
 30
0.0
 40
0.6026
 50
90.0
 51
180.0
  0
ARC
  5
1240A
  8
0
 10
4621.9418402522542237
 20
227.2652654583891945
 30
0.0
 40
0.6026
 50
0.0
 51
90.0
  0
ARC
  5
1240B
  8
0
 10
4618.5046402522530116
 20
211.9777673311891988
 30
0.0
 40
4.0397999999999987
 50
270.0
 51
0.0
  0
ARC
  5
1240C
  8
0
 10
4600.3157594479971522
 20
211.9777673311986064
 30
0.0
 40
4.0397999999999987
 50
180.0
 51
270.0
  0
LINE
  5
1240D
  8
0
 10
4596.5310936304958886
 20
211.9777015136986051
 30
0.0
 11
4596.5310936304958886
 21
217.8084281454868005
 31
0.0
  0
LINE
  5
1240E
  8
0
 10
4596.5310936304958886
 20
218.3989793265868116
 30
0.0
 11
4596.5310936304958886
 21
219.5761447412986058
 31
0.0
  0
LINE
  5
1240F
  8
0
 10
4596.5310936304958886
 20
220.2848061585985988
 30
0.0
 11
4596.5310936304958886
 21
227.0120477407699013
 31
0.0
  0
LINE
  5
12410
  8
0
 10
4622.4656942497531418
 20
211.9777015136891976
 30
0.0
 11
4622.4656942497531418
 21
219.5761447412891982
 31
0.0
  0
LINE
  5
12411
  8
0
 10
4622.4656942497531418
 20
220.2848061585891912
 30
0.0
 11
4622.4656942497531418
 21
227.0120477407604938
 31
0.0
  0
LINE
  5
12412
  8
0
 10
4600.315693630496753
 20
208.1931015136985934
 30
0.0
 11
4618.6810942497540964
 21
208.1931015136891858
 31
0.0
  0
ARC
  5
12413
  8
0
 10
4600.315693630496753
 20
211.9777015136986051
 30
0.0
 40
3.7846000000000002
 50
180.0
 51
207.239711725261202
  0
ARC
  5
12414
  8
0
 10
4600.315693630496753
 20
211.9777015136986051
 30
0.0
 40
3.7846000000000002
 50
220.1628990438499045
 51
270.0
  0
ARC
  5
12415
  8
0
 10
4618.6810942497540964
 20
211.9777015136891976
 30
0.0
 40
3.7846000000000002
 50
270.0
 51
319.8371009561500955
  0
ARC
  5
12416
  8
0
 10
4618.6810942497540964
 20
211.9777015136891976
 30
0.0
 40
3.7846000000000002
 50
332.760288274738798
 51
0.0
  0
LINE
  5
12417
  8
0
 10
4597.1240936304966453
 20
227.6050477407698907
 30
0.0
 11
4621.8726942497542041
 21
227.6050477407605115
 31
0.0
  0
ARC
  5
12418
  8
0
 10
4597.1240936304966453
 20
227.0120477407699013
 30
0.0
 40
0.593
 50
90.0
 51
180.0
  0
ARC
  5
12419
  8
0
 10
4621.8726942497542041
 20
227.0120477407604938
 30
0.0
 40
0.593
 50
0.0
 51
90.0
  0
LINE
  5
1241A
  8
0
 10
4596.3239131050968354
 20
220.2848061585985988
 30
0.0
 11
4596.9617083806970186
 21
220.2848061585985988
 31
0.0
  0
LINE
  5
1241B
  8
0
 10
4596.3239131050968354
 20
219.5761447412986058
 30
0.0
 11
4596.9617083806970186
 21
219.5761447412986058
 31
0.0
  0
LINE
  5
1241C
  8
0
 10
4596.9774564121962612
 20
219.5918927727985874
 30
0.0
 11
4596.9774564121962612
 21
220.2690581270985888
 31
0.0
  0
LINE
  5
1241D
  8
0
 10
4596.3081650735966832
 20
219.5918927727985874
 30
0.0
 11
4596.3081650735966832
 21
220.2690581270985888
 31
0.0
  0
LINE
  5
1241E
  8
0
 10
4596.9774564121962612
 20
220.2060660010986055
 30
0.0
 11
4621.8282964661539154
 21
220.2060660010891979
 31
0.0
  0
LINE
  5
1241F
  8
0
 10
4596.9774564121962612
 20
219.6548848986986116
 30
0.0
 11
4621.8282964661539154
 21
219.654884898689204
 31
0.0
  0
LINE
  5
12420
  8
0
 10
4596.3081650735966832
 20
220.2690581270985888
 30
0.0
 11
4596.3239131050968354
 21
220.2848061585985988
 31
0.0
  0
LINE
  5
12421
  8
0
 10
4596.3239131050968354
 20
219.5761447412986058
 30
0.0
 11
4596.3081650735966832
 21
219.5918927727985874
 31
0.0
  0
LINE
  5
12422
  8
0
 10
4596.9774564121962612
 20
220.2690581270985888
 30
0.0
 11
4596.9617083806970186
 21
220.2848061585985988
 31
0.0
  0
LINE
  5
12423
  8
0
 10
4596.9617083806970186
 20
219.5761447412986058
 30
0.0
 11
4596.9774564121962612
 21
219.5918927727985874
 31
0.0
  0
ARC
  5
12424
  8
0
 10
4596.212394753614717
 20
220.0345051686419993
 30
0.0
 40
0.0930813476247474
 50
8.7005956574992656
 51
21.2693761384161704
  0
ARC
  5
12425
  8
0
 10
4597.259962627477762
 20
219.9304754498986085
 30
0.0
 40
0.970657282825432
 50
171.838675309251613
 51
188.1613246907498933
  0
ARC
  5
12426
  8
0
 10
4596.2209204015343857
 20
219.8231269683718949
 30
0.0
 40
0.0839325302773514
 50
338.7306238615929033
 51
352.6333061652866263
  0
LINE
  5
12427
  8
0
 10
4596.2965180090341164
 20
219.8123652136985982
 30
0.0
 11
4596.2998229503964467
 21
219.8123652136985982
 31
0.0
  0
ARC
  5
12428
  8
0
 10
4597.4277168550288479
 20
218.102362226855206
 30
0.0
 40
1.1182783856455061
 50
171.836920756773111
 51
188.0260985462132908
  0
ARC
  5
12429
  8
0
 10
4595.18744325309126
 20
218.1050402110651021
 30
0.0
 40
1.144026527005316
 50
352.0202827974276261
 51
354.0068801030261056
  0
ARC
  5
1242A
  8
0
 10
4595.18744325309126
 20
218.1050402110651021
 30
0.0
 40
1.144026527005316
 50
5.8585324955083156
 51
7.8427365055557319
  0
LINE
  5
1242B
  8
0
 10
4597.682866896696396
 20
210.1666959223985884
 30
0.0
 11
4621.1930300758531303
 21
210.1666959223892093
 31
0.0
  0
LINE
  5
1242C
  8
0
 10
4597.682866896696396
 20
209.6155148199985945
 30
0.0
 11
4621.1930300758531303
 21
209.6155148199891869
 31
0.0
  0
LINE
  5
1242D
  8
0
 10
4597.682866896696396
 20
210.2296880483986001
 30
0.0
 11
4597.682866896696396
 21
209.5525226939986112
 31
0.0
  0
LINE
  5
1242E
  8
0
 10
4597.6671188651971534
 20
210.2454360797985942
 30
0.0
 11
4596.7264494795972496
 21
210.2454360797985942
 31
0.0
  0
LINE
  5
1242F
  8
0
 10
4597.682866896696396
 20
210.2296880483986001
 30
0.0
 11
4597.6671188651971534
 21
210.2454360797985942
 31
0.0
  0
LINE
  5
12430
  8
0
 10
4597.6671188651971534
 20
209.5367746624986012
 30
0.0
 11
4597.682866896696396
 21
209.5525226939986112
 31
0.0
  0
LINE
  5
12431
  8
0
 10
4597.1333953825605931
 20
209.5367746624986012
 30
0.0
 11
4597.6671188651971534
 21
209.5367746624986012
 31
0.0
  0
LINE
  5
12432
  8
0
 10
4596.7129507819272476
 20
210.2215772125504998
 30
0.0
 11
4597.1198652259872688
 21
209.5443578522460939
 31
0.0
  0
LINE
  5
12433
  8
0
 10
4597.1198652259872688
 20
209.5443578522460939
 30
0.0
 11
4597.1333953825605931
 21
209.5367746624986012
 31
0.0
  0
LINE
  5
12434
  8
0
 10
4596.7264494795972496
 20
210.2454360797985942
 30
0.0
 11
4596.7129507819272476
 21
210.2215772125504998
 31
0.0
  0
ARC
  5
12435
  8
0
 10
4597.7404980479468577
 20
210.4120740319415859
 30
0.0
 40
1.01248835722509
 50
202.239181157674011
 51
220.5876367105065867
  0
ARC
  5
12436
  8
0
 10
4596.0998195494676111
 20
209.4100724927089914
 30
0.0
 40
0.9369296622062194
 50
21.492129352736729
 51
22.6211469678232184
  0
ARC
  5
12437
  8
0
 10
4596.0998195494676111
 20
209.4100724927089914
 30
0.0
 40
0.9369296622062194
 50
39.4908957069525712
 51
41.3346885154462811
  0
LINE
  5
12438
  8
0
 10
4596.8325297719693481
 20
210.0225643529070112
 30
0.0
 11
4596.8173056795849334
 21
209.9963234763046103
 31
0.0
  0
LINE
  5
12439
  8
0
 10
4596.9616130296926713
 20
209.7651808399436959
 30
0.0
 11
4596.9741731200192589
 21
209.7868302349394014
 31
0.0
  0
LINE
  5
1243A
  8
0
 10
4621.1930300758531303
 20
210.2296880483891925
 30
0.0
 11
4621.1930300758531303
 21
209.5525226939892036
 31
0.0
  0
LINE
  5
1243B
  8
0
 10
4621.2087781073541919
 20
210.2454360797891866
 30
0.0
 11
4622.1494901388432481
 21
210.2454360797891866
 31
0.0
  0
LINE
  5
1243C
  8
0
 10
4621.1930300758531303
 20
210.2296880483891925
 30
0.0
 11
4621.2087781073541919
 21
210.2454360797891866
 31
0.0
  0
LINE
  5
1243D
  8
0
 10
4621.2087781073541919
 20
209.5367746624891936
 30
0.0
 11
4621.1930300758531303
 21
209.5525226939892036
 31
0.0
  0
LINE
  5
1243E
  8
0
 10
4621.7116584856248664
 20
209.5367746624891936
 30
0.0
 11
4621.2087781073541919
 21
209.5367746624891936
 31
0.0
  0
LINE
  5
1243F
  8
0
 10
4622.1494901388432481
 20
210.2454360797891866
 30
0.0
 11
4621.7116584856248664
 21
209.5367746624891936
 31
0.0
  0
LINE
  5
12440
  8
0
 10
4621.9590616771738496
 20
209.8832610268187011
 30
0.0
 11
4621.9347522258140089
 21
209.8978676189981911
 31
0.0
  0
LINE
  5
12441
  8
0
 10
4622.4818397732542508
 20
220.2848061585891912
 30
0.0
 11
4621.8440444976540675
 21
220.2848061585891912
 31
0.0
  0
LINE
  5
12442
  8
0
 10
4622.4818397732542508
 20
219.5761447412891982
 30
0.0
 11
4621.8440444976540675
 21
219.5761447412891982
 31
0.0
  0
LINE
  5
12443
  8
0
 10
4621.8282964661539154
 20
219.5918927727892083
 30
0.0
 11
4621.8282964661539154
 21
220.2690581270892096
 31
0.0
  0
LINE
  5
12444
  8
0
 10
4622.4975878047544029
 20
219.5918927727892083
 30
0.0
 11
4622.4975878047544029
 21
220.2690581270892096
 31
0.0
  0
LINE
  5
12445
  8
0
 10
4622.4975878047544029
 20
220.2690581270892096
 30
0.0
 11
4622.4818397732542508
 21
220.2848061585891912
 31
0.0
  0
LINE
  5
12446
  8
0
 10
4622.4818397732542508
 20
219.5761447412891982
 30
0.0
 11
4622.4975878047544029
 21
219.5918927727892083
 31
0.0
  0
LINE
  5
12447
  8
0
 10
4621.8282964661539154
 20
220.2690581270892096
 30
0.0
 11
4621.8440444976540675
 21
220.2848061585891912
 31
0.0
  0
LINE
  5
12448
  8
0
 10
4621.8440444976540675
 20
219.5761447412891982
 30
0.0
 11
4621.8282964661539154
 21
219.5918927727892083
 31
0.0
  0
ARC
  5
12449
  8
0
 10
4622.5933581247345501
 20
220.0345051686325917
 30
0.0
 40
0.0930813476247474
 50
158.730623861582302
 51
171.2994043366506958
  0
ARC
  5
1244A
  8
0
 10
4621.5457902508724146
 20
219.9304754498892009
 30
0.0
 40
0.970657282825432
 50
351.8386753092515846
 51
8.1613246907483674
  0
ARC
  5
1244B
  8
0
 10
4622.5848324768157909
 20
219.8231269683624873
 30
0.0
 40
0.0839325302773514
 50
187.3666938282466106
 51
201.269376138417698
  0
LINE
  5
1244C
  8
0
 10
4622.5092348693169697
 20
219.8123652136891906
 30
0.0
 11
4622.4975878047544029
 21
219.8123652136891906
 31
0.0
  0
LINE
  5
1244D
  8
0
 10
4622.3640593328800605
 20
217.8084281454868005
 30
0.0
 11
4596.3774079343811536
 21
217.8084281454868005
 31
0.0
  0
LINE
  5
1244E
  8
0
 10
4622.3640593328800605
 20
218.3989793265868116
 30
0.0
 11
4596.3774079343811536
 21
218.3989793265868116
 31
0.0
  0
LINE
  5
1244F
  8
0
 10
4596.3380079343796751
 20
217.8478281454868011
 30
0.0
 11
4596.3380079343796751
 21
218.359579326586811
 31
0.0
  0
LINE
  5
12450
  8
0
 10
4622.4034593328806295
 20
217.8478281454868011
 30
0.0
 11
4622.4034593328806295
 21
218.359579326586811
 31
0.0
  0
ARC
  5
12451
  8
0
 10
4622.3640593328800605
 20
217.8478281454866874
 30
0.0
 40
0.0394
 50
270.0
 51
0.0000000000081422
  0
ARC
  5
12452
  8
0
 10
4622.3640593328800605
 20
218.359579326586811
 30
0.0
 40
0.0394
 50
359.9999999999968168
 51
90.0
  0
ARC
  5
12453
  8
0
 10
4596.3774079343811536
 20
217.8478281454866874
 30
0.0
 40
0.0394
 50
179.9999999999917861
 51
270.0
  0
ARC
  5
12454
  8
0
 10
4596.3774079343811536
 20
218.359579326586811
 30
0.0
 40
0.0394
 50
90.0
 51
180.0000000000081002
  0
LINE
  5
12455
  8
0
 10
4596.3158365429826517
 20
218.2218139722868102
 30
0.0
 11
4596.3380079343796751
 21
218.2218139722868102
 31
0.0
  0
LINE
  5
12456
  8
0
 10
4622.5092348693169697
 20
220.0485856861891989
 30
0.0
 11
4622.4975878047544029
 21
220.0485856861891989
 31
0.0
  0
LINE
  5
12457
  8
0
 10
4596.2965180090341164
 20
219.8123652136891906
 30
0.0
 11
4596.3081650735966832
 21
219.8123652136891906
 31
0.0
  0
LINE
  5
12458
  8
0
 10
4596.2965180090341164
 20
220.0485856861891989
 30
0.0
 11
4596.3081650735966832
 21
220.0485856861891989
 31
0.0
  0
LINE
  5
12459
  8
0
 10
4596.3158365429826517
 20
217.9855934997868019
 30
0.0
 11
4596.3380079343796751
 21
217.9855934997868019
 31
0.0
  0
LINE
  5
1245A
  8
0
 10
4594.3087559439909455
 20
206.1115860984916139
 30
0.0
 11
4594.3087644141232886
 21
205.5985678902933955
 31
0.0
  0
LINE
  5
1245B
  8
0
 10
4594.3087644141232886
 20
205.5985678902933955
 30
0.0
 11
4596.27725145072327
 21
205.5985678902933955
 31
0.0
  0
LINE
  5
1245C
  8
0
 10
4596.27725145072327
 20
205.5985678902933955
 30
0.0
 11
4596.2772599208547035
 21
206.1115860984916139
 31
0.0
  0
ARC
  5
1245D
  8
0
 10
4596.1591599208695698
 20
206.1115880483687022
 30
0.0
 40
0.1181
 50
359.9990540242910129
 51
90.0
  0
ARC
  5
1245E
  8
0
 10
4608.0095331092761626
 20
206.1115880483687022
 30
0.0
 40
0.1181
 50
90.0
 51
180.0009459757089871
  0
LINE
  5
1245F
  8
0
 10
4607.8914331092910288
 20
206.1115860984916139
 30
0.0
 11
4607.8914415794242814
 21
205.5985678902933955
 31
0.0
  0
LINE
  5
12460
  8
0
 10
4607.8914415794242814
 20
205.5985678902933955
 30
0.0
 11
4609.8599286160242627
 21
205.5985678902933955
 31
0.0
  0
LINE
  5
12461
  8
0
 10
4609.8599286160242627
 20
205.5985678902933955
 30
0.0
 11
4609.8599370861547868
 21
206.1115860984916139
 31
0.0
  0
ARC
  5
12462
  8
0
 10
4609.741837086169653
 20
206.1115880483687022
 30
0.0
 40
0.1181
 50
359.9990540242910129
 51
90.0
  0
ARC
  5
12463
  8
0
 10
4628.0095331092761626
 20
206.1115880483687022
 30
0.0
 40
0.1181
 50
90.0
 51
180.0009459757089871
  0
LINE
  5
12464
  8
0
 10
4627.8914331092919383
 20
206.1115860984916139
 30
0.0
 11
4627.8914415794233719
 21
205.5985678902933955
 31
0.0
  0
LINE
  5
12465
  8
0
 10
4627.8914415794233719
 20
205.5985678902933955
 30
0.0
 11
4629.8599286160233532
 21
205.5985678902933955
 31
0.0
  0
LINE
  5
12466
  8
0
 10
4629.8599286160233532
 20
205.5985678902933955
 30
0.0
 11
4629.8599370861547868
 21
206.1115860984916139
 31
0.0
  0
ARC
  5
12467
  8
0
 10
4629.7418370861705625
 20
206.1115880483687022
 30
0.0
 40
0.1181
 50
359.9990540242910129
 51
90.0
  0
ARC
  5
12468
  8
0
 10
4647.3796118494747134
 20
206.1115880483687022
 30
0.0
 40
0.1181
 50
90.0
 51
180.0009459757089871
  0
LINE
  5
12469
  8
0
 10
4647.2615118494913986
 20
206.1115860984916139
 30
0.0
 11
4647.2615203196228322
 21
205.5985678902933955
 31
0.0
  0
LINE
  5
1246A
  8
0
 10
4647.2615203196228322
 20
205.5985678902933955
 30
0.0
 11
4649.230007356223723
 21
205.5985678902933955
 31
0.0
  0
LINE
  5
1246B
  8
0
 10
4649.230007356223723
 20
205.5985678902933955
 30
0.0
 11
4649.2300158263542471
 21
206.1115860984916139
 31
0.0
  0
ARC
  5
1246C
  8
0
 10
4649.1119158263691133
 20
206.1115880483687022
 30
0.0
 40
0.1181
 50
359.9990540242910129
 51
90.0
  0
ARC
  5
1246D
  8
0
 10
4657.2221315344759205
 20
206.1115880483687022
 30
0.0
 40
0.1181
 50
90.0
 51
180.0009459757089871
  0
LINE
  5
1246E
  8
0
 10
4657.1040315344916962
 20
206.1115860984916139
 30
0.0
 11
4657.1040400046231298
 21
205.5985678902933955
 31
0.0
  0
LINE
  5
1246F
  8
0
 10
4657.1040400046231298
 20
205.5985678902933955
 30
0.0
 11
4659.0725270412231112
 21
205.5985678902933955
 31
0.0
  0
LINE
  5
12470
  8
0
 10
4659.0725270412231112
 20
205.5985678902933955
 30
0.0
 11
4659.0725355113554542
 21
206.1115860984916139
 31
0.0
  0
ARC
  5
12471
  8
0
 10
4658.9544355113703205
 20
206.1115880483687022
 30
0.0
 40
0.1181
 50
359.9990540242910129
 51
90.0
  0
ENDSEC
  0
EOF
