  0
SECTION
  2
HEADER
  9
$ACADVER
  1
AC1009
  9
$INSBASE
 10
4536.9640399769741634
 20
251.7494155998685983
 30
0.0
  9
$EXTMIN
 10
4503.4404171989472161
 20
251.7494155998685983
 30
0.0
  9
$EXTMAX
 10
4570.4876612955558812
 20
277.3445980950182843
 30
0.0
  9
$LIMMIN
 10
0.0
 20
0.0
  9
$LIMMAX
 10
11.6929133858000007
 20
8.2677165353999982
  9
$ORTHOMODE
 70
     0
  9
$REGENMODE
 70
     1
  9
$FILLMODE
 70
     1
  9
$QTEXTMODE
 70
     0
  9
$MIRRTEXT
 70
     0
  9
$DRAGMODE
 70
     2
  9
$LTSCALE
 40
0.6431102362
  9
$OSMODE
 70
  4095
  9
$ATTMODE
 70
     1
  9
$TEXTSIZE
 40
0.2
  9
$TRACEWID
 40
0.05
  9
$TEXTSTYLE
  7
STANDARD
  9
$CLAYER
  8
0
  9
$CELTYPE
  6
BYLAYER
  9
$CECOLOR
 62
   256
  9
$DIMSCALE
 40
1.0
  9
$DIMASZ
 40
0.1875
  9
$DIMEXO
 40
0.0625
  9
$DIMDLI
 40
0.4443307087
  9
$DIMRND
 40
0.0
  9
$DIMDLE
 40
0.0
  9
$DIMEXE
 40
0.125
  9
$DIMTP
 40
0.01
  9
$DIMTM
 40
0.01
  9
$DIMTXT
 40
2.0
  9
$DIMCEN
 40
0.1052362205
  9
$DIMTSZ
 40
0.0
  9
$DIMTOL
 70
     1
  9
$DIMLIM
 70
     0
  9
$DIMTIH
 70
     1
  9
$DIMTOH
 70
     1
  9
$DIMSE1
 70
     0
  9
$DIMSE2
 70
     0
  9
$DIMTAD
 70
     0
  9
$DIMZIN
 70
     0
  9
$DIMBLK
  1

  9
$DIMASO
 70
     1
  9
$DIMSHO
 70
     1
  9
$DIMPOST
  1
\X
  9
$DIMAPOST
  1

  9
$DIMALT
 70
     1
  9
$DIMALTD
 70
     2
  9
$DIMALTF
 40
25.3999999999999986
  9
$DIMLFAC
 40
1.0
  9
$DIMTOFL
 70
     0
  9
$DIMTVP
 40
0.0
  9
$DIMTIX
 70
     0
  9
$DIMSOXD
 70
     0
  9
$DIMSAH
 70
     0
  9
$DIMBLK1
  1

  9
$DIMBLK2
  1

  9
$DIMSTYLE
  2
STANDARD
  9
$DIMCLRD
 70
     0
  9
$DIMCLRE
 70
     0
  9
$DIMCLRT
 70
     0
  9
$DIMTFAC
 40
1.0
  9
$DIMGAP
 40
0.09
  9
$LUNITS
 70
     2
  9
$LUPREC
 70
     4
  9
$SKETCHINC
 40
0.1
  9
$FILLETRAD
 40
0.0
  9
$AUNITS
 70
     0
  9
$AUPREC
 70
     0
  9
$MENU
  1
.
  9
$ELEVATION
 40
0.0
  9
$PELEVATION
 40
0.0
  9
$THICKNESS
 40
0.0
  9
$LIMCHECK
 70
     0
  9
$BLIPMODE
 70
     0
  9
$CHAMFERA
 40
0.0
  9
$CHAMFERB
 40
0.0
  9
$SKPOLY
 70
     0
  9
$TDCREATE
 40
2458060.468368056230247
  9
$TDUPDATE
 40
2459268.4689467591233552
  9
$TDINDWG
 40
0.6609445602
  9
$TDUSRTIMER
 40
0.6609445602
  9
$USRTIMER
 70
     1
  9
$ANGBASE
 50
0.0
  9
$ANGDIR
 70
     0
  9
$PDMODE
 70
     0
  9
$PDSIZE
 40
0.3125
  9
$PLINEWID
 40
0.0
  9
$COORDS
 70
     1
  9
$SPLFRAME
 70
     0
  9
$SPLINETYPE
 70
     6
  9
$SPLINESEGS
 70
     8
  9
$ATTDIA
 70
     1
  9
$ATTREQ
 70
     1
  9
$HANDLING
 70
     1
  9
$HANDSEED
  5
1428D
  9
$SURFTAB1
 70
     6
  9
$SURFTAB2
 70
     6
  9
$SURFTYPE
 70
     6
  9
$SURFU
 70
     6
  9
$SURFV
 70
     6
  9
$UCSNAME
  2

  9
$UCSORG
 10
0.0
 20
0.0
 30
0.0
  9
$UCSXDIR
 10
1.0
 20
0.0
 30
0.0
  9
$UCSYDIR
 10
0.0
 20
1.0
 30
0.0
  9
$PUCSNAME
  2

  9
$PUCSORG
 10
0.0
 20
0.0
 30
0.0
  9
$PUCSXDIR
 10
1.0
 20
0.0
 30
0.0
  9
$PUCSYDIR
 10
0.0
 20
1.0
 30
0.0
  9
$USERI1
 70
     0
  9
$USERI2
 70
     0
  9
$USERI3
 70
     0
  9
$USERI4
 70
     0
  9
$USERI5
 70
     0
  9
$USERR1
 40
0.0
  9
$USERR2
 40
0.0
  9
$USERR3
 40
0.0
  9
$USERR4
 40
0.0
  9
$USERR5
 40
0.0
  9
$WORLDVIEW
 70
     1
  9
$SHADEDGE
 70
     3
  9
$SHADEDIF
 70
    70
  9
$TILEMODE
 70
     1
  9
$MAXACTVP
 70
    64
  9
$PLIMCHECK
 70
     0
  9
$PEXTMIN
 10
1.0000000000000000E+20
 20
1.0000000000000000E+20
 30
1.0000000000000000E+20
  9
$PEXTMAX
 10
-1.0000000000000000E+20
 20
-1.0000000000000000E+20
 30
-1.0000000000000000E+20
  9
$PLIMMIN
 10
0.0
 20
0.0
  9
$PLIMMAX
 10
12.0
 20
9.0
  9
$UNITMODE
 70
     0
  9
$VISRETAIN
 70
     1
  9
$PLINEGEN
 70
     0
  9
$PSLTSCALE
 70
     1
  0
ENDSEC
  0
SECTION
  2
TABLES
  0
TABLE
  2
VPORT
 70
     1
  0
VPORT
  2
*ACTIVE
 70
     0
 10
0.0
 20
0.0
 11
1.0
 21
1.0
 12
382.1166828892976923
 22
38.4310464397981377
 13
0.0
 23
0.0
 14
1.0
 24
1.0
 15
0.0
 25
0.0
 16
0.0
 26
0.0
 36
202.37134017897489
 17
4161.556396484375
 27
226.1108322143554972
 37
0.0
 40
27.853185336911821
 41
2.9182795698924728
 42
50.0
 43
0.0
 44
0.0
 50
0.0
 51
0.0
 71
     0
 72
   100
 73
     1
 74
     1
 75
     0
 76
     0
 77
     0
 78
     0
  0
ENDTAB
  0
TABLE
  2
LTYPE
 70
     2
  0
LTYPE
  2
CONTINUOUS
 70
     0
  3
Solid line
 72
    65
 73
     0
 40
0.0
  0
LTYPE
  2
PHANTOM2
 70
     0
  3
___ _ _ ___ _ _ ___ _ _ ___ _ _
 72
    65
 73
     6
 40
1.25
 49
0.625
 49
-0.125
 49
0.125
 49
-0.125
 49
0.125
 49
-0.125
  0
ENDTAB
  0
TABLE
  2
LAYER
 70
     2
  0
LAYER
  2
0
 70
     0
 62
   255
  6
CONTINUOUS
  0
LAYER
  2
DEFPOINTS
 70
     0
 62
     7
  6
CONTINUOUS
  0
ENDTAB
  0
TABLE
  2
STYLE
 70
     1
  0
STYLE
  2
STANDARD
 70
     0
 40
0.0
 41
0.8
 50
0.0
 71
     0
 42
0.2
  3
txt
  4

  0
ENDTAB
  0
TABLE
  2
VIEW
 70
     0
  0
ENDTAB
  0
TABLE
  2
UCS
 70
     0
  0
ENDTAB
  0
TABLE
  2
APPID
 70
     9
  0
APPID
  2
ACAD
 70
     0
  0
APPID
  2
ACAD_MLEADERVER
 70
     0
  0
APPID
  2
ACAD_EXEMPT_FROM_CAD_STANDARDS
 70
     0
  0
APPID
  2
ACAD_NAV_VCDISPLAY
 70
     0
  0
APPID
  2
ACAECLAYERSTANDARD
 70
     0
  0
APPID
  2
ACCMTRANSPARENCY
 70
     0
  0
APPID
  2
ACAD_DSTYLE_DIMJAG
 70
     0
  0
APPID
  2
ACAD_DSTYLE_DIMTALN
 70
     0
  0
APPID
  2
ACDBATTR
 70
     0
  0
ENDTAB
  0
TABLE
  2
DIMSTYLE
 70
     1
  0
DIMSTYLE
  2
STANDARD
 70
     0
  3

  4

  5

  6

  7

 40
1.0
 41
0.1875
 42
0.0625
 43
0.38
 44
0.125
 45
0.0
 46
0.0
 47
0.01
 48
0.01
140
0.15625
141
0.09
142
0.0
143
25.3999999999999986
144
1.0
145
0.0
146
1.0
147
0.09
 71
     1
 72
     0
 73
     1
 74
     1
 75
     0
 76
     0
 77
     0
 78
     4
170
     0
171
     2
172
     0
173
     0
174
     0
175
     0
176
     0
177
     0
178
     0
  0
ENDTAB
  0
ENDSEC
  0
SECTION
  2
BLOCKS
  0
BLOCK
  8
0
  2
$MODEL_SPACE
 70
     0
 10
0.0
 20
0.0
 30
0.0
  3
$MODEL_SPACE
  1

  0
ENDBLK
  5
21
  8
0
  0
BLOCK
 67
     1
  8
0
  2
$PAPER_SPACE
 70
     0
 10
0.0
 20
0.0
 30
0.0
  3
$PAPER_SPACE
  1

  0
ENDBLK
  5
1D
 67
     1
  8
0
  0
ENDSEC
  0
SECTION
  2
ENTITIES
  0
ATTDEF
  5
3930
  8
DEFPOINTS
 10
4536.9603019080514059
 20
251.7545565277278001
 30
0.0
 40
0.001
  1
K-99024T
  3

  2
MODELNUMBER
 70
     0
1001
ACDBATTR
1070
     0
1070
     1
  0
ATTDEF
  5
3931
  8
DEFPOINTS
 10
4536.9603019080514059
 20
251.7528898610611066
 30
0.0
 40
0.001
  1
ALEUTIAN
  3

  2
TRADENAME
 70
     0
1001
ACDBATTR
1070
     0
1070
     1
  0
ATTDEF
  5
3932
  8
DEFPOINTS
 10
4536.9603019080514059
 20
251.751223194394413
 30
0.0
 40
0.001
  1
BATH
  3

  2
PRODUCT
 70
     0
1001
ACDBATTR
1070
     0
1070
     1
  0
LINE
  5
140C7
  8
0
 10
4503.6176171989473005
 20
252.3160713350677042
 30
0.0
 11
4570.3104612934466786
 21
252.3160713350677042
 31
0.0
  0
LINE
  5
140C8
  8
0
 10
4503.845365446823962
 20
277.3445980950182843
 30
0.0
 11
4570.2008264237310868
 21
277.3445980950182843
 31
0.0
  0
LINE
  5
140C9
  8
0
 10
4503.5585274330378525
 20
275.6625279675857882
 30
0.0
 11
4570.4876612955558812
 21
275.6625279675857882
 31
0.0
  0
LINE
  5
140CA
  8
0
 10
4570.487661293446763
 20
275.4853279675857038
 30
0.0
 11
4570.487661293446763
 21
252.4932713350677034
 31
0.0
  0
LINE
  5
140CB
  8
0
 10
4503.4404171989472161
 20
275.4853279675857038
 30
0.0
 11
4503.4404171989472161
 21
252.4932713350677034
 31
0.0
  0
ARC
  5
140CC
  8
0
 10
4503.6176171989473005
 20
275.4853279675857038
 30
0.0
 40
0.1772
 50
90.0
 51
180.0
  0
ARC
  5
140CD
  8
0
 10
4503.6176171989473005
 20
252.4932713350677886
 30
0.0
 40
0.1772
 50
180.0000000000015916
 51
270.0
  0
ARC
  5
140CE
  8
0
 10
4570.3104612934466786
 20
252.4932713350677034
 30
0.0
 40
0.1772
 50
270.0
 51
0.0
  0
ARC
  5
140CF
  8
0
 10
4570.3104612934466786
 20
275.4853279675857038
 30
0.0
 40
0.1772
 50
0.0000000000016284
 51
90.0
  0
LINE
  5
140D0
  8
0
 10
4503.6093093512736232
 20
277.116641865578174
 30
0.0
 11
4503.5585274330378525
 21
275.6625279675857882
 31
0.0
  0
ARC
  5
140D1
  8
0
 10
4503.845365446823962
 20
277.1083980950182877
 30
0.0
 40
0.2362
 50
90.0
 51
177.9998763484869926
  0
LINE
  5
140D2
  8
0
 10
4570.4368825370720515
 20
277.1166413561437025
 30
0.0
 11
4570.4876612955558812
 21
275.6625279675857882
 31
0.0
  0
ARC
  5
140D3
  8
0
 10
4570.2008264237310868
 20
277.1083980950182877
 30
0.0
 40
0.2362
 50
2.0000000010294392
 51
90.0
  0
LINE
  5
140D4
  8
0
 10
4506.4915983013470395
 20
252.2767012554380983
 30
0.0
 11
4506.4915983013470395
 21
251.7494155998685983
 31
0.0
  0
LINE
  5
140D5
  8
0
 10
4504.5230943642472994
 20
252.2767012554971018
 30
0.0
 11
4504.5230943642472994
 21
251.7494155998685983
 31
0.0
  0
LINE
  5
140D6
  8
0
 10
4504.5230943642472994
 20
251.7494155998685983
 30
0.0
 11
4506.4915983013470395
 21
251.7494155998685983
 31
0.0
  0
ARC
  5
140D7
  8
0
 10
4506.3734880617412273
 20
252.2767012554380983
 30
0.0
 40
0.118110239605798
 50
0.0000004024780761
 51
19.4712205116781796
  0
ARC
  5
140D8
  8
0
 10
4504.6412046034056402
 20
252.2767012554971018
 30
0.0
 40
0.1181102391596625
 50
160.5287794421219019
 51
179.9999996261759918
  0
LINE
  5
140D9
  8
0
 10
4516.3341179863473371
 20
252.2767012554380983
 30
0.0
 11
4516.3341179863473371
 21
251.7494155998685983
 31
0.0
  0
LINE
  5
140DA
  8
0
 10
4514.3656140492466875
 20
252.2767012554971018
 30
0.0
 11
4514.3656140492466875
 21
251.7494155998685983
 31
0.0
  0
LINE
  5
140DB
  8
0
 10
4514.3656140492466875
 20
251.7494155998685983
 30
0.0
 11
4516.3341179863473371
 21
251.7494155998685983
 31
0.0
  0
ARC
  5
140DC
  8
0
 10
4516.2160077467406154
 20
252.2767012554380983
 30
0.0
 40
0.118110239605798
 50
0.0000004024780761
 51
19.4712205116781796
  0
ARC
  5
140DD
  8
0
 10
4514.4837242884068473
 20
252.2767012554971018
 30
0.0
 40
0.1181102391596625
 50
160.5287794421219019
 51
179.9999996261759918
  0
LINE
  5
140DE
  8
0
 10
4535.7041967265467974
 20
252.2767012554380983
 30
0.0
 11
4535.7041967265467974
 21
251.7494155998685983
 31
0.0
  0
LINE
  5
140DF
  8
0
 10
4533.7356927894470573
 20
252.2767012554971018
 30
0.0
 11
4533.7356927894470573
 21
251.7494155998685983
 31
0.0
  0
LINE
  5
140E0
  8
0
 10
4533.7356927894470573
 20
251.7494155998685983
 30
0.0
 11
4535.7041967265467974
 21
251.7494155998685983
 31
0.0
  0
ARC
  5
140E1
  8
0
 10
4535.5860864869409852
 20
252.2767012554380983
 30
0.0
 40
0.118110239605798
 50
0.0000004024780761
 51
19.4712205116781796
  0
ARC
  5
140E2
  8
0
 10
4533.8538030286072171
 20
252.2767012554971018
 30
0.0
 40
0.1181102391596625
 50
160.5287794421219019
 51
179.9999996261759918
  0
LINE
  5
140E3
  8
0
 10
4555.7041967266459324
 20
252.2767012554380983
 30
0.0
 11
4555.7041967266459324
 21
251.7494155998685983
 31
0.0
  0
LINE
  5
140E4
  8
0
 10
4553.7356927895471017
 20
252.2767012554971018
 30
0.0
 11
4553.7356927895471017
 21
251.7494155998685983
 31
0.0
  0
LINE
  5
140E5
  8
0
 10
4553.7356927895471017
 20
251.7494155998685983
 30
0.0
 11
4555.7041967266459324
 21
251.7494155998685983
 31
0.0
  0
ARC
  5
140E6
  8
0
 10
4555.5860864870410296
 20
252.2767012554380983
 30
0.0
 40
0.118110239605798
 50
0.0000004024780761
 51
19.4712205116781796
  0
ARC
  5
140E7
  8
0
 10
4553.8538030287072615
 20
252.2767012554971018
 30
0.0
 40
0.1181102391596625
 50
160.5287794421219019
 51
179.9999996261759918
  0
LINE
  5
140E8
  8
0
 10
4569.2868738919469251
 20
252.2767012554380983
 30
0.0
 11
4569.2868738919469251
 21
251.7494155998685983
 31
0.0
  0
LINE
  5
140E9
  8
0
 10
4567.318369954847185
 20
252.2767012554971018
 30
0.0
 11
4567.318369954847185
 21
251.7494155998685983
 31
0.0
  0
LINE
  5
140EA
  8
0
 10
4567.318369954847185
 20
251.7494155998685983
 30
0.0
 11
4569.2868738919469251
 21
251.7494155998685983
 31
0.0
  0
ARC
  5
140EB
  8
0
 10
4569.1687636523411129
 20
252.2767012554380983
 30
0.0
 40
0.118110239605798
 50
0.0000004024780761
 51
19.4712205116781796
  0
ARC
  5
140EC
  8
0
 10
4567.4364801940073448
 20
252.2767012554971018
 30
0.0
 40
0.1181102391596625
 50
160.5287794421219019
 51
179.9999996261759918
  0
LINE
  5
140ED
  8
0
 10
4567.3226890971318426
 20
273.3516487450975774
 30
0.0
 11
4567.3226890971318426
 21
258.0641506178976101
 31
0.0
  0
LINE
  5
140EE
  8
0
 10
4541.0542082928741365
 20
273.3516487450880845
 30
0.0
 11
4541.0542082928741365
 21
258.0641506178881741
 31
0.0
  0
LINE
  5
140EF
  8
0
 10
4545.0940082928727861
 20
254.0243506178881887
 30
0.0
 11
4563.282889097131374
 21
254.0243506178975963
 31
0.0
  0
LINE
  5
140F0
  8
0
 10
4566.7200890971307672
 20
273.9542487450975727
 30
0.0
 11
4541.6568082928743024
 21
273.9542487450881936
 31
0.0
  0
ARC
  5
140F1
  8
0
 10
4566.7200890971307672
 20
273.3516487450975774
 30
0.0
 40
0.6026
 50
0.0
 51
90.0
  0
ARC
  5
140F2
  8
0
 10
4541.6568082928743024
 20
273.3516487450880845
 30
0.0
 40
0.6026
 50
90.0
 51
180.0
  0
ARC
  5
140F3
  8
0
 10
4545.0940082928727861
 20
258.0641506178881741
 30
0.0
 40
4.0397999999999987
 50
180.0
 51
270.0
  0
ARC
  5
140F4
  8
0
 10
4563.282889097131374
 20
258.0641506178976101
 30
0.0
 40
4.0397999999999987
 50
270.0
 51
0.0
  0
LINE
  5
140F5
  8
0
 10
4567.067554914631728
 20
258.0640848003976089
 30
0.0
 11
4567.067554914631728
 21
263.8948114321856906
 31
0.0
  0
LINE
  5
140F6
  8
0
 10
4567.067554914631728
 20
264.4853626132857016
 30
0.0
 11
4567.067554914631728
 21
265.6625280279976096
 31
0.0
  0
LINE
  5
140F7
  8
0
 10
4567.067554914631728
 20
266.3711894452976026
 30
0.0
 11
4567.067554914631728
 21
273.0984310274689051
 31
0.0
  0
LINE
  5
140F8
  8
0
 10
4541.1329542953735654
 20
258.0640848003881729
 30
0.0
 11
4541.1329542953735654
 21
265.6625280279881736
 31
0.0
  0
LINE
  5
140F9
  8
0
 10
4541.1329542953735654
 20
266.3711894452882234
 30
0.0
 11
4541.1329542953735654
 21
273.0984310274595259
 31
0.0
  0
LINE
  5
140FA
  8
0
 10
4563.2829549146308636
 20
254.2794848003975972
 30
0.0
 11
4544.9175542953744298
 21
254.2794848003881896
 31
0.0
  0
ARC
  5
140FB
  8
0
 10
4563.2829549146308636
 20
258.0640848003976089
 30
0.0
 40
3.7846000000000002
 50
332.760288274738798
 51
0.0
  0
ARC
  5
140FC
  8
0
 10
4563.2829549146308636
 20
258.0640848003976089
 30
0.0
 40
3.7846000000000002
 50
270.0
 51
319.8371009561514029
  0
ARC
  5
140FD
  8
0
 10
4544.9175542953744298
 20
258.0640848003881729
 30
0.0
 40
3.7846000000000002
 50
220.1628990438485971
 51
270.0
  0
ARC
  5
140FE
  8
0
 10
4544.9175542953744298
 20
258.0640848003881729
 30
0.0
 40
3.7846000000000002
 50
180.0
 51
207.239711725261202
  0
LINE
  5
140FF
  8
0
 10
4566.4745549146309713
 20
273.6914310274689228
 30
0.0
 11
4541.7259542953743221
 21
273.6914310274594868
 31
0.0
  0
ARC
  5
14100
  8
0
 10
4566.4745549146309713
 20
273.0984310274689051
 30
0.0
 40
0.593
 50
0.0
 51
90.0
  0
ARC
  5
14101
  8
0
 10
4541.7259542953743221
 20
273.0984310274595259
 30
0.0
 40
0.593
 50
90.0
 51
180.0
  0
LINE
  5
14102
  8
0
 10
4567.2747354400307813
 20
266.3711894452976026
 30
0.0
 11
4566.6369401644305981
 21
266.3711894452976026
 31
0.0
  0
LINE
  5
14103
  8
0
 10
4567.2747354400307813
 20
265.6625280279976096
 30
0.0
 11
4566.6369401644305981
 21
265.6625280279976096
 31
0.0
  0
LINE
  5
14104
  8
0
 10
4566.6211921329313554
 20
265.6782760594975912
 30
0.0
 11
4566.6211921329313554
 21
266.355441413797621
 31
0.0
  0
LINE
  5
14105
  8
0
 10
4567.2904834715309335
 20
265.6782760594975912
 30
0.0
 11
4567.2904834715309335
 21
266.355441413797621
 31
0.0
  0
LINE
  5
14106
  8
0
 10
4566.6211921329313554
 20
266.2924492877975808
 30
0.0
 11
4541.7703520789727918
 21
266.2924492877882017
 31
0.0
  0
LINE
  5
14107
  8
0
 10
4566.6211921329313554
 20
265.7412681853975869
 30
0.0
 11
4541.7703520789727918
 21
265.7412681853882077
 31
0.0
  0
LINE
  5
14108
  8
0
 10
4567.2904834715309335
 20
266.355441413797621
 30
0.0
 11
4567.2747354400307813
 21
266.3711894452976026
 31
0.0
  0
LINE
  5
14109
  8
0
 10
4567.2747354400307813
 20
265.6625280279976096
 30
0.0
 11
4567.2904834715309335
 21
265.6782760594975912
 31
0.0
  0
LINE
  5
1410A
  8
0
 10
4566.6211921329313554
 20
266.355441413797621
 30
0.0
 11
4566.6369401644305981
 21
266.3711894452976026
 31
0.0
  0
LINE
  5
1410B
  8
0
 10
4566.6369401644305981
 20
265.6625280279976096
 30
0.0
 11
4566.6211921329313554
 21
265.6782760594975912
 31
0.0
  0
ARC
  5
1410C
  8
0
 10
4567.3862537915128996
 20
266.1208884553411167
 30
0.0
 40
0.0930813476247474
 50
158.7306238615853999
 51
171.2994043425022994
  0
ARC
  5
1410D
  8
0
 10
4566.3386859176498547
 20
266.0168587365976123
 30
0.0
 40
0.970657282825432
 50
351.8386753092515846
 51
8.1613246907483674
  0
ARC
  5
1410E
  8
0
 10
4567.3777281435923214
 20
265.9095102550709271
 30
0.0
 40
0.0839325302773514
 50
187.3666938347134021
 51
201.2693761384070115
  0
LINE
  5
1410F
  8
0
 10
4567.3021305360925908
 20
265.8987485003975735
 30
0.0
 11
4567.29882559473117
 21
265.8987485003975735
 31
0.0
  0
ARC
  5
14110
  8
0
 10
4566.1709316900987687
 20
264.1887455135541813
 30
0.0
 40
1.1182783856455061
 50
351.9739014537865955
 51
8.1630792432269157
  0
ARC
  5
14111
  8
0
 10
4568.4112052920372662
 20
264.1914234977641058
 30
0.0
 40
1.144026527005316
 50
185.9931198969738944
 51
187.9797172025724024
  0
ARC
  5
14112
  8
0
 10
4568.4112052920372662
 20
264.1914234977641058
 30
0.0
 40
1.144026527005316
 50
172.1572634944442086
 51
174.1414675044916862
  0
LINE
  5
14113
  8
0
 10
4565.9157816484303112
 20
256.2530792090976206
 30
0.0
 11
4542.4056184692735769
 21
256.2530792090881846
 31
0.0
  0
LINE
  5
14114
  8
0
 10
4565.9157816484303112
 20
255.7018981066975982
 30
0.0
 11
4542.4056184692735769
 21
255.7018981066881906
 31
0.0
  0
LINE
  5
14115
  8
0
 10
4565.9157816484303112
 20
256.3160713350976039
 30
0.0
 11
4565.9157816484303112
 21
255.6389059806975865
 31
0.0
  0
LINE
  5
14116
  8
0
 10
4565.9315296799313728
 20
256.3318193664975979
 30
0.0
 11
4566.8721990655312766
 21
256.3318193664975979
 31
0.0
  0
LINE
  5
14117
  8
0
 10
4565.9157816484303112
 20
256.3160713350976039
 30
0.0
 11
4565.9315296799313728
 21
256.3318193664975979
 31
0.0
  0
LINE
  5
14118
  8
0
 10
4565.9315296799313728
 20
255.6231579491976049
 30
0.0
 11
4565.9157816484303112
 21
255.6389059806975865
 31
0.0
  0
LINE
  5
14119
  8
0
 10
4566.4652531625670235
 20
255.6231579491976049
 30
0.0
 11
4565.9315296799313728
 21
255.6231579491976049
 31
0.0
  0
LINE
  5
1411A
  8
0
 10
4566.8856977632021881
 20
256.3079604992494751
 30
0.0
 11
4566.4787833191421669
 21
255.6307411389452113
 31
0.0
  0
LINE
  5
1411B
  8
0
 10
4566.4787833191421669
 20
255.6307411389452113
 30
0.0
 11
4566.4652531625670235
 21
255.6231579491976049
 31
0.0
  0
LINE
  5
1411C
  8
0
 10
4566.8721990655312766
 20
256.3318193664975979
 30
0.0
 11
4566.8856977632021881
 21
256.3079604992494751
 31
0.0
  0
ARC
  5
1411D
  8
0
 10
4565.8581504971798495
 20
256.4984573186407033
 30
0.0
 40
1.01248835722509
 50
319.4123632894933849
 51
337.760818842324511
  0
ARC
  5
1411E
  8
0
 10
4567.4988289956600056
 20
255.4964557794079951
 30
0.0
 40
0.9369296622062194
 50
157.3788530321768064
 51
158.5078706472617114
  0
ARC
  5
1411F
  8
0
 10
4567.4988289956600056
 20
255.4964557794079951
 30
0.0
 40
0.9369296622062194
 50
138.6653114845549055
 51
140.5091042930461924
  0
LINE
  5
14120
  8
0
 10
4566.7661187731582686
 20
256.1089476396059013
 30
0.0
 11
4566.7813428655426833
 21
256.0827067630035003
 31
0.0
  0
LINE
  5
14121
  8
0
 10
4566.6370355154349454
 20
255.8515641266426996
 30
0.0
 11
4566.6244754251074482
 21
255.8732135216384052
 31
0.0
  0
LINE
  5
14122
  8
0
 10
4542.4056184692735769
 20
256.3160713350882247
 30
0.0
 11
4542.4056184692735769
 21
255.6389059806882074
 31
0.0
  0
LINE
  5
14123
  8
0
 10
4542.3898704377743343
 20
256.3318193664882187
 30
0.0
 11
4541.449158406285278
 21
256.3318193664882187
 31
0.0
  0
LINE
  5
14124
  8
0
 10
4542.4056184692735769
 20
256.3160713350882247
 30
0.0
 11
4542.3898704377743343
 21
256.3318193664882187
 31
0.0
  0
LINE
  5
14125
  8
0
 10
4542.3898704377743343
 20
255.6231579491881973
 30
0.0
 11
4542.4056184692735769
 21
255.6389059806882074
 31
0.0
  0
LINE
  5
14126
  8
0
 10
4541.8869900595018407
 20
255.6231579491881973
 30
0.0
 11
4542.3898704377743343
 21
255.6231579491881973
 31
0.0
  0
LINE
  5
14127
  8
0
 10
4541.449158406285278
 20
256.3318193664882187
 30
0.0
 11
4541.8869900595018407
 21
255.6231579491881973
 31
0.0
  0
LINE
  5
14128
  8
0
 10
4541.6395868679528576
 20
255.9696443135177049
 30
0.0
 11
4541.6638963193117888
 21
255.9842509056971949
 31
0.0
  0
LINE
  5
14129
  8
0
 10
4541.1168087718742754
 20
266.3711894452882234
 30
0.0
 11
4541.7546040474753681
 21
266.3711894452882234
 31
0.0
  0
LINE
  5
1412A
  8
0
 10
4541.1168087718742754
 20
265.6625280279881736
 30
0.0
 11
4541.7546040474753681
 21
265.6625280279881736
 31
0.0
  0
LINE
  5
1412B
  8
0
 10
4541.7703520789727918
 20
265.678276059488212
 30
0.0
 11
4541.7703520789727918
 21
266.3554414137882986
 31
0.0
  0
LINE
  5
1412C
  8
0
 10
4541.1010607403732138
 20
265.678276059488212
 30
0.0
 11
4541.1010607403732138
 21
266.3554414137882986
 31
0.0
  0
LINE
  5
1412D
  8
0
 10
4541.1010607403732138
 20
266.3554414137882986
 30
0.0
 11
4541.1168087718742754
 21
266.3711894452882234
 31
0.0
  0
LINE
  5
1412E
  8
0
 10
4541.1168087718742754
 20
265.6625280279881736
 30
0.0
 11
4541.1010607403732138
 21
265.678276059488212
 31
0.0
  0
LINE
  5
1412F
  8
0
 10
4541.7703520789727918
 20
266.3554414137882986
 30
0.0
 11
4541.7546040474753681
 21
266.3711894452882234
 31
0.0
  0
LINE
  5
14130
  8
0
 10
4541.7546040474753681
 20
265.6625280279881736
 30
0.0
 11
4541.7703520789727918
 21
265.678276059488212
 31
0.0
  0
ARC
  5
14131
  8
0
 10
4541.0052904203921571
 20
266.1208884553316807
 30
0.0
 40
0.0930813476247474
 50
8.7005956633477233
 51
21.2693761384176803
  0
ARC
  5
14132
  8
0
 10
4542.0528582942542926
 20
266.0168587365881763
 30
0.0
 40
0.970657282825432
 50
171.838675309251613
 51
188.1613246907483017
  0
ARC
  5
14133
  8
0
 10
4541.0138160683118258
 20
265.9095102550614911
 30
0.0
 40
0.0839325302773514
 50
338.7306238615822735
 51
352.6333061717534179
  0
LINE
  5
14134
  8
0
 10
4541.0894136758115565
 20
265.8987485003881943
 30
0.0
 11
4541.1010607403732138
 21
265.8987485003881943
 31
0.0
  0
LINE
  5
14135
  8
0
 10
4541.2345892122466466
 20
263.8948114321856906
 30
0.0
 11
4567.2212406107482821
 21
263.8948114321856906
 31
0.0
  0
LINE
  5
14136
  8
0
 10
4541.2345892122466466
 20
264.4853626132857016
 30
0.0
 11
4567.2212406107482821
 21
264.4853626132857016
 31
0.0
  0
LINE
  5
14137
  8
0
 10
4567.2606406107461225
 20
263.9342114321856911
 30
0.0
 11
4567.2606406107461225
 21
264.4459626132857011
 31
0.0
  0
LINE
  5
14138
  8
0
 10
4541.1951892122469872
 20
263.9342114321856911
 30
0.0
 11
4541.1951892122469872
 21
264.4459626132857011
 31
0.0
  0
ARC
  5
14139
  8
0
 10
4541.2345892122466466
 20
263.9342114321856911
 30
0.0
 40
0.0394
 50
179.9999999999917861
 51
270.0
  0
ARC
  5
1413A
  8
0
 10
4541.2345892122466466
 20
264.4459626132857011
 30
0.0
 40
0.0394
 50
90.0
 51
180.0000000000015916
  0
ARC
  5
1413B
  8
0
 10
4567.2212406107482821
 20
263.9342114321856911
 30
0.0
 40
0.0394
 50
270.0
 51
0.0000000000081422
  0
ARC
  5
1413C
  8
0
 10
4567.2212406107482821
 20
264.4459626132857011
 30
0.0
 40
0.0394
 50
359.9999999999919282
 51
90.0
  0
LINE
  5
1413D
  8
0
 10
4567.2828120021449649
 20
264.3081972589857855
 30
0.0
 11
4567.2606406107461225
 21
264.3081972589857855
 31
0.0
  0
LINE
  5
1413E
  8
0
 10
4541.0894136758115565
 20
266.1349689728883163
 30
0.0
 11
4541.1010607403732138
 21
266.1349689728883163
 31
0.0
  0
LINE
  5
1413F
  8
0
 10
4567.3021305360925908
 20
265.8987485003881943
 30
0.0
 11
4567.2904834715309335
 21
265.8987485003881943
 31
0.0
  0
LINE
  5
14140
  8
0
 10
4567.3021305360925908
 20
266.1349689728883163
 30
0.0
 11
4567.2904834715309335
 21
266.1349689728883163
 31
0.0
  0
LINE
  5
14141
  8
0
 10
4567.2828120021449649
 20
264.0719767864857772
 30
0.0
 11
4567.2606406107461225
 21
264.0719767864857772
 31
0.0
  0
ENDSEC
  0
EOF
