  0
SECTION
  2
HEADER
  9
$ACADVER
  1
AC1009
  9
$INSBASE
 10
4631.2207784366592023
 20
268.8797954561351844
 30
0.0
  9
$EXTMIN
 10
4597.5091521400472629
 20
253.0666537437658974
 30
-0.0000000000112498
  9
$EXTMAX
 10
4664.7762263294644072
 20
284.692925611676003
 30
0.0000000000002956
  9
$LIMMIN
 10
0.0
 20
0.0
  9
$LIMMAX
 10
11.6929133858000007
 20
8.2677165353999982
  9
$ORTHOMODE
 70
     0
  9
$REGENMODE
 70
     1
  9
$FILLMODE
 70
     1
  9
$QTEXTMODE
 70
     0
  9
$MIRRTEXT
 70
     0
  9
$DRAGMODE
 70
     2
  9
$LTSCALE
 40
0.6431102362
  9
$OSMODE
 70
  4095
  9
$ATTMODE
 70
     1
  9
$TEXTSIZE
 40
0.2
  9
$TRACEWID
 40
0.05
  9
$TEXTSTYLE
  7
STANDARD
  9
$CLAYER
  8
0
  9
$CELTYPE
  6
BYLAYER
  9
$CECOLOR
 62
   256
  9
$DIMSCALE
 40
1.0
  9
$DIMASZ
 40
0.1875
  9
$DIMEXO
 40
0.0625
  9
$DIMDLI
 40
0.4443307087
  9
$DIMRND
 40
0.0
  9
$DIMDLE
 40
0.0
  9
$DIMEXE
 40
0.125
  9
$DIMTP
 40
0.01
  9
$DIMTM
 40
0.01
  9
$DIMTXT
 40
2.0
  9
$DIMCEN
 40
0.1052362205
  9
$DIMTSZ
 40
0.0
  9
$DIMTOL
 70
     1
  9
$DIMLIM
 70
     0
  9
$DIMTIH
 70
     1
  9
$DIMTOH
 70
     1
  9
$DIMSE1
 70
     0
  9
$DIMSE2
 70
     0
  9
$DIMTAD
 70
     0
  9
$DIMZIN
 70
     0
  9
$DIMBLK
  1

  9
$DIMASO
 70
     1
  9
$DIMSHO
 70
     1
  9
$DIMPOST
  1
\X
  9
$DIMAPOST
  1

  9
$DIMALT
 70
     1
  9
$DIMALTD
 70
     2
  9
$DIMALTF
 40
25.3999999999999986
  9
$DIMLFAC
 40
1.0
  9
$DIMTOFL
 70
     0
  9
$DIMTVP
 40
0.0
  9
$DIMTIX
 70
     0
  9
$DIMSOXD
 70
     0
  9
$DIMSAH
 70
     0
  9
$DIMBLK1
  1

  9
$DIMBLK2
  1

  9
$DIMSTYLE
  2
STANDARD
  9
$DIMCLRD
 70
     0
  9
$DIMCLRE
 70
     0
  9
$DIMCLRT
 70
     0
  9
$DIMTFAC
 40
1.0
  9
$DIMGAP
 40
0.09
  9
$LUNITS
 70
     2
  9
$LUPREC
 70
     4
  9
$SKETCHINC
 40
0.1
  9
$FILLETRAD
 40
0.0
  9
$AUNITS
 70
     0
  9
$AUPREC
 70
     0
  9
$MENU
  1
.
  9
$ELEVATION
 40
0.0
  9
$PELEVATION
 40
0.0
  9
$THICKNESS
 40
0.0
  9
$LIMCHECK
 70
     0
  9
$BLIPMODE
 70
     0
  9
$CHAMFERA
 40
0.0
  9
$CHAMFERB
 40
0.0
  9
$SKPOLY
 70
     0
  9
$TDCREATE
 40
2458060.468368056230247
  9
$TDUPDATE
 40
2459268.4694907409138978
  9
$TDINDWG
 40
0.6599376157
  9
$TDUSRTIMER
 40
0.6599376157
  9
$USRTIMER
 70
     1
  9
$ANGBASE
 50
0.0
  9
$ANGDIR
 70
     0
  9
$PDMODE
 70
     0
  9
$PDSIZE
 40
0.3125
  9
$PLINEWID
 40
0.0
  9
$COORDS
 70
     1
  9
$SPLFRAME
 70
     0
  9
$SPLINETYPE
 70
     6
  9
$SPLINESEGS
 70
     8
  9
$ATTDIA
 70
     1
  9
$ATTREQ
 70
     1
  9
$HANDLING
 70
     1
  9
$HANDSEED
  5
14426
  9
$SURFTAB1
 70
     6
  9
$SURFTAB2
 70
     6
  9
$SURFTYPE
 70
     6
  9
$SURFU
 70
     6
  9
$SURFV
 70
     6
  9
$UCSNAME
  2

  9
$UCSORG
 10
0.0
 20
0.0
 30
0.0
  9
$UCSXDIR
 10
1.0
 20
0.0
 30
0.0
  9
$UCSYDIR
 10
0.0
 20
1.0
 30
0.0
  9
$PUCSNAME
  2

  9
$PUCSORG
 10
0.0
 20
0.0
 30
0.0
  9
$PUCSXDIR
 10
1.0
 20
0.0
 30
0.0
  9
$PUCSYDIR
 10
0.0
 20
1.0
 30
0.0
  9
$USERI1
 70
     0
  9
$USERI2
 70
     0
  9
$USERI3
 70
     0
  9
$USERI4
 70
     0
  9
$USERI5
 70
     0
  9
$USERR1
 40
0.0
  9
$USERR2
 40
0.0
  9
$USERR3
 40
0.0
  9
$USERR4
 40
0.0
  9
$USERR5
 40
0.0
  9
$WORLDVIEW
 70
     1
  9
$SHADEDGE
 70
     3
  9
$SHADEDIF
 70
    70
  9
$TILEMODE
 70
     1
  9
$MAXACTVP
 70
    64
  9
$PLIMCHECK
 70
     0
  9
$PEXTMIN
 10
1.0000000000000000E+20
 20
1.0000000000000000E+20
 30
1.0000000000000000E+20
  9
$PEXTMAX
 10
-1.0000000000000000E+20
 20
-1.0000000000000000E+20
 30
-1.0000000000000000E+20
  9
$PLIMMIN
 10
0.0
 20
0.0
  9
$PLIMMAX
 10
12.0
 20
9.0
  9
$UNITMODE
 70
     0
  9
$VISRETAIN
 70
     1
  9
$PLINEGEN
 70
     0
  9
$PSLTSCALE
 70
     1
  0
ENDSEC
  0
SECTION
  2
TABLES
  0
TABLE
  2
VPORT
 70
     1
  0
VPORT
  2
*ACTIVE
 70
     0
 10
0.0
 20
0.0
 11
1.0
 21
1.0
 12
469.5862927503812898
 22
42.7689574633654885
 13
0.0
 23
0.0
 14
1.0
 24
1.0
 15
0.0
 25
0.0
 16
0.0
 26
0.0
 36
202.37134017897489
 17
4161.556396484375
 27
226.1108322143554972
 37
0.0
 40
32.0334770850935797
 41
2.9182795698924728
 42
50.0
 43
0.0
 44
0.0
 50
0.0
 51
0.0
 71
     0
 72
   100
 73
     1
 74
     1
 75
     0
 76
     0
 77
     0
 78
     0
  0
ENDTAB
  0
TABLE
  2
LTYPE
 70
     2
  0
LTYPE
  2
CONTINUOUS
 70
     0
  3
Solid line
 72
    65
 73
     0
 40
0.0
  0
LTYPE
  2
PHANTOM2
 70
     0
  3
___ _ _ ___ _ _ ___ _ _ ___ _ _
 72
    65
 73
     6
 40
1.25
 49
0.625
 49
-0.125
 49
0.125
 49
-0.125
 49
0.125
 49
-0.125
  0
ENDTAB
  0
TABLE
  2
LAYER
 70
     2
  0
LAYER
  2
0
 70
     0
 62
   255
  6
CONTINUOUS
  0
LAYER
  2
DEFPOINTS
 70
     0
 62
     7
  6
CONTINUOUS
  0
ENDTAB
  0
TABLE
  2
STYLE
 70
     1
  0
STYLE
  2
STANDARD
 70
     0
 40
0.0
 41
0.8
 50
0.0
 71
     0
 42
0.2
  3
txt
  4

  0
ENDTAB
  0
TABLE
  2
VIEW
 70
     0
  0
ENDTAB
  0
TABLE
  2
UCS
 70
     0
  0
ENDTAB
  0
TABLE
  2
APPID
 70
     9
  0
APPID
  2
ACAD
 70
     0
  0
APPID
  2
ACAD_MLEADERVER
 70
     0
  0
APPID
  2
ACAD_EXEMPT_FROM_CAD_STANDARDS
 70
     0
  0
APPID
  2
ACAD_NAV_VCDISPLAY
 70
     0
  0
APPID
  2
ACAECLAYERSTANDARD
 70
     0
  0
APPID
  2
ACCMTRANSPARENCY
 70
     0
  0
APPID
  2
ACAD_DSTYLE_DIMJAG
 70
     0
  0
APPID
  2
ACAD_DSTYLE_DIMTALN
 70
     0
  0
APPID
  2
ACDBATTR
 70
     0
  0
ENDTAB
  0
TABLE
  2
DIMSTYLE
 70
     1
  0
DIMSTYLE
  2
STANDARD
 70
     0
  3

  4

  5

  6

  7

 40
1.0
 41
0.1875
 42
0.0625
 43
0.38
 44
0.125
 45
0.0
 46
0.0
 47
0.01
 48
0.01
140
0.15625
141
0.09
142
0.0
143
25.3999999999999986
144
1.0
145
0.0
146
1.0
147
0.09
 71
     1
 72
     0
 73
     1
 74
     1
 75
     0
 76
     0
 77
     0
 78
     4
170
     0
171
     2
172
     0
173
     0
174
     0
175
     0
176
     0
177
     0
178
     0
  0
ENDTAB
  0
ENDSEC
  0
SECTION
  2
BLOCKS
  0
BLOCK
  8
0
  2
$MODEL_SPACE
 70
     0
 10
0.0
 20
0.0
 30
0.0
  3
$MODEL_SPACE
  1

  0
ENDBLK
  5
21
  8
0
  0
BLOCK
 67
     1
  8
0
  2
$PAPER_SPACE
 70
     0
 10
0.0
 20
0.0
 30
0.0
  3
$PAPER_SPACE
  1

  0
ENDBLK
  5
1D
 67
     1
  8
0
  0
ENDSEC
  0
SECTION
  2
ENTITIES
  0
ATTDEF
  5
3930
  8
DEFPOINTS
 10
4631.213934876897838
 20
268.8767950920886847
 30
0.0
 40
0.001
  1
K-99024T
  3

  2
MODELNUMBER
 70
     0
1001
ACDBATTR
1070
     0
1070
     1
  0
ATTDEF
  5
3931
  8
DEFPOINTS
 10
4631.213934876897838
 20
268.8751284254220764
 30
0.0
 40
0.001
  1
ALEUTIAN
  3

  2
TRADENAME
 70
     0
1001
ACDBATTR
1070
     0
1070
     1
  0
ATTDEF
  5
3932
  8
DEFPOINTS
 10
4631.213934876897838
 20
268.8734617587554112
 30
0.0
 40
0.001
  1
BATH
  3

  2
PRODUCT
 70
     0
1001
ACDBATTR
1070
     0
1070
     1
  0
LINE
  5
14257
  8
0
 10
4664.7444004839080662
 20
253.3089088419897905
 30
0.0
 11
4664.7444004839080662
 21
284.4506820702806067
 31
0.0
  0
LINE
  5
14258
  8
0
 10
4597.6971563894094288
 20
256.6160088419898102
 30
0.0
 11
4597.6971563894094288
 21
284.4506820702977734
 31
0.0
  0
LINE
  5
14259
  8
0
 10
4664.5082004839068759
 20
253.0727088419897939
 30
0.0
 11
4601.2404563894069724
 21
253.0727088419897939
 31
0.0
  0
LINE
  5
1425A
  8
0
 10
4664.5082004839086949
 20
284.6868820702804896
 30
0.0
 11
4597.9333563894078907
 21
284.6868820702978837
 31
0.0
  0
ARC
  5
1425B
  8
0
 10
4664.5082004839068759
 20
253.3089088419897905
 30
0.0
 40
0.2362
 50
270.0
 51
359.9999999999984084
  0
ARC
  5
1425C
  8
0
 10
4664.5082004839068759
 20
284.4506820702806067
 30
0.0
 40
0.2362
 50
0.0
 51
90.0
  0
ARC
  5
1425D
  8
0
 10
4597.9333563894078907
 20
284.4506820702978871
 30
0.0
 40
0.2362
 50
89.9950339452785357
 51
180.0000000000032117
  0
ARC
  5
1425E
  8
0
 10
4601.2404563894069724
 20
256.6160088419898102
 30
0.0
 40
3.543299999999999
 50
180.0
 51
270.0
  0
LINE
  5
1425F
  8
0
 10
4664.5080003682023744
 20
253.1908190783481132
 30
0.0
 11
4601.3546883609669749
 21
253.1908422810356001
 31
0.0
  0
LINE
  5
14260
  8
0
 10
4597.8152896613501071
 20
284.4504820702978236
 30
0.0
 11
4597.8152896613501071
 21
256.7302422810353733
 31
0.0
  0
ARC
  5
14261
  8
0
 10
4598.0516896613507924
 20
284.4504820702978236
 30
0.0
 40
0.2364
 50
89.9999999999478888
 51
180.0
  0
ARC
  5
14262
  8
0
 10
4664.5080004839082903
 20
253.427219078348088
 30
0.0
 40
0.2364
 50
269.999971956370473
 51
0.0000000000032569
  0
ARC
  5
14263
  8
0
 10
4601.3546896613497665
 20
256.7302422810353733
 30
0.0
 40
3.5394000000000001
 50
180.0
 51
269.9999789494041238
  0
LINE
  5
14264
  8
0
 10
4641.5356882351316017
 20
280.4260453143859877
 30
0.0
 11
4641.5356882351316017
 21
279.5921583864956119
 31
0.0
  0
LINE
  5
14265
  8
0
 10
4640.7876798285305995
 20
280.4260453143859877
 30
0.0
 11
4640.7876798285305995
 21
279.5828667930956044
 31
0.0
  0
ARC
  5
14266
  8
0
 10
4641.1616840318311006
 20
276.8507815027962238
 30
0.0
 40
3.7525148083037552
 50
82.7672776990979884
 51
97.2327223009020258
  0
ARC
  5
14267
  8
0
 10
4641.1666894041991327
 20
274.5966921341039892
 30
0.0
 40
5.8469309604097033
 50
87.3322991642149731
 51
90.0490491077533903
  0
ARC
  5
14268
  8
0
 10
4641.3316284281372646
 20
278.4272434268239067
 30
0.0
 40
2.0128995803511698
 50
83.6212880282072319
 51
86.9472771665104034
  0
ARC
  5
14269
  8
0
 10
4641.5447146405640524
 20
280.3333427609497903
 30
0.0
 40
0.0949265864115682
 50
58.8015173984870927
 51
83.6212880282072319
  0
ARC
  5
1426A
  8
0
 10
4641.5298613317963827
 20
280.5795322342844997
 30
0.0
 40
0.176978639752957
 50
271.8867662006661021
 51
291.2089833148467051
  0
ARC
  5
1426B
  8
0
 10
4641.5341728896300992
 20
280.4628119613652757
 30
0.0
 40
0.0559499878298854
 50
271.5519846070986887
 51
303.7134305996888202
  0
ARC
  5
1426C
  8
0
 10
4641.5054406941198977
 20
280.2851057285943739
 30
0.0
 40
0.1441488140093196
 50
65.4960225103965996
 51
88.4057188490657637
  0
ARC
  5
1426D
  8
0
 10
4641.189477237930987
 20
276.394149836349527
 30
0.0
 40
4.0477157753231214
 50
85.4660096114320993
 51
90.3934184143199531
  0
LINE
  5
1426E
  8
0
 10
4641.6341249767310728
 20
280.5734374014955961
 30
0.0
 11
4641.6341249767310728
 21
280.4555629127955854
 31
0.0
  0
LINE
  5
1426F
  8
0
 10
4641.6341249767310728
 20
280.4555629127955854
 30
0.0
 11
4641.5938870258305542
 21
280.4145408725955804
 31
0.0
  0
ARC
  5
14270
  8
0
 10
4641.156678659463978
 20
274.5966921341039892
 30
0.0
 40
5.8469309604097033
 50
89.9509508922466381
 51
92.6677008357850269
  0
ARC
  5
14271
  8
0
 10
4640.9917396355258461
 20
278.4272434268239067
 30
0.0
 40
2.0128995803511698
 50
93.0527228334895966
 51
96.3787119717927681
  0
ARC
  5
14272
  8
0
 10
4640.7786534230990583
 20
280.3333427609497903
 30
0.0
 40
0.0949265864115682
 50
96.3787119717927681
 51
121.1984826015128931
  0
ARC
  5
14273
  8
0
 10
4640.7929538794369364
 20
280.5768264522811819
 30
0.0
 40
0.1742567387371974
 50
248.6386282391191003
 51
268.2656222453703094
  0
ARC
  5
14274
  8
0
 10
4640.7891951740321019
 20
280.4628119613652757
 30
0.0
 40
0.0559499878298854
 50
236.2865694003112083
 51
268.4480153929011976
  0
ARC
  5
14275
  8
0
 10
4640.8179273695423035
 20
280.2851057285943739
 30
0.0
 40
0.1441488140093196
 50
91.5942811509341936
 51
114.5039774896034004
  0
ARC
  5
14276
  8
0
 10
4641.1338908257321236
 20
276.394149836349527
 30
0.0
 40
4.0477157753231214
 50
89.6065815856800469
 51
94.533990388567787
  0
LINE
  5
14277
  8
0
 10
4640.6892430869311283
 20
280.5734374014955961
 30
0.0
 11
4640.6892430869311283
 21
280.4555629127955854
 31
0.0
  0
LINE
  5
14278
  8
0
 10
4640.6892430869311283
 20
280.4555629127955854
 30
0.0
 11
4640.729481037831647
 21
280.4145408725955804
 31
0.0
  0
LINE
  5
14279
  8
0
 10
4640.178388235131024
 20
278.234858386495489
 30
0.0
 11
4635.4520665386316978
 21
278.234858386495489
 31
0.0
  0
LINE
  5
1427A
  8
0
 10
4640.1876798285311452
 20
278.9828667930955817
 30
0.0
 11
4635.4427749452306671
 21
278.9828667930955817
 31
0.0
  0
ARC
  5
1427B
  8
0
 10
4640.1876798285311452
 20
279.5828667930956044
 30
0.0
 40
0.6
 50
270.0
 51
359.9999999999984084
  0
ARC
  5
1427C
  8
0
 10
4640.178388235131024
 20
279.5921583864956119
 30
0.0
 40
1.3572999999999991
 50
270.0
 51
0.0
  0
LINE
  5
1427D
  8
0
 10
4634.0947665386302106
 20
280.4260453143859877
 30
0.0
 11
4634.0947665386302106
 21
279.5921583864956119
 31
0.0
  0
LINE
  5
1427E
  8
0
 10
4634.8427749452312128
 20
280.4260453143859877
 30
0.0
 11
4634.8427749452312128
 21
279.5828667930956044
 31
0.0
  0
ARC
  5
1427F
  8
0
 10
4634.4687707419307117
 20
276.8507815027962238
 30
0.0
 40
3.7525148083037552
 50
82.7672776990979884
 51
97.2327223009020258
  0
ARC
  5
14280
  8
0
 10
4634.4637653695626796
 20
274.5966921341039892
 30
0.0
 40
5.8469309604097033
 50
89.9509508922466381
 51
92.6677008357850269
  0
ARC
  5
14281
  8
0
 10
4634.2988263456263667
 20
278.4272434268239067
 30
0.0
 40
2.0128995803511698
 50
93.0527228334895966
 51
96.3787119717927681
  0
ARC
  5
14282
  8
0
 10
4634.0857401331986694
 20
280.3333427609497903
 30
0.0
 40
0.0949265864115682
 50
96.3787119717927681
 51
121.1984826015128931
  0
ARC
  5
14283
  8
0
 10
4634.1007176194352724
 20
280.580139986259212
 30
0.0
 40
0.1775901812041629
 50
248.8246024899324027
 51
268.0796479945834108
  0
ARC
  5
14284
  8
0
 10
4634.096281884131713
 20
280.4628119613652757
 30
0.0
 40
0.0559499878298854
 50
236.2865694003112083
 51
268.4480153929011976
  0
ARC
  5
14285
  8
0
 10
4634.1250140796419146
 20
280.2851057285943739
 30
0.0
 40
0.1441488140093196
 50
91.5942811509341936
 51
114.5039774896034004
  0
ARC
  5
14286
  8
0
 10
4634.4409775358326442
 20
276.394149836349527
 30
0.0
 40
4.0477157753231214
 50
89.6065815856800469
 51
94.533990388567787
  0
LINE
  5
14287
  8
0
 10
4633.9963297970307394
 20
280.5734374014955961
 30
0.0
 11
4633.9963297970307394
 21
280.4555629127955854
 31
0.0
  0
LINE
  5
14288
  8
0
 10
4633.9963297970307394
 20
280.4555629127955854
 30
0.0
 11
4634.0365677479312581
 21
280.4145408725955804
 31
0.0
  0
ARC
  5
14289
  8
0
 10
4634.4737761142978343
 20
274.5966921341039892
 30
0.0
 40
5.8469309604097033
 50
87.3322991642149731
 51
90.0490491077533903
  0
ARC
  5
1428A
  8
0
 10
4634.6387151382359662
 20
278.4272434268239067
 30
0.0
 40
2.0128995803511698
 50
83.6212880282072319
 51
86.9472771665104034
  0
ARC
  5
1428B
  8
0
 10
4634.851801350662754
 20
280.3333427609497903
 30
0.0
 40
0.0949265864115682
 50
58.8015173984870927
 51
83.6212880282072319
  0
ARC
  5
1428C
  8
0
 10
4634.8369136187220647
 20
280.5797007089018962
 30
0.0
 40
0.1771481587417995
 50
271.8960997352962181
 51
291.1996497802006161
  0
ARC
  5
1428D
  8
0
 10
4634.8412595997297103
 20
280.4628119613652757
 30
0.0
 40
0.0559499878298854
 50
271.5519846070986887
 51
303.7134305996888202
  0
ARC
  5
1428E
  8
0
 10
4634.8125274042204182
 20
280.2851057285943739
 30
0.0
 40
0.1441488140093196
 50
65.4960225103965996
 51
88.4057188490657637
  0
ARC
  5
1428F
  8
0
 10
4634.4965639480296886
 20
276.394149836349527
 30
0.0
 40
4.0477157753231214
 50
85.4660096114320993
 51
90.3934184143199531
  0
LINE
  5
14290
  8
0
 10
4634.9412116868315934
 20
280.5734374014955961
 30
0.0
 11
4634.9412116868315934
 21
280.4555629127955854
 31
0.0
  0
LINE
  5
14291
  8
0
 10
4634.9412116868315934
 20
280.4555629127955854
 30
0.0
 11
4634.9009737359310748
 21
280.4145408725955804
 31
0.0
  0
ARC
  5
14292
  8
0
 10
4635.4427749452306671
 20
279.5828667930956044
 30
0.0
 40
0.6
 50
180.0000000000015916
 51
270.0
  0
ARC
  5
14293
  8
0
 10
4635.4520665386316978
 20
279.5921583864956119
 30
0.0
 40
1.3572999999999991
 50
180.0
 51
270.0
  0
LINE
  5
14294
  8
0
 10
4658.1751332535914116
 20
258.7956850757290113
 30
0.0
 11
4638.7995185941108502
 21
258.7956849873954752
 31
0.0
  0
LINE
  5
14295
  8
0
 10
4661.0151332406430811
 20
261.6356850757289862
 30
0.0
 11
4661.0151332406430811
 21
279.9856621600881112
 31
0.0
  0
LINE
  5
14296
  8
0
 10
4638.7995163201167088
 20
259.0839408257954801
 30
0.0
 11
4657.8421247182650404
 21
259.0839409140962744
 31
0.0
  0
ARC
  5
14297
  8
0
 10
4658.1751332406429356
 20
261.6356850757289862
 30
0.0
 40
2.839999999999999
 50
270.0000002612284788
 51
0.0
  0
LINE
  5
14298
  8
0
 10
4658.1759560184109432
 20
282.8256620409043762
 30
0.0
 11
4602.4274293207017763
 21
282.8446630956216268
 31
0.0
  0
ARC
  5
14299
  8
0
 10
4658.1751332406429356
 20
279.9856621600881112
 30
0.0
 40
2.839999999999999
 50
0.0
 51
89.9834008118501458
  0
LINE
  5
1429A
  8
0
 10
4599.5863161579727603
 20
280.0046633137786216
 30
0.0
 11
4599.5863161579727603
 21
257.9086413090955148
 31
0.0
  0
ARC
  5
1429B
  8
0
 10
4602.4263161579729058
 20
280.0046633137786216
 30
0.0
 40
2.839999999999999
 50
89.9775424197159737
 51
180.0
  0
LINE
  5
1429C
  8
0
 10
4602.4263161579729058
 20
255.0686413090955114
 30
0.0
 11
4631.1074246745229175
 21
255.0686413090955114
 31
0.0
  0
ARC
  5
1429D
  8
0
 10
4602.4263161579729058
 20
257.9086413090955148
 30
0.0
 40
2.839999999999999
 50
180.0
 51
270.0
  0
ARC
  5
1429E
  8
0
 10
4638.763705004127587
 20
251.2862548496869977
 30
0.0
 40
7.5095155373933551
 50
89.7267499716417376
 51
95.0802427140793327
  0
ARC
  5
1429F
  8
0
 10
4638.4836021767659986
 20
254.4370158011531942
 30
0.0
 40
4.3463285104882416
 50
95.0802427140793327
 51
132.7762259359406869
  0
ARC
  5
142A0
  8
0
 10
4611.1347106498924404
 20
283.9957250532067974
 30
0.0
 40
35.9237492197091584
 50
308.0033398468968926
 51
312.7762259359407153
  0
ARC
  5
142A1
  8
0
 10
4631.137854290956966
 20
258.9862284292959203
 30
0.0
 40
3.9177052985027081
 50
269.5549675148595838
 51
302.6804075177573736
  0
LINE
  5
142A2
  8
0
 10
4631.0303996300326617
 20
255.2964774486956117
 30
0.0
 11
4602.9556601027088618
 21
255.2964774486956117
 31
0.0
  0
ARC
  5
142A3
  8
0
 10
4638.7663098478487882
 20
251.1351171876229103
 30
0.0
 40
7.9488929984352676
 50
89.7606463883937948
 51
94.8175949835373473
  0
ARC
  5
142A4
  8
0
 10
4638.4933858207032245
 20
254.3733565532704972
 30
0.0
 40
4.6991727468098841
 50
94.8175949835373473
 51
136.0320411623966947
  0
ARC
  5
142A5
  8
0
 10
4620.9838430010349839
 20
271.2632126190766826
 30
0.0
 40
19.6288219851325607
 50
308.4923856934947253
 51
316.0320411623966947
  0
ARC
  5
142A6
  8
0
 10
4631.0566914947703481
 20
259.4076328873200055
 30
0.0
 40
4.111239509282246
 50
269.6335841903834876
 51
301.4382716204814869
  0
LINE
  5
142A7
  8
0
 10
4602.3173946668111967
 20
257.1518066665955757
 30
0.0
 11
4630.2430048747437468
 21
257.1518066665955757
 31
0.0
  0
ARC
  5
142A8
  8
0
 10
4602.5950711341083661
 20
261.5019311843880132
 30
0.0
 40
4.3589778091646716
 50
248.5688145181539994
 51
266.3476598840638871
  0
ARC
  5
142A9
  8
0
 10
4601.4038075976459368
 20
258.4670483434226753
 30
0.0
 40
1.0986675982043761
 50
182.5044350682894105
 51
248.5688145181539994
  0
ARC
  5
142AA
  8
0
 10
4601.8046001079774214
 20
257.7403304036627105
 30
0.0
 40
1.644956412616801
 50
155.6317034749930883
 51
196.7545660047628928
  0
ARC
  5
142AB
  8
0
 10
4602.9099225307381857
 20
258.104645800620176
 30
0.0
 40
2.8085407987495401
 50
197.3709902931400109
 51
270.9331129126811106
  0
LINE
  5
142AC
  8
0
 10
4637.1435285562911304
 20
260.8948524718497879
 30
0.0
 11
4658.4455420974181834
 21
260.8948525676289023
 31
0.0
  0
ARC
  5
142AD
  8
0
 10
4658.4908970738370044
 20
264.9163347696187998
 30
0.0
 40
4.0217379544593941
 50
269.3538356192323135
 51
291.6504328774378791
  0
ARC
  5
142AE
  8
0
 10
4659.5217237106598986
 20
262.2040933198042012
 30
0.0
 40
1.1213312683397609
 50
293.825509115215425
 51
359.1768912762518084
  0
ARC
  5
142AF
  8
0
 10
4657.8456478933812832
 20
261.9179608478543742
 30
0.0
 40
2.8340221237141741
 50
269.9287715099636102
 51
311.2385808946262955
  0
ARC
  5
142B0
  8
0
 10
4657.882639830014341
 20
261.8757579721432194
 30
0.0
 40
2.7779018414233381
 50
311.2386447130380134
 51
6.4534913668890432
  0
LINE
  5
142B1
  8
0
 10
4657.632719133331193
 20
262.3640474801372875
 30
0.0
 11
4637.9883324217671543
 21
262.3640473922221759
 31
0.0
  0
LINE
  5
142B2
  8
0
 10
4659.8428249510316164
 20
278.3022556018274827
 30
0.0
 11
4659.8428249510316164
 21
263.6699338085595059
 31
0.0
  0
LINE
  5
142B3
  8
0
 10
4612.0413137899950016
 20
258.4664096293892044
 30
0.0
 11
4629.64961810159366
 21
258.4664096293892044
 31
0.0
  0
LINE
  5
142B4
  8
0
 10
4609.5081792807313832
 20
259.7694591919830032
 30
0.0
 11
4609.5081792807313832
 21
278.3327563919959857
 31
0.0
  0
LINE
  5
142B5
  8
0
 10
4657.6327191357768243
 20
279.6081420011290106
 30
0.0
 11
4641.5356882351316017
 21
279.6081419123601108
 31
0.0
  0
LINE
  5
142B6
  8
0
 10
4640.7876798285305995
 20
279.6081419127954746
 30
0.0
 11
4634.8427749452312128
 21
279.6081419127954746
 31
0.0
  0
LINE
  5
142B7
  8
0
 10
4634.0947665386302106
 20
279.6081419127954746
 30
0.0
 11
4612.0429671007614161
 21
279.6081419127954746
 31
0.0
  0
ARC
  5
142B8
  8
0
 10
4658.7667471316854062
 20
278.3394024658211947
 30
0.0
 40
1.0767187946700929
 50
358.0228997762886252
 51
49.092818781512527
  0
ARC
  5
142B9
  8
0
 10
4658.2209109184041154
 20
277.4636096893281092
 30
0.0
 40
2.1022230030084992
 50
53.4844086559544323
 51
84.120406477634404
  0
ARC
  5
142BA
  8
0
 10
4657.6689661184736906
 20
274.0779653445479198
 30
0.0
 40
5.530295443893432
 50
82.0248521829585258
 51
90.3755340052243241
  0
ARC
  5
142BB
  8
0
 10
4612.2697629510457773
 20
265.1434950791140182
 30
0.0
 40
6.6809923755465936
 50
252.7236546448525871
 51
268.0404520674255764
  0
ARC
  5
142BC
  8
0
 10
4610.5276659376349926
 20
259.7543814846874284
 30
0.0
 40
1.0195981467535751
 50
179.1526853155324943
 51
256.2682510003240282
  0
ARC
  5
142BD
  8
0
 10
4611.8686523167898486
 20
274.4864522355600229
 30
0.0
 40
5.1246551877966571
 50
88.0507120939177241
 51
106.8651693439854
  0
ARC
  5
142BE
  8
0
 10
4610.7417072843791175
 20
278.2037880708501234
 30
0.0
 40
1.2402516533518619
 50
106.8651693439854
 51
174.0312737970945989
  0
ARC
  5
142BF
  8
0
 10
4657.9018419699759761
 20
279.7356273979223147
 30
0.0
 40
2.7644915804383898
 50
352.5421941391373934
 51
24.893239032352831
  0
ARC
  5
142C0
  8
0
 10
4657.8600476362043992
 20
279.7162331081914886
 30
0.0
 40
2.8105665715889279
 50
24.893239032352831
 51
90.2743882710270071
  0
ARC
  5
142C1
  8
0
 10
4658.4698526783622583
 20
276.3603529328908053
 30
0.0
 40
4.3516708400264053
 50
69.6672737025735387
 51
90.1705425458414851
  0
ARC
  5
142C2
  8
0
 10
4659.6187653861261424
 20
279.4779188180593792
 30
0.0
 40
1.0291615074475
 50
354.361798419551917
 51
69.3365782742303196
  0
ARC
  5
142C3
  8
0
 10
4602.6709128448273987
 20
275.6977545093184858
 30
0.0
 40
5.0252669107045431
 50
93.7946293694467954
 51
107.2846665277522931
  0
ARC
  5
142C4
  8
0
 10
4601.5500188404266737
 20
279.2999258901352846
 30
0.0
 40
1.2527290347015121
 50
107.2846665277522931
 51
172.7316460516541952
  0
ARC
  5
142C5
  8
0
 10
4602.9343982901136769
 20
279.7320887233503868
 30
0.0
 40
2.8428510866182961
 50
100.562704004688996
 51
162.2006521431314923
  0
ARC
  5
142C6
  8
0
 10
4601.696629467585808
 20
280.1294772757354963
 30
0.0
 40
1.5428551944752189
 50
162.2006521431314923
 51
205.7819196311590133
  0
LINE
  5
142C7
  8
0
 10
4658.4568998232962258
 20
280.712004495629003
 30
0.0
 11
4602.3383388162883421
 21
280.7120044072955807
 31
0.0
  0
LINE
  5
142C8
  8
0
 10
4657.8465879440418576
 20
282.526767450628995
 30
0.0
 11
4602.4132710448939179
 21
282.5267673622955726
 31
0.0
  0
CIRCLE
  5
142C9
  8
0
 10
4645.5711714066319473
 20
270.9860946687891783
 30
0.0
 40
1.3779527558999991
  0
CIRCLE
  5
142CA
  8
0
 10
4645.5711714066319473
 20
270.9860946687891783
 30
0.0
 40
1.7232955059999999
  0
ARC
  5
142CB
  8
0
 10
4629.8373213344293617
 20
261.9144644226814194
 30
0.0
 40
3.453160054379488
 50
266.8840407073309962
 51
292.5916440305119863
  0
ARC
  5
142CC
  8
0
 10
4630.0445219226721747
 20
261.4164922942890144
 30
0.0
 40
2.9138008749607329
 50
292.5916440305119863
 51
319.5453229789002876
  0
ARC
  5
142CD
  8
0
 10
4638.9764636776299085
 20
253.8001045323424023
 30
0.0
 40
8.8245527597843481
 50
108.5831221941023017
 51
139.5453229789002023
  0
ARC
  5
142CE
  8
0
 10
4637.6295339279440668
 20
257.2054274269606822
 30
0.0
 40
5.1710827014430416
 50
86.0213031351677841
 51
106.4608622693227034
  0
ARC
  5
142CF
  8
0
 10
4630.2906724620552268
 20
258.3547281785599807
 30
0.0
 40
1.2038655916783061
 50
267.7307552065967116
 51
299.7048242176741724
  0
ARC
  5
142D0
  8
0
 10
4628.5712163795151355
 20
261.3430443792938718
 30
0.0
 40
4.6515490481864878
 50
299.8612118129378814
 51
317.3364330027745268
  0
ARC
  5
142D1
  8
0
 10
4638.8576150483850142
 20
251.8631322793179947
 30
0.0
 40
9.3369723532417321
 50
128.6271420397251006
 51
137.3364330027744984
  0
ARC
  5
142D2
  8
0
 10
4644.678963795114214
 20
244.5779354881570953
 30
0.0
 40
18.6623245458934015
 50
122.9643084118738017
 51
128.6271420397251006
  0
ARC
  5
142D3
  8
0
 10
4636.9360755687775963
 20
256.1857179500988195
 30
0.0
 40
4.7137018028271171
 50
87.4775618812112441
 51
120.771319513838904
  0
LINE
  5
142D4
  8
0
 10
4660.6080772539316968
 20
274.8246773458891994
 30
0.0
 11
4660.6472799235316415
 21
274.8246773458891994
 31
0.0
  0
LINE
  5
142D5
  8
0
 10
4660.6472799235316415
 20
274.8246773458891994
 30
0.0
 11
4660.6472799235316415
 21
267.1475119915892265
 31
0.0
  0
LINE
  5
142D6
  8
0
 10
4660.6472799235316415
 20
267.1475119915892265
 30
0.0
 11
4660.6080772539316968
 21
267.1475119915892265
 31
0.0
  0
LINE
  5
142D7
  8
0
 10
4660.6080772539316968
 20
267.1475119915892265
 30
0.0
 11
4660.6080772539316968
 21
274.8246773458891994
 31
0.0
  0
ARC
  5
142D9
  8
0
 10
4658.7667471292370465
 20
263.6327870154451034
 30
0.0
 40
1.0767187946700929
 50
310.9071812184874943
 51
1.977096449823365
  0
ARC
  5
142DA
  8
0
 10
4658.2209109159557556
 20
264.5085797919381889
 30
0.0
 40
2.1022230030084992
 50
275.8795935223656102
 51
306.5155913440456175
  0
ARC
  5
142DB
  8
0
 10
4657.6689661160271498
 20
267.8942241367183215
 30
0.0
 40
5.530295443893432
 50
269.6244659947756759
 51
277.9751478170414885
  0
ENDSEC
  0
EOF
