  0
SECTION
  2
HEADER
  9
$ACADVER
  1
AC1009
  9
$INSBASE
 10
3669.8040042647121481
 20
206.2925656119336111
 30
0.0
  9
$EXTMIN
 10
3668.5441617450119338
 20
204.2479859937141953
 30
0.0
  9
$EXTMAX
 10
3671.0638467844119077
 20
207.552408131633598
 30
0.0
  9
$LIMMIN
 10
0.0
 20
0.0
  9
$LIMMAX
 10
11.6929133858000007
 20
8.2677165353999982
  9
$ORTHOMODE
 70
     0
  9
$REGENMODE
 70
     1
  9
$FILLMODE
 70
     1
  9
$QTEXTMODE
 70
     0
  9
$MIRRTEXT
 70
     0
  9
$DRAGMODE
 70
     2
  9
$LTSCALE
 40
0.6431102362
  9
$OSMODE
 70
  4095
  9
$ATTMODE
 70
     1
  9
$TEXTSIZE
 40
0.2
  9
$TRACEWID
 40
0.05
  9
$TEXTSTYLE
  7
STANDARD
  9
$CLAYER
  8
0
  9
$CELTYPE
  6
BYLAYER
  9
$CECOLOR
 62
   256
  9
$DIMSCALE
 40
1.0
  9
$DIMASZ
 40
0.1875
  9
$DIMEXO
 40
0.0625
  9
$DIMDLI
 40
0.4443307087
  9
$DIMRND
 40
0.0
  9
$DIMDLE
 40
0.0
  9
$DIMEXE
 40
0.125
  9
$DIMTP
 40
0.01
  9
$DIMTM
 40
0.01
  9
$DIMTXT
 40
2.0
  9
$DIMCEN
 40
0.1052362205
  9
$DIMTSZ
 40
0.0
  9
$DIMTOL
 70
     1
  9
$DIMLIM
 70
     0
  9
$DIMTIH
 70
     1
  9
$DIMTOH
 70
     1
  9
$DIMSE1
 70
     0
  9
$DIMSE2
 70
     0
  9
$DIMTAD
 70
     0
  9
$DIMZIN
 70
     0
  9
$DIMBLK
  1

  9
$DIMASO
 70
     1
  9
$DIMSHO
 70
     1
  9
$DIMPOST
  1
\X
  9
$DIMAPOST
  1

  9
$DIMALT
 70
     1
  9
$DIMALTD
 70
     2
  9
$DIMALTF
 40
25.3999999999999986
  9
$DIMLFAC
 40
1.0
  9
$DIMTOFL
 70
     0
  9
$DIMTVP
 40
0.0
  9
$DIMTIX
 70
     0
  9
$DIMSOXD
 70
     0
  9
$DIMSAH
 70
     0
  9
$DIMBLK1
  1

  9
$DIMBLK2
  1

  9
$DIMSTYLE
  2
STANDARD
  9
$DIMCLRD
 70
     0
  9
$DIMCLRE
 70
     0
  9
$DIMCLRT
 70
     0
  9
$DIMTFAC
 40
1.0
  9
$DIMGAP
 40
0.09
  9
$LUNITS
 70
     2
  9
$LUPREC
 70
     4
  9
$SKETCHINC
 40
0.1
  9
$FILLETRAD
 40
0.0
  9
$AUNITS
 70
     0
  9
$AUPREC
 70
     0
  9
$MENU
  1
.
  9
$ELEVATION
 40
0.0
  9
$PELEVATION
 40
0.0
  9
$THICKNESS
 40
0.0
  9
$LIMCHECK
 70
     0
  9
$BLIPMODE
 70
     0
  9
$CHAMFERA
 40
0.0
  9
$CHAMFERB
 40
0.0
  9
$SKPOLY
 70
     0
  9
$TDCREATE
 40
2458060.468368056230247
  9
$TDUPDATE
 40
2459399.7814814820885658
  9
$TDINDWG
 40
0.7000533565
  9
$TDUSRTIMER
 40
0.7000533565
  9
$USRTIMER
 70
     1
  9
$ANGBASE
 50
0.0
  9
$ANGDIR
 70
     0
  9
$PDMODE
 70
     0
  9
$PDSIZE
 40
0.3125
  9
$PLINEWID
 40
0.0
  9
$COORDS
 70
     1
  9
$SPLFRAME
 70
     0
  9
$SPLINETYPE
 70
     6
  9
$SPLINESEGS
 70
     8
  9
$ATTDIA
 70
     1
  9
$ATTREQ
 70
     1
  9
$HANDLING
 70
     1
  9
$HANDSEED
  5
CB7D
  9
$SURFTAB1
 70
     6
  9
$SURFTAB2
 70
     6
  9
$SURFTYPE
 70
     6
  9
$SURFU
 70
     6
  9
$SURFV
 70
     6
  9
$UCSNAME
  2

  9
$UCSORG
 10
0.0
 20
0.0
 30
0.0
  9
$UCSXDIR
 10
1.0
 20
0.0
 30
0.0
  9
$UCSYDIR
 10
0.0
 20
1.0
 30
0.0
  9
$PUCSNAME
  2

  9
$PUCSORG
 10
0.0
 20
0.0
 30
0.0
  9
$PUCSXDIR
 10
1.0
 20
0.0
 30
0.0
  9
$PUCSYDIR
 10
0.0
 20
1.0
 30
0.0
  9
$USERI1
 70
     0
  9
$USERI2
 70
     0
  9
$USERI3
 70
     0
  9
$USERI4
 70
     0
  9
$USERI5
 70
     0
  9
$USERR1
 40
0.0
  9
$USERR2
 40
0.0
  9
$USERR3
 40
0.0
  9
$USERR4
 40
0.0
  9
$USERR5
 40
0.0
  9
$WORLDVIEW
 70
     1
  9
$SHADEDGE
 70
     3
  9
$SHADEDIF
 70
    70
  9
$TILEMODE
 70
     1
  9
$MAXACTVP
 70
    64
  9
$PLIMCHECK
 70
     0
  9
$PEXTMIN
 10
1.0000000000000000E+20
 20
1.0000000000000000E+20
 30
1.0000000000000000E+20
  9
$PEXTMAX
 10
-1.0000000000000000E+20
 20
-1.0000000000000000E+20
 30
-1.0000000000000000E+20
  9
$PLIMMIN
 10
0.0
 20
0.0
  9
$PLIMMAX
 10
12.0
 20
9.0
  9
$UNITMODE
 70
     0
  9
$VISRETAIN
 70
     1
  9
$PLINEGEN
 70
     0
  9
$PSLTSCALE
 70
     1
  0
ENDSEC
  0
SECTION
  2
TABLES
  0
TABLE
  2
VPORT
 70
     1
  0
VPORT
  2
*ACTIVE
 70
     0
 10
0.0
 20
0.0
 11
1.0
 21
1.0
 12
399.7762771102288752
 22
12.9104766564696405
 13
0.0
 23
0.0
 14
1.0
 24
1.0
 15
0.0
 25
0.0
 16
0.0
 26
0.0
 36
116.782910842256598
 17
3270.0277271544828182
 27
193.0425872802734091
 37
0.0
 40
2.235165405587392
 41
2.009861932938855
 42
50.0
 43
0.0
 44
0.0
 50
0.0
 51
0.0
 71
     0
 72
   100
 73
     1
 74
     1
 75
     0
 76
     0
 77
     0
 78
     0
  0
ENDTAB
  0
TABLE
  2
LTYPE
 70
     2
  0
LTYPE
  2
CONTINUOUS
 70
     0
  3
Solid line
 72
    65
 73
     0
 40
0.0
  0
LTYPE
  2
PHANTOM2
 70
     0
  3
___ _ _ ___ _ _ ___ _ _ ___ _ _
 72
    65
 73
     6
 40
1.25
 49
0.625
 49
-0.125
 49
0.125
 49
-0.125
 49
0.125
 49
-0.125
  0
ENDTAB
  0
TABLE
  2
LAYER
 70
     2
  0
LAYER
  2
0
 70
     0
 62
   255
  6
CONTINUOUS
  0
LAYER
  2
DEFPOINTS
 70
     0
 62
     7
  6
CONTINUOUS
  0
ENDTAB
  0
TABLE
  2
STYLE
 70
     1
  0
STYLE
  2
STANDARD
 70
     0
 40
0.0
 41
0.8
 50
0.0
 71
     0
 42
0.2
  3
txt
  4

  0
ENDTAB
  0
TABLE
  2
VIEW
 70
     0
  0
ENDTAB
  0
TABLE
  2
UCS
 70
     0
  0
ENDTAB
  0
TABLE
  2
APPID
 70
     9
  0
APPID
  2
ACAD
 70
     0
  0
APPID
  2
ACAD_MLEADERVER
 70
     0
  0
APPID
  2
ACAD_EXEMPT_FROM_CAD_STANDARDS
 70
     0
  0
APPID
  2
ACAD_NAV_VCDISPLAY
 70
     0
  0
APPID
  2
ACAECLAYERSTANDARD
 70
     0
  0
APPID
  2
ACCMTRANSPARENCY
 70
     0
  0
APPID
  2
ACAD_DSTYLE_DIMJAG
 70
     0
  0
APPID
  2
ACAD_DSTYLE_DIMTALN
 70
     0
  0
APPID
  2
ACDBATTR
 70
     0
  0
ENDTAB
  0
TABLE
  2
DIMSTYLE
 70
     1
  0
DIMSTYLE
  2
STANDARD
 70
     0
  3

  4

  5

  6

  7

 40
1.0
 41
0.1875
 42
0.0625
 43
0.38
 44
0.125
 45
0.0
 46
0.0
 47
0.01
 48
0.01
140
0.15625
141
0.09
142
0.0
143
25.3999999999999986
144
1.0
145
0.0
146
1.0
147
0.09
 71
     1
 72
     0
 73
     1
 74
     1
 75
     0
 76
     0
 77
     0
 78
     4
170
     0
171
     2
172
     0
173
     0
174
     0
175
     0
176
     0
177
     0
178
     0
  0
ENDTAB
  0
ENDSEC
  0
SECTION
  2
BLOCKS
  0
BLOCK
  8
0
  2
$MODEL_SPACE
 70
     0
 10
0.0
 20
0.0
 30
0.0
  3
$MODEL_SPACE
  1

  0
ENDBLK
  5
21
  8
0
  0
BLOCK
 67
     1
  8
0
  2
$PAPER_SPACE
 70
     0
 10
0.0
 20
0.0
 30
0.0
  3
$PAPER_SPACE
  1

  0
ENDBLK
  5
1D
 67
     1
  8
0
  0
ENDSEC
  0
SECTION
  2
ENTITIES
  0
ATTDEF
  5
3930
  8
DEFPOINTS
 10
3669.8000198496488338
 20
206.2970470981373126
 30
0.0
 40
0.001
  1
K-99054IN
  3

  2
MODELNUMBER
 70
     0
1001
ACDBATTR
1070
     0
1070
     1
  0
ATTDEF
  5
3931
  8
DEFPOINTS
 10
3669.8000198496488338
 20
206.2953804314707043
 30
0.0
 40
0.001
  1
COMPLEMENTARY
  3

  2
TRADENAME
 70
     0
1001
ACDBATTR
1070
     0
1070
     1
  0
ATTDEF
  5
3932
  8
DEFPOINTS
 10
3669.8000198496488338
 20
206.2937137648040107
 30
0.0
 40
0.001
  1
SHOWER ARM
  3

  2
PRODUCT
 70
     0
1001
ACDBATTR
1070
     0
1070
     1
  0
LINE
  5
CA71
  8
0
 10
3669.3980042647121991
 20
206.2925656119336111
 30
0.0
 11
3669.3980042647121991
 21
204.5320488180933864
 31
0.0
  0
ARC
  5
CA72
  8
0
 10
3669.8040042647121481
 20
206.2925656119336111
 30
0.0
 40
1.2598425197000009
 50
288.799806609118491
 51
251.200193390881509
  0
ARC
  5
CA73
  8
0
 10
3669.8040042647121481
 20
206.2925656119336111
 30
0.0
 40
0.4507107874999994
 50
334.2633425216205865
 51
205.7366574783792998
  0
ARC
  5
CA74
  8
0
 10
3669.8040042647121481
 20
206.2925656119336111
 30
0.0
 40
0.4060000000000002
 50
0.0
 51
180.0
  0
ARC
  5
CA75
  8
0
 10
3669.8040042647121481
 20
206.2925656119336111
 30
0.0
 40
0.6447968818999997
 50
309.0247216088334881
 51
230.9752783911665119
  0
LINE
  5
CA76
  8
0
 10
3670.2100042647120972
 20
206.2925656119336111
 30
0.0
 11
3670.2100042647120972
 21
204.5320488180836094
 31
0.0
  0
ARC
  5
CA77
  8
0
 10
3669.8024789977789624
 20
204.799820127256595
 30
0.0
 40
0.5518341335424094
 50
253.0324005468424104
 51
270.1583654649231789
  0
ARC
  5
CA78
  8
0
 10
3669.723184521903022
 20
204.6042293244495909
 30
0.0
 40
0.3421317360928888
 50
203.2663755817218032
 51
256.176219663094912
  0
ARC
  5
CA79
  8
0
 10
3669.6063470249559941
 20
204.5356006407284895
 30
0.0
 40
0.2083730337402335
 50
180.9766825336220109
 51
198.6153874708739124
  0
ARC
  5
CA7A
  8
0
 10
3669.603761977286922
 20
204.5347731837522929
 30
0.0
 40
0.2057757479690719
 50
173.9154285221275984
 51
180.7585889792960074
  0
ARC
  5
CA7B
  8
0
 10
3669.6515684814921769
 20
204.5203064616283939
 30
0.0
 40
0.2550166423674077
 50
126.3082765435539017
 51
171.8214638652293047
  0
ARC
  5
CA7C
  8
0
 10
3669.8232081016740267
 20
204.2356840832318881
 30
0.0
 40
0.5867890508395782
 50
91.8754530526017845
 51
123.3563209083677066
  0
ARC
  5
CA7D
  8
0
 10
3669.6545057095349875
 20
204.4940973811893912
 30
0.0
 40
0.1735062808399381
 50
145.5114276822162935
 51
179.5449167964401909
  0
ARC
  5
CA7E
  8
0
 10
3669.7770876789591057
 20
204.3852829546094085
 30
0.0
 40
0.3367694818108973
 50
93.3678176811443876
 51
142.0593602928288135
  0
ARC
  5
CA7F
  8
0
 10
3669.8039742946798469
 20
204.2689212045740135
 30
0.0
 40
0.4549497618467062
 50
89.9962256133713936
 51
95.8879624812449549
  0
ARC
  5
CA80
  8
0
 10
3669.8150357750510011
 20
204.3019248473233915
 30
0.0
 40
0.5705288798555721
 50
91.107916526466866
 51
99.7988380867122089
  0
ARC
  5
CA81
  8
0
 10
3669.8019146046390233
 20
204.377897507482686
 30
0.0
 40
0.4934314726056516
 50
99.7988380867122089
 51
129.1147873236891996
  0
ARC
  5
CA82
  8
0
 10
3669.6551831073948051
 20
204.5622876663483112
 30
0.0
 40
0.2578087151901685
 50
129.6661269532849872
 51
175.9940675615534929
  0
ARC
  5
CA83
  8
0
 10
3669.8150357750510011
 20
204.3266735846233075
 30
0.0
 40
0.5705288798555721
 50
91.107916526466866
 51
99.7988380867122089
  0
ARC
  5
CA84
  8
0
 10
3669.8019146046390233
 20
204.402646244782602
 30
0.0
 40
0.4934314726056516
 50
99.7988380867122089
 51
129.1147873236891996
  0
ARC
  5
CA85
  8
0
 10
3669.6551831073948051
 20
204.5870364036483124
 30
0.0
 40
0.2578087151901685
 50
129.6661269532849872
 51
175.9940675615534929
  0
ARC
  5
CA86
  8
0
 10
3669.8150357754511788
 20
204.352145606207614
 30
0.0
 40
0.5705288798555721
 50
91.107916526466866
 51
99.7988380867122089
  0
ARC
  5
CA87
  8
0
 10
3669.801914605039201
 20
204.4281182663669085
 30
0.0
 40
0.4934314726056516
 50
99.7988380867122089
 51
129.1147873236891996
  0
ARC
  5
CA88
  8
0
 10
3669.6551831077949828
 20
204.6125084252325905
 30
0.0
 40
0.2578087151901685
 50
129.6661269532849872
 51
174.9347603002103142
  0
ARC
  5
CA89
  8
0
 10
3669.8150357754511788
 20
204.3768943435075869
 30
0.0
 40
0.5705288798555721
 50
91.107916526466866
 51
99.7988380867122089
  0
ARC
  5
CA8A
  8
0
 10
3669.801914605039201
 20
204.4528670036669098
 30
0.0
 40
0.4934314726056516
 50
99.7988380867122089
 51
129.1147873236891996
  0
ARC
  5
CA8B
  8
0
 10
3669.6551831077949828
 20
204.6372571625325918
 30
0.0
 40
0.2578087151901685
 50
129.6661269532849872
 51
175.9940688340543034
  0
ARC
  5
CA8C
  8
0
 10
3669.8150357726499351
 20
204.4023341629076072
 30
0.0
 40
0.5705288798555721
 50
91.107916526466866
 51
99.7988380867122089
  0
ARC
  5
CA8D
  8
0
 10
3669.8019146022379573
 20
204.4783068230669016
 30
0.0
 40
0.4934314726056516
 50
99.7988380867122089
 51
129.1147873236891996
  0
ARC
  5
CA8E
  8
0
 10
3669.6551831049951033
 20
204.6626969819326121
 30
0.0
 40
0.2578087151901685
 50
129.6661269532849872
 51
175.9940599265584922
  0
ARC
  5
CA8F
  8
0
 10
3669.8150357726499351
 20
204.427082900307596
 30
0.0
 40
0.5705288798555721
 50
91.107916526466866
 51
99.7988380867122089
  0
ARC
  5
CA90
  8
0
 10
3669.8019146022379573
 20
204.5030555604668905
 30
0.0
 40
0.4934314726056516
 50
99.7988380867122089
 51
129.1147873236891996
  0
ARC
  5
CA91
  8
0
 10
3669.6551831049951033
 20
204.6874457193326009
 30
0.0
 40
0.2578087151901685
 50
129.6661269532849872
 51
175.9940599265584922
  0
ARC
  5
CA92
  8
0
 10
3669.8150357758509017
 20
204.4525543450075986
 30
0.0
 40
0.5705288798555721
 50
91.107916526466866
 51
99.7988380867122089
  0
ARC
  5
CA93
  8
0
 10
3669.8019146054389239
 20
204.5285270051668931
 30
0.0
 40
0.4934314726056516
 50
99.7988380867122089
 51
129.1147873236891996
  0
ARC
  5
CA94
  8
0
 10
3669.6551831081937962
 20
204.7129171640326035
 30
0.0
 40
0.2578087151901685
 50
129.6661269532849872
 51
175.9940701065532949
  0
ARC
  5
CA95
  8
0
 10
3669.8150357758509017
 20
204.4773030823075999
 30
0.0
 40
0.5705288798555721
 50
91.107916526466866
 51
99.7988380867122089
  0
ARC
  5
CA96
  8
0
 10
3669.8019146054389239
 20
204.5532757424668944
 30
0.0
 40
0.4934314726056516
 50
99.7988380867122089
 51
129.1147873236891996
  0
ARC
  5
CA97
  8
0
 10
3669.6551831081937962
 20
204.7376659013326048
 30
0.0
 40
0.2578087151901685
 50
129.6661269532849872
 51
175.9940701065532949
  0
ARC
  5
CA98
  8
0
 10
3669.8150357711510878
 20
204.5027436218076105
 30
0.0
 40
0.5705288798555721
 50
91.107916526466866
 51
99.7988380867122089
  0
ARC
  5
CA99
  8
0
 10
3669.80191460073911
 20
204.5787162819669049
 30
0.0
 40
0.4934314726056516
 50
99.7988380867122089
 51
129.1147873236891996
  0
ARC
  5
CA9A
  8
0
 10
3669.6551831034948918
 20
204.7631064408325869
 30
0.0
 40
0.2578087151901685
 50
129.6661269532849872
 51
175.9940551546951042
  0
ARC
  5
CA9B
  8
0
 10
3669.8150357711510878
 20
204.5274923591076117
 30
0.0
 40
0.5705288798555721
 50
91.107916526466866
 51
99.7988380867122089
  0
ARC
  5
CA9C
  8
0
 10
3669.80191460073911
 20
204.6034650192669062
 30
0.0
 40
0.4934314726056516
 50
99.7988380867122089
 51
129.1147873236891996
  0
ARC
  5
CA9D
  8
0
 10
3669.6551831034948918
 20
204.7878551781325882
 30
0.0
 40
0.2578087151901685
 50
129.6661269532849872
 51
175.9940551546951042
  0
ARC
  5
CA9E
  8
0
 10
3669.8150357764511682
 20
204.55296293560761
 30
0.0
 40
0.5705288798555721
 50
91.107916526466866
 51
99.7988380867122089
  0
ARC
  5
CA9F
  8
0
 10
3669.8019146060391904
 20
204.6289355957669045
 30
0.0
 40
0.4934314726056516
 50
99.7988380867122089
 51
129.1147873236891996
  0
ARC
  5
CAA0
  8
0
 10
3669.6551831087940627
 20
204.8133257546325865
 30
0.0
 40
0.2578087151901685
 50
129.6661269532849872
 51
175.9940720153093991
  0
ARC
  5
CAA1
  8
0
 10
3669.8150357764511682
 20
204.5777116730075988
 30
0.0
 40
0.5705288798555721
 50
91.107916526466866
 51
99.7988380867122089
  0
ARC
  5
CAA2
  8
0
 10
3669.8019146060391904
 20
204.6536843331668933
 30
0.0
 40
0.4934314726056516
 50
99.7988380867122089
 51
129.1147873236891996
  0
ARC
  5
CAA3
  8
0
 10
3669.6551831087940627
 20
204.8380744920326038
 30
0.0
 40
0.2578087151901685
 50
129.6661269532849872
 51
175.9940720153061875
  0
ARC
  5
CAA4
  8
0
 10
3669.8150357750510011
 20
204.6031532199091885
 30
0.0
 40
0.5705288798555721
 50
91.107916526466866
 51
99.7988380867122089
  0
ARC
  5
CAA5
  8
0
 10
3669.8019146046390233
 20
204.6791258800685966
 30
0.0
 40
0.4934314726056516
 50
99.7988380867122089
 51
129.1147873236891996
  0
ARC
  5
CAA6
  8
0
 10
3669.6551831073948051
 20
204.8635160389341934
 30
0.0
 40
0.2578087151901685
 50
129.6661269532849872
 51
175.9940675615534929
  0
ARC
  5
CAA7
  8
0
 10
3669.8150357750510011
 20
204.6279019572093034
 30
0.0
 40
0.5705288798555721
 50
91.107916526466866
 51
99.7988380867122089
  0
ARC
  5
CAA8
  8
0
 10
3669.8019146046390233
 20
204.7038746173685979
 30
0.0
 40
0.4934314726056516
 50
99.7988380867122089
 51
129.1147873236891996
  0
ARC
  5
CAA9
  8
0
 10
3669.6551831073948051
 20
204.8882647762341946
 30
0.0
 40
0.2578087151901685
 50
129.6661269532849872
 51
175.9940675615534929
  0
ARC
  5
CAAA
  8
0
 10
3669.6545057095349875
 20
204.4968535689777127
 30
0.0
 40
0.1735062808399381
 50
180.4550832035598091
 51
214.4885723177823138
  0
ARC
  5
CAAB
  8
0
 10
3669.7770876789591057
 20
204.6056679955576953
 30
0.0
 40
0.3367694818108973
 50
217.9406397071711865
 51
266.6321823188555982
  0
ARC
  5
CAAC
  8
0
 10
3669.8039742946798469
 20
204.7220297455930904
 30
0.0
 40
0.4549497618467062
 50
264.1120375187550167
 51
270.0037743866287201
  0
ARC
  5
CAAD
  8
0
 10
3669.804838286148879
 20
204.8044986238325862
 30
0.0
 40
0.5565111471570831
 50
269.9141330294443151
 51
286.8951009587776753
  0
ARC
  5
CAAE
  8
0
 10
3669.8848240075208196
 20
204.6042293244495909
 30
0.0
 40
0.3421317360928888
 50
283.823780336905088
 51
336.7336244182782252
  0
ARC
  5
CAAF
  8
0
 10
3670.0016615044678474
 20
204.5356006407284895
 30
0.0
 40
0.2083730337401853
 50
341.3846125291228759
 51
359.0233174663795808
  0
ARC
  5
CAB0
  8
0
 10
3670.0042465521369195
 20
204.5347731837522929
 30
0.0
 40
0.2057757479690719
 50
359.2414110207038789
 51
6.084571477872414
  0
ARC
  5
CAB1
  8
0
 10
3669.9564400479312098
 20
204.5203064616283939
 30
0.0
 40
0.2550166423674077
 50
8.1785361347706669
 51
53.6917234564460415
  0
ARC
  5
CAB2
  8
0
 10
3669.7958651349222237
 20
204.2705309321135871
 30
0.0
 40
0.5516879180530126
 50
55.6135494348591166
 51
89.1546766041808638
  0
ARC
  5
CAB3
  8
0
 10
3669.953502819888854
 20
204.4940973811893912
 30
0.0
 40
0.1735062808399381
 50
0.4550832035597821
 51
34.4885723177823067
  0
ARC
  5
CAB4
  8
0
 10
3669.8309208504651906
 20
204.3852829546094085
 30
0.0
 40
0.3367694818108973
 50
37.9406397071712078
 51
86.6321823188556124
  0
ARC
  5
CAB5
  8
0
 10
3669.8040342347430851
 20
204.2689212045740135
 30
0.0
 40
0.4549497618467062
 50
84.1120375187550167
 51
90.0037743866286348
  0
ARC
  5
CAB6
  8
0
 10
3669.7929727543728404
 20
204.3019248473233915
 30
0.0
 40
0.5705288798555721
 50
80.2011619132878053
 51
88.892083473533134
  0
ARC
  5
CAB7
  8
0
 10
3669.8060939247848182
 20
204.377897507482686
 30
0.0
 40
0.4934314726056516
 50
50.8852126763107577
 51
80.2011619132878053
  0
ARC
  5
CAB8
  8
0
 10
3669.9528254220290364
 20
204.5622876663483112
 30
0.0
 40
0.2578087151901685
 50
4.0059324384464698
 51
50.3338730467149915
  0
ARC
  5
CAB9
  8
0
 10
3669.7929727543728404
 20
204.3266735846233075
 30
0.0
 40
0.5705288798555721
 50
80.2011619132878053
 51
88.892083473533134
  0
ARC
  5
CABA
  8
0
 10
3669.8060939247848182
 20
204.402646244782602
 30
0.0
 40
0.4934314726056516
 50
50.8852126763107577
 51
80.2011619132878053
  0
ARC
  5
CABB
  8
0
 10
3669.9528254220290364
 20
204.5870364036483124
 30
0.0
 40
0.2578087151901685
 50
4.0059324384464698
 51
50.3338730467149915
  0
ARC
  5
CABC
  8
0
 10
3669.7929727539731175
 20
204.352145606207614
 30
0.0
 40
0.5705288798555721
 50
80.2011619132878053
 51
88.892083473533134
  0
ARC
  5
CABD
  8
0
 10
3669.8060939243850953
 20
204.4281182663669085
 30
0.0
 40
0.4934314726056516
 50
50.8852126763107577
 51
80.2011619132878053
  0
ARC
  5
CABE
  8
0
 10
3669.9528254216288587
 20
204.6125084252325905
 30
0.0
 40
0.2578087151901685
 50
5.0652396997896743
 51
50.3338730467149915
  0
ARC
  5
CABF
  8
0
 10
3669.7929727539731175
 20
204.3768943435075869
 30
0.0
 40
0.5705288798555721
 50
80.2011619132878053
 51
88.892083473533134
  0
ARC
  5
CAC0
  8
0
 10
3669.8060939243850953
 20
204.4528670036669098
 30
0.0
 40
0.4934314726056516
 50
50.8852126763107577
 51
80.2011619132878053
  0
ARC
  5
CAC1
  8
0
 10
3669.9528254216288587
 20
204.6372571625325918
 30
0.0
 40
0.2578087151901685
 50
4.0059311659456478
 51
50.3338730467149915
  0
ARC
  5
CAC2
  8
0
 10
3669.7929727567729969
 20
204.4023341629076072
 30
0.0
 40
0.5705288798555721
 50
80.2011619132878053
 51
88.892083473533134
  0
ARC
  5
CAC3
  8
0
 10
3669.8060939271849747
 20
204.4783068230669016
 30
0.0
 40
0.4934314726056516
 50
50.8852126763107577
 51
80.2011619132878053
  0
ARC
  5
CAC4
  8
0
 10
3669.9528254244291929
 20
204.6626969819326121
 30
0.0
 40
0.2578087151901685
 50
4.0059400734414563
 51
50.3338730467149915
  0
ARC
  5
CAC5
  8
0
 10
3669.7929727567729969
 20
204.427082900307596
 30
0.0
 40
0.5705288798555721
 50
80.2011619132878053
 51
88.892083473533134
  0
ARC
  5
CAC6
  8
0
 10
3669.8060939271849747
 20
204.5030555604668905
 30
0.0
 40
0.4934314726056516
 50
50.8852126763107577
 51
80.2011619132878053
  0
ARC
  5
CAC7
  8
0
 10
3669.9528254244291929
 20
204.6874457193326009
 30
0.0
 40
0.2578087151901685
 50
4.0059400734414563
 51
50.3338730467149915
  0
ARC
  5
CAC8
  8
0
 10
3669.7929727535720303
 20
204.4525543450075986
 30
0.0
 40
0.5705288798555721
 50
80.2011619132878053
 51
88.892083473533134
  0
ARC
  5
CAC9
  8
0
 10
3669.8060939239840081
 20
204.5285270051668931
 30
0.0
 40
0.4934314726056516
 50
50.8852126763107577
 51
80.2011619132878053
  0
ARC
  5
CACA
  8
0
 10
3669.9528254212291358
 20
204.7129171640326035
 30
0.0
 40
0.2578087151901685
 50
4.0059298934466474
 51
50.3338730467149915
  0
ARC
  5
CACB
  8
0
 10
3669.7929727535720303
 20
204.4773030823075999
 30
0.0
 40
0.5705288798555721
 50
80.2011619132878053
 51
88.892083473533134
  0
ARC
  5
CACC
  8
0
 10
3669.8060939239840081
 20
204.5532757424668944
 30
0.0
 40
0.4934314726056516
 50
50.8852126763107577
 51
80.2011619132878053
  0
ARC
  5
CACD
  8
0
 10
3669.9528254212291358
 20
204.7376659013326048
 30
0.0
 40
0.2578087151901685
 50
4.0059298934466474
 51
50.3338730467149915
  0
ARC
  5
CACE
  8
0
 10
3669.7929727582732085
 20
204.5027436218076105
 30
0.0
 40
0.5705288798555721
 50
80.2011619132878053
 51
88.892083473533134
  0
ARC
  5
CACF
  8
0
 10
3669.8060939286851863
 20
204.5787162819669049
 30
0.0
 40
0.4934314726056516
 50
50.8852126763107577
 51
80.2011619132878053
  0
ARC
  5
CAD0
  8
0
 10
3669.9528254259289497
 20
204.7631064408325869
 30
0.0
 40
0.2578087151901685
 50
4.0059448453049162
 51
50.3338730467149915
  0
ARC
  5
CAD1
  8
0
 10
3669.7929727582732085
 20
204.5274923591076117
 30
0.0
 40
0.5705288798555721
 50
80.2011619132878053
 51
88.892083473533134
  0
ARC
  5
CAD2
  8
0
 10
3669.8060939286851863
 20
204.6034650192669062
 30
0.0
 40
0.4934314726056516
 50
50.8852126763107577
 51
80.2011619132878053
  0
ARC
  5
CAD3
  8
0
 10
3669.9528254259289497
 20
204.7878551781325882
 30
0.0
 40
0.2578087151901685
 50
4.0059448453049162
 51
50.3338730467149915
  0
ARC
  5
CAD4
  8
0
 10
3669.7929727529731281
 20
204.55296293560761
 30
0.0
 40
0.5705288798555721
 50
80.2011619132878053
 51
88.892083473533134
  0
ARC
  5
CAD5
  8
0
 10
3669.8060939233851059
 20
204.6289355957669045
 30
0.0
 40
0.4934314726056516
 50
50.8852126763107577
 51
80.2011619132878053
  0
ARC
  5
CAD6
  8
0
 10
3669.9528254206288693
 20
204.8133257546325865
 30
0.0
 40
0.2578087151901685
 50
4.0059279846905431
 51
50.3338730467149915
  0
ARC
  5
CAD7
  8
0
 10
3669.7929727529731281
 20
204.5777116730075988
 30
0.0
 40
0.5705288798555721
 50
80.2011619132878053
 51
88.892083473533134
  0
ARC
  5
CAD8
  8
0
 10
3669.8060939233851059
 20
204.6536843331668933
 30
0.0
 40
0.4934314726056516
 50
50.8852126763107577
 51
80.2011619132878053
  0
ARC
  5
CAD9
  8
0
 10
3669.9528254206288693
 20
204.8380744920326038
 30
0.0
 40
0.2578087151901685
 50
4.0059279846937912
 51
50.3338730467149915
  0
ARC
  5
CADA
  8
0
 10
3669.7929727543728404
 20
204.6031532199091885
 30
0.0
 40
0.5705288798555721
 50
80.2011619132878053
 51
88.892083473533134
  0
ARC
  5
CADB
  8
0
 10
3669.8060939247848182
 20
204.6791258800685966
 30
0.0
 40
0.4934314726056516
 50
50.8852126763107577
 51
80.2011619132878053
  0
ARC
  5
CADC
  8
0
 10
3669.9528254220290364
 20
204.8635160389341934
 30
0.0
 40
0.2578087151901685
 50
4.0059324384464698
 51
50.3338730467149915
  0
ARC
  5
CADD
  8
0
 10
3669.7929727543728404
 20
204.6279019572093034
 30
0.0
 40
0.5705288798555721
 50
80.2011619132878053
 51
88.892083473533134
  0
ARC
  5
CADE
  8
0
 10
3669.8060939247848182
 20
204.7038746173685979
 30
0.0
 40
0.4934314726056516
 50
50.8852126763107577
 51
80.2011619132878053
  0
ARC
  5
CADF
  8
0
 10
3669.9528254220290364
 20
204.8882647762341946
 30
0.0
 40
0.2578087151901685
 50
4.0059324384464698
 51
50.3338730467149915
  0
ARC
  5
CAE0
  8
0
 10
3669.953502819888854
 20
204.4968535689777127
 30
0.0
 40
0.1735062808399381
 50
325.511427682216322
 51
359.5449167964403046
  0
ARC
  5
CAE1
  8
0
 10
3669.8309208504651906
 20
204.6056679955576953
 30
0.0
 40
0.3367694818108973
 50
273.3678176811442881
 51
322.0593602928287851
  0
ARC
  5
CAE2
  8
0
 10
3669.8040342347430851
 20
204.7220297455930904
 30
0.0
 40
0.4549497618467062
 50
269.9962256133712799
 51
275.8879624812449833
  0
ARC
  5
CAE3
  8
0
 10
3669.8152041993189414
 20
204.2768575327731071
 30
0.0
 40
0.5701600260938517
 50
87.7060472184862334
 51
91.1255616504380015
  0
ARC
  5
CAE4
  8
0
 10
3669.8153681411718026
 20
204.2809501003623041
 30
0.0
 40
0.5660641761938904
 50
80.2229803764296747
 51
87.7060472184862334
  0
ARC
  5
CAE5
  8
0
 10
3669.8248668850851573
 20
204.336073770583198
 30
0.0
 40
0.5101280952216096
 50
68.1665313288417707
 51
80.2229803764296747
  0
ARC
  5
CAE6
  8
0
 10
3669.9023844004050261
 20
204.5008704379274889
 30
0.0
 40
0.3284962046905176
 50
29.931268793558889
 51
70.0274728090317069
  0
ARC
  5
CAE7
  8
0
 10
3669.9812141990341843
 20
204.5610408413047878
 30
0.0
 40
0.230514024725282
 50
14.5905418391282904
 51
26.7450768038542996
  0
ARC
  5
CAE8
  8
0
 10
3669.8040015383057835
 20
204.2488428953550113
 30
0.0
 40
0.4941199531860938
 50
89.9996838591195143
 51
93.1120370810789098
  0
ARC
  5
CAE9
  8
0
 10
3669.802228950567951
 20
204.2814459459378043
 30
0.0
 40
0.4614687514533073
 50
93.1120370810789098
 51
117.8118531072659039
  0
ARC
  5
CAEA
  8
0
 10
3669.6863461455318429
 20
204.4789666339279961
 30
0.0
 40
0.2329269631931282
 50
115.2677166122819017
 51
175.9357189654569993
  0
ARC
  5
CAEB
  8
0
 10
3669.8040015383057835
 20
204.7421080548120926
 30
0.0
 40
0.4941199531860938
 50
266.8879629189211187
 51
270.0003161408804999
  0
ARC
  5
CAEC
  8
0
 10
3669.802228950567951
 20
204.7095050042292996
 30
0.0
 40
0.4614687514533073
 50
242.1881468927340961
 51
266.8879629189211187
  0
ARC
  5
CAED
  8
0
 10
3669.6863461455318429
 20
204.5119843162391078
 30
0.0
 40
0.2329269631931282
 50
184.0642810345430007
 51
244.732283387718013
  0
ARC
  5
CAEE
  8
0
 10
3669.8040069911171486
 20
204.2488428953550113
 30
0.0
 40
0.4941199531860938
 50
86.8879629189211045
 51
90.0003161408804715
  0
ARC
  5
CAEF
  8
0
 10
3669.8057795788558906
 20
204.2814459459378043
 30
0.0
 40
0.4614687514533073
 50
62.1881468927340819
 51
86.8879629189211045
  0
ARC
  5
CAF0
  8
0
 10
3669.9216623838919986
 20
204.4789666339279961
 30
0.0
 40
0.2329269631931282
 50
4.0642810345429954
 51
64.7322833877180841
  0
ARC
  5
CAF1
  8
0
 10
3669.8040069911148748
 20
204.7421080548809869
 30
0.0
 40
0.4941199532549543
 50
269.9996838593278881
 51
273.112037080844118
  0
ARC
  5
CAF2
  8
0
 10
3669.8057795788558906
 20
204.7095050042292996
 30
0.0
 40
0.4614687514533073
 50
273.1120370810788813
 51
297.8118531072659039
  0
ARC
  5
CAF3
  8
0
 10
3669.9216623838919986
 20
204.5119843162391078
 30
0.0
 40
0.2329269631931282
 50
295.2677166122819017
 51
355.9357189654569993
  0
LINE
  5
CAF5
  8
0
 10
3669.8040042647121481
 20
204.8469075453334938
 30
0.0
 11
3669.8040042647121481
 21
204.8221588080334925
 31
0.0
  0
ENDSEC
  0
EOF
