  0
SECTION
  2
HEADER
  9
$ACADVER
  1
AC1009
  9
$INSBASE
 10
4187.2324548306651195
 20
234.6611931713800061
 30
0.0
  9
$EXTMIN
 10
4178.1698959328523415
 20
225.5138974736111095
 30
-0.0015258207003583
  9
$EXTMAX
 10
4196.2618783512070877
 20
235.7753422947911872
 30
0.0000000349246037
  9
$LIMMIN
 10
0.0
 20
0.0
  9
$LIMMAX
 10
11.6929133858000007
 20
8.2677165353999982
  9
$ORTHOMODE
 70
     0
  9
$REGENMODE
 70
     1
  9
$FILLMODE
 70
     1
  9
$QTEXTMODE
 70
     0
  9
$MIRRTEXT
 70
     0
  9
$DRAGMODE
 70
     2
  9
$LTSCALE
 40
0.6431102362
  9
$OSMODE
 70
  4095
  9
$ATTMODE
 70
     1
  9
$TEXTSIZE
 40
0.2
  9
$TRACEWID
 40
0.05
  9
$TEXTSTYLE
  7
STANDARD
  9
$CLAYER
  8
0
  9
$CELTYPE
  6
BYLAYER
  9
$CECOLOR
 62
   256
  9
$DIMSCALE
 40
1.0
  9
$DIMASZ
 40
0.1875
  9
$DIMEXO
 40
0.0625
  9
$DIMDLI
 40
0.4443307087
  9
$DIMRND
 40
0.0
  9
$DIMDLE
 40
0.0
  9
$DIMEXE
 40
0.125
  9
$DIMTP
 40
0.01
  9
$DIMTM
 40
0.01
  9
$DIMTXT
 40
2.0
  9
$DIMCEN
 40
0.1052362205
  9
$DIMTSZ
 40
0.0
  9
$DIMTOL
 70
     1
  9
$DIMLIM
 70
     0
  9
$DIMTIH
 70
     1
  9
$DIMTOH
 70
     1
  9
$DIMSE1
 70
     0
  9
$DIMSE2
 70
     0
  9
$DIMTAD
 70
     0
  9
$DIMZIN
 70
     0
  9
$DIMBLK
  1

  9
$DIMASO
 70
     1
  9
$DIMSHO
 70
     1
  9
$DIMPOST
  1
\X
  9
$DIMAPOST
  1

  9
$DIMALT
 70
     1
  9
$DIMALTD
 70
     2
  9
$DIMALTF
 40
25.3999999999999986
  9
$DIMLFAC
 40
1.0
  9
$DIMTOFL
 70
     0
  9
$DIMTVP
 40
0.0
  9
$DIMTIX
 70
     0
  9
$DIMSOXD
 70
     0
  9
$DIMSAH
 70
     0
  9
$DIMBLK1
  1

  9
$DIMBLK2
  1

  9
$DIMSTYLE
  2
STANDARD
  9
$DIMCLRD
 70
     0
  9
$DIMCLRE
 70
     0
  9
$DIMCLRT
 70
     0
  9
$DIMTFAC
 40
1.0
  9
$DIMGAP
 40
0.09
  9
$LUNITS
 70
     2
  9
$LUPREC
 70
     4
  9
$SKETCHINC
 40
0.1
  9
$FILLETRAD
 40
0.0
  9
$AUNITS
 70
     0
  9
$AUPREC
 70
     0
  9
$MENU
  1
.
  9
$ELEVATION
 40
0.0
  9
$PELEVATION
 40
0.0
  9
$THICKNESS
 40
0.0
  9
$LIMCHECK
 70
     0
  9
$BLIPMODE
 70
     0
  9
$CHAMFERA
 40
0.0
  9
$CHAMFERB
 40
0.0
  9
$SKPOLY
 70
     0
  9
$TDCREATE
 40
2458060.468368056230247
  9
$TDUPDATE
 40
2459177.7827662038616836
  9
$TDINDWG
 40
0.4515811343
  9
$TDUSRTIMER
 40
0.4515811343
  9
$USRTIMER
 70
     1
  9
$ANGBASE
 50
0.0
  9
$ANGDIR
 70
     0
  9
$PDMODE
 70
     0
  9
$PDSIZE
 40
0.3125
  9
$PLINEWID
 40
0.0
  9
$COORDS
 70
     1
  9
$SPLFRAME
 70
     0
  9
$SPLINETYPE
 70
     6
  9
$SPLINESEGS
 70
     8
  9
$ATTDIA
 70
     1
  9
$ATTREQ
 70
     1
  9
$HANDLING
 70
     1
  9
$HANDSEED
  5
19385
  9
$SURFTAB1
 70
     6
  9
$SURFTAB2
 70
     6
  9
$SURFTYPE
 70
     6
  9
$SURFU
 70
     6
  9
$SURFV
 70
     6
  9
$UCSNAME
  2

  9
$UCSORG
 10
0.0
 20
0.0
 30
0.0
  9
$UCSXDIR
 10
1.0
 20
0.0
 30
0.0
  9
$UCSYDIR
 10
0.0
 20
1.0
 30
0.0
  9
$PUCSNAME
  2

  9
$PUCSORG
 10
0.0
 20
0.0
 30
0.0
  9
$PUCSXDIR
 10
1.0
 20
0.0
 30
0.0
  9
$PUCSYDIR
 10
0.0
 20
1.0
 30
0.0
  9
$USERI1
 70
     0
  9
$USERI2
 70
     0
  9
$USERI3
 70
     0
  9
$USERI4
 70
     0
  9
$USERI5
 70
     0
  9
$USERR1
 40
0.0
  9
$USERR2
 40
0.0
  9
$USERR3
 40
0.0
  9
$USERR4
 40
0.0
  9
$USERR5
 40
0.0
  9
$WORLDVIEW
 70
     1
  9
$SHADEDGE
 70
     3
  9
$SHADEDIF
 70
    70
  9
$TILEMODE
 70
     1
  9
$MAXACTVP
 70
    64
  9
$PLIMCHECK
 70
     0
  9
$PEXTMIN
 10
1.0000000000000000E+20
 20
1.0000000000000000E+20
 30
1.0000000000000000E+20
  9
$PEXTMAX
 10
-1.0000000000000000E+20
 20
-1.0000000000000000E+20
 30
-1.0000000000000000E+20
  9
$PLIMMIN
 10
0.0
 20
0.0
  9
$PLIMMAX
 10
12.0
 20
9.0
  9
$UNITMODE
 70
     0
  9
$VISRETAIN
 70
     1
  9
$PLINEGEN
 70
     0
  9
$PSLTSCALE
 70
     1
  0
ENDSEC
  0
SECTION
  2
TABLES
  0
TABLE
  2
VPORT
 70
     1
  0
VPORT
  2
*ACTIVE
 70
     0
 10
0.0
 20
0.0
 11
1.0
 21
1.0
 12
276.5611261686123044
 22
97.4967413809972214
 13
0.0
 23
0.0
 14
1.0
 24
1.0
 15
0.0
 25
0.0
 16
0.0
 26
0.0
 36
60.4960186965801583
 17
3911.3653564453120453
 27
132.5796051025390057
 37
0.0
 40
22.1806490023092415
 41
1.8614190687361409
 42
50.0
 43
0.0
 44
0.0
 50
0.0
 51
0.0
 71
     0
 72
   100
 73
     1
 74
     1
 75
     0
 76
     0
 77
     0
 78
     0
  0
ENDTAB
  0
TABLE
  2
LTYPE
 70
     2
  0
LTYPE
  2
CONTINUOUS
 70
     0
  3
Solid line
 72
    65
 73
     0
 40
0.0
  0
LTYPE
  2
PHANTOM2
 70
     0
  3
___ _ _ ___ _ _ ___ _ _ ___ _ _
 72
    65
 73
     6
 40
1.25
 49
0.625
 49
-0.125
 49
0.125
 49
-0.125
 49
0.125
 49
-0.125
  0
ENDTAB
  0
TABLE
  2
LAYER
 70
     2
  0
LAYER
  2
0
 70
     0
 62
   255
  6
CONTINUOUS
  0
LAYER
  2
DEFPOINTS
 70
     0
 62
     7
  6
CONTINUOUS
  0
ENDTAB
  0
TABLE
  2
STYLE
 70
     1
  0
STYLE
  2
STANDARD
 70
     0
 40
0.0
 41
0.8
 50
0.0
 71
     0
 42
0.2
  3
txt
  4

  0
ENDTAB
  0
TABLE
  2
VIEW
 70
     0
  0
ENDTAB
  0
TABLE
  2
UCS
 70
     0
  0
ENDTAB
  0
TABLE
  2
APPID
 70
    11
  0
APPID
  2
ACAD
 70
     0
  0
APPID
  2
ACAD_MLEADERVER
 70
     0
  0
APPID
  2
ACAD_EXEMPT_FROM_CAD_STANDARDS
 70
     0
  0
APPID
  2
ACAD_NAV_VCDISPLAY
 70
     0
  0
APPID
  2
ACAECLAYERSTANDARD
 70
     0
  0
APPID
  2
ACCMTRANSPARENCY
 70
     0
  0
APPID
  2
ACAD_DSTYLE_DIMJAG
 70
     0
  0
APPID
  2
ACAD_DSTYLE_DIMTALN
 70
     0
  0
APPID
  2
ACDBATTR
 70
     0
  0
APPID
  2
ACADANNOTATIVE
 70
     0
  0
APPID
  2
DCO15
 70
     0
  0
ENDTAB
  0
TABLE
  2
DIMSTYLE
 70
     1
  0
DIMSTYLE
  2
STANDARD
 70
     0
  3

  4

  5

  6

  7

 40
1.0
 41
0.1875
 42
0.0625
 43
0.38
 44
0.125
 45
0.0
 46
0.0
 47
0.01
 48
0.01
140
0.15625
141
0.09
142
0.0
143
25.3999999999999986
144
1.0
145
0.0
146
1.0
147
0.09
 71
     1
 72
     0
 73
     1
 74
     1
 75
     0
 76
     0
 77
     0
 78
     4
170
     0
171
     2
172
     0
173
     0
174
     0
175
     0
176
     0
177
     0
178
     0
  0
ENDTAB
  0
ENDSEC
  0
SECTION
  2
BLOCKS
  0
BLOCK
  8
0
  2
$MODEL_SPACE
 70
     0
 10
0.0
 20
0.0
 30
0.0
  3
$MODEL_SPACE
  1

  0
ENDBLK
  5
21
  8
0
  0
BLOCK
 67
     1
  8
0
  2
$PAPER_SPACE
 70
     0
 10
0.0
 20
0.0
 30
0.0
  3
$PAPER_SPACE
  1

  0
ENDBLK
  5
1D
 67
     1
  8
0
  0
BLOCK
  8
0
  2
_CLOSED
 70
     0
 10
0.0
 20
0.0
 30
0.0
  3
_CLOSED
  1

  0
LINE
  5
18FE5
  8
0
  6
BYBLOCK
 62
     0
 10
0.0
 20
0.0
 30
0.0
 11
-1.0
 21
0.1666666667
 31
0.0
  0
LINE
  5
18FE6
  8
0
  6
BYBLOCK
 62
     0
 10
-1.0
 20
0.1666666667
 30
0.0
 11
-1.0
 21
-0.1666666667
 31
0.0
  0
LINE
  5
18FE7
  8
0
  6
BYBLOCK
 62
     0
 10
-1.0
 20
-0.1666666667
 30
0.0
 11
0.0
 21
0.0
 31
0.0
  0
LINE
  5
18FE8
  8
0
  6
BYBLOCK
 62
     0
 10
-1.0
 20
0.0
 30
0.0
 11
0.0
 21
0.0
 31
0.0
  0
ENDBLK
  5
18FE9
  8
0
  6
BYBLOCK
 62
     0
  0
ENDSEC
  0
SECTION
  2
ENTITIES
  0
LINE
  5
19130
  8
0
  6
CONTINUOUS
 62
     7
 10
4180.0769430196151006
 20
234.9052876595800115
 30
0.0
 11
4180.1163130984150484
 21
234.9446577382800001
 31
0.0
  0
LINE
  5
19131
  8
0
  6
CONTINUOUS
 62
     7
 10
4178.3741871141146476
 20
234.6611931713800061
 30
0.0
 11
4178.3741871141146476
 21
234.7084372658800078
 31
0.0
  0
LINE
  5
19132
  8
0
  6
CONTINUOUS
 62
     7
 10
4178.9174942007148275
 20
233.7556813603800094
 30
0.0
 11
4178.9174942007148275
 21
234.5903270295800098
 31
0.0
  0
LINE
  5
19133
  8
0
  6
CONTINUOUS
 62
     7
 10
4179.0041083740152317
 20
232.9230041949799102
 30
0.0
 11
4179.0631634921155637
 21
232.9820593130799864
 31
0.0
  0
LINE
  5
19134
  8
0
  6
CONTINUOUS
 62
     7
 10
4179.0041083740152317
 20
232.8048939587800135
 30
0.0
 11
4179.0041083740152317
 21
232.9230041949799102
 31
0.0
  0
LINE
  5
19135
  8
0
  6
CONTINUOUS
 62
     7
 10
4179.0434784527142256
 20
231.7222167933799994
 30
0.0
 11
4179.0434784527142256
 21
232.9230041949799102
 31
0.0
  0
LINE
  5
19136
  8
0
  6
CONTINUOUS
 62
     7
 10
4179.5159193976151073
 20
231.6631616752800085
 30
0.0
 11
4179.5159193976151073
 21
231.8403270295800098
 31
0.0
  0
LINE
  5
19137
  8
0
  6
CONTINUOUS
 62
     7
 10
4179.5356044370164454
 20
231.6631616752800085
 30
0.0
 11
4179.5356044370164454
 21
231.9631549944799929
 31
0.0
  0
LINE
  5
19138
  8
0
  6
CONTINUOUS
 62
     7
 10
4179.6438721535150762
 20
233.0745789980799998
 30
0.0
 11
4179.6438721535150762
 21
233.1218230925800015
 31
0.0
  0
LINE
  5
19139
  8
0
  6
CONTINUOUS
 62
     7
 10
4179.6635571929164144
 20
233.1218230925800015
 30
0.0
 11
4179.6635571929164144
 21
233.1265475020800011
 31
0.0
  0
LINE
  5
1913A
  8
0
  6
CONTINUOUS
 62
     7
 10
4179.8800926259145854
 20
233.1265475020800011
 30
0.0
 11
4179.8800926259145854
 21
233.1218230925800015
 31
0.0
  0
LINE
  5
1913B
  8
0
  6
CONTINUOUS
 62
     7
 10
4179.9017461692155848
 20
226.4013506516799907
 30
0.0
 11
4179.9017461692155848
 21
232.2336230312799898
 31
0.0
  0
LINE
  5
1913C
  8
0
  6
CONTINUOUS
 62
     7
 10
4179.9017461692155848
 20
232.9820593130799864
 30
0.0
 11
4179.9017461692155848
 21
233.0745789980799998
 31
0.0
  0
LINE
  5
1913D
  8
0
  6
CONTINUOUS
 62
     7
 10
4179.9017461692155848
 20
233.1218230925800015
 30
0.0
 11
4179.9017461692155848
 21
233.6848152185800132
 31
0.0
  0
LINE
  5
1913E
  8
0
  6
CONTINUOUS
 62
     7
 10
4180.0296989251155537
 20
233.2517443524799887
 30
0.0
 11
4180.0296989251155537
 21
234.9131616752800085
 31
0.0
  0
LINE
  5
1913F
  8
0
  6
CONTINUOUS
 62
     7
 10
4180.0769430196151006
 20
234.9131616752800085
 30
0.0
 11
4180.0769430196151006
 21
234.9052876595800115
 31
0.0
  0
LINE
  5
19140
  8
0
  6
CONTINUOUS
 62
     7
 10
4180.0769430196151006
 20
234.7478073439800141
 30
0.0
 11
4180.0769430196151006
 21
233.2517443524799887
 31
0.0
  0
LINE
  5
19141
  8
0
  6
CONTINUOUS
 62
     7
 10
4180.0769430196151006
 20
234.7478073439800141
 30
0.0
 11
4180.0769430196151006
 21
234.9052876595800115
 31
0.0
  0
LINE
  5
19142
  8
0
  6
CONTINUOUS
 62
     7
 10
4180.1163130984150484
 20
234.9446577382800001
 30
0.0
 11
4180.1163130984150484
 21
234.9412638655799981
 31
0.0
  0
LINE
  5
19143
  8
0
  6
CONTINUOUS
 62
     7
 10
4180.3426910512143877
 20
232.9820593130799864
 30
0.0
 11
4180.3426910511152528
 21
233.6848152185800132
 31
0.0
  0
LINE
  5
19144
  8
0
  6
CONTINUOUS
 62
     7
 10
4180.8052894763150107
 20
234.9919018327800018
 30
0.0
 11
4180.8052894763150107
 21
234.9446577382800001
 31
0.0
  0
LINE
  5
19145
  8
0
  6
CONTINUOUS
 62
     7
 10
4192.1340296338148619
 20
225.5150365664800063
 30
0.0
 11
4192.3784424706145728
 21
225.5502320149799971
 31
0.0
  0
LINE
  5
19146
  8
0
  6
CONTINUOUS
 62
     7
 10
4183.6694627047163522
 20
232.3462325414799921
 30
0.0
 11
4183.6694627047163522
 21
233.2517443524799887
 31
0.0
  0
LINE
  5
19147
  8
0
  6
CONTINUOUS
 62
     7
 10
4183.6694627047163522
 20
233.4092246673799877
 30
0.0
 11
4183.6694627047163522
 21
234.629697108379986
 31
0.0
  0
LINE
  5
19148
  8
0
  6
CONTINUOUS
 62
     7
 10
4183.7482028622152939
 20
232.3462325414799921
 30
0.0
 11
4183.7482028622152939
 21
233.2517443524799887
 31
0.0
  0
LINE
  5
19149
  8
0
  6
CONTINUOUS
 62
     7
 10
4183.7482028622152939
 20
233.4092246673799877
 30
0.0
 11
4183.7482028622152939
 21
234.629697108379986
 31
0.0
  0
LINE
  5
1914A
  8
0
  6
CONTINUOUS
 62
     7
 10
4192.5432835457568217
 20
225.7365738435715059
 30
0.0
 11
4194.12428373761486
 21
225.9602275293800062
 31
0.0
  0
LINE
  5
1914B
  8
0
  6
CONTINUOUS
 62
     7
 10
4192.1340296338148619
 20
225.5150365664800063
 30
0.0
 11
4188.2363918385153738
 21
225.5150365664800063
 31
0.0
  0
LINE
  5
1914C
  8
0
  6
CONTINUOUS
 62
     7
 10
4188.2363918385153738
 20
225.5150365664800063
 30
0.0
 11
4187.9919790018138883
 21
225.5502320149799971
 31
0.0
  0
LINE
  5
1914D
  8
0
  6
CONTINUOUS
 62
     7
 10
4184.506076877914893
 20
231.636693477179989
 30
0.0
 11
4184.506076877914893
 21
231.9108079499800112
 31
0.0
  0
LINE
  5
1914E
  8
0
  6
CONTINUOUS
 62
     7
 10
4184.506076877914893
 20
231.9131616752800085
 30
0.0
 11
4184.506076877914893
 21
233.2517443524799887
 31
0.0
  0
LINE
  5
1914F
  8
0
  6
CONTINUOUS
 62
     7
 10
4184.506076877914893
 20
233.4092246673799877
 30
0.0
 11
4184.506076877914893
 21
234.629697108379986
 31
0.0
  0
LINE
  5
19150
  8
0
  6
CONTINUOUS
 62
     7
 10
4184.5848170354138347
 20
231.636693477179989
 30
0.0
 11
4184.5848170354138347
 21
231.9108079499800112
 31
0.0
  0
LINE
  5
19151
  8
0
  6
CONTINUOUS
 62
     7
 10
4184.5848170354138347
 20
231.9131616752800085
 30
0.0
 11
4184.5848170354138347
 21
233.2517443524799887
 31
0.0
  0
LINE
  5
19152
  8
0
  6
CONTINUOUS
 62
     7
 10
4184.5848170354138347
 20
233.4092246673799877
 30
0.0
 11
4184.5848170354138347
 21
234.629697108379986
 31
0.0
  0
LINE
  5
19153
  8
0
  6
CONTINUOUS
 62
     7
 10
4184.8327987021148147
 20
232.9230041949799102
 30
0.0
 11
4184.8327987021148147
 21
232.8048939587800135
 31
0.0
  0
LINE
  5
19154
  8
0
  6
CONTINUOUS
 62
     7
 10
4180.3426910511152528
 20
225.9604057697800101
 30
0.0
 11
4187.8275761392151253
 21
225.7330942553799105
 31
0.0
  0
LINE
  5
19155
  8
0
  6
CONTINUOUS
 62
     7
 10
4179.0434784527142256
 20
232.7655238799800088
 30
0.0
 11
4179.0041083740152317
 21
232.8048939587800135
 31
0.0
  0
LINE
  5
19156
  8
0
  6
CONTINUOUS
 62
     7
 10
4185.2737934133147064
 20
231.9131616752800085
 30
0.0
 11
4185.2737934133147064
 21
233.2517443524799887
 31
0.0
  0
LINE
  5
19157
  8
0
  6
CONTINUOUS
 62
     7
 10
4185.2737934133147064
 20
233.4092246673799877
 30
0.0
 11
4185.2737934133147064
 21
234.629697108379986
 31
0.0
  0
LINE
  5
19158
  8
0
  6
CONTINUOUS
 62
     7
 10
4185.3525335708145576
 20
231.9131616752800085
 30
0.0
 11
4185.3525335708145576
 21
233.2517443524799887
 31
0.0
  0
LINE
  5
19159
  8
0
  6
CONTINUOUS
 62
     7
 10
4185.3525335708145576
 20
233.4092246673799877
 30
0.0
 11
4185.3525335708145576
 21
234.629697108379986
 31
0.0
  0
LINE
  5
1915A
  8
0
  6
CONTINUOUS
 62
     7
 10
4186.0415099488145643
 20
231.9131616752800085
 30
0.0
 11
4186.0415099488145643
 21
233.2517443524799887
 31
0.0
  0
LINE
  5
1915B
  8
0
  6
CONTINUOUS
 62
     7
 10
4186.0415099488145643
 20
233.4092246673799877
 30
0.0
 11
4186.0415099488145643
 21
234.629697108379986
 31
0.0
  0
LINE
  5
1915C
  8
0
  6
CONTINUOUS
 62
     7
 10
4186.1202501062152805
 20
231.9131616752800085
 30
0.0
 11
4186.1202501062152805
 21
233.2517443524799887
 31
0.0
  0
LINE
  5
1915D
  8
0
  6
CONTINUOUS
 62
     7
 10
4186.1202501062152805
 20
233.4092246673799877
 30
0.0
 11
4186.1202501062152805
 21
234.629697108379986
 31
0.0
  0
LINE
  5
1915E
  8
0
  6
CONTINUOUS
 62
     7
 10
4180.0769430202153671
 20
234.7478073439800141
 30
0.0
 11
4180.1163130991153594
 21
234.7084372650799935
 31
0.0
  0
LINE
  5
1915F
  8
0
  6
CONTINUOUS
 62
     7
 10
4187.9468559198148796
 20
225.5778576056800091
 30
0.0
 11
4187.8431640569151568
 21
225.724621473180008
 31
0.0
  0
LINE
  5
19160
  8
0
  6
CONTINUOUS
 62
     7
 10
4186.8092264842152872
 20
231.9131616752800085
 30
0.0
 11
4186.8092264842152872
 21
233.2517443524799887
 31
0.0
  0
LINE
  5
19161
  8
0
  6
CONTINUOUS
 62
     7
 10
4186.8092264842152872
 20
233.4092246673799877
 30
0.0
 11
4186.8092264842152872
 21
234.629697108379986
 31
0.0
  0
LINE
  5
19162
  8
0
  6
CONTINUOUS
 62
     7
 10
4186.8879666417151384
 20
231.9131616752800085
 30
0.0
 11
4186.8879666417151384
 21
233.2517443524799887
 31
0.0
  0
LINE
  5
19163
  8
0
  6
CONTINUOUS
 62
     7
 10
4186.8879666417151384
 20
233.4092246673799877
 30
0.0
 11
4186.8879666417151384
 21
234.629697108379986
 31
0.0
  0
LINE
  5
19164
  8
0
  6
CONTINUOUS
 62
     7
 10
4187.6445469441150635
 20
233.4092246673799877
 30
0.0
 11
4187.6969681172140554
 21
234.629697108379986
 31
0.0
  0
LINE
  5
19165
  8
0
  6
CONTINUOUS
 62
     7
 10
4187.6377829218154147
 20
233.2517443524799887
 30
0.0
 11
4187.5803599070150085
 21
231.9148090309799954
 31
0.0
  0
LINE
  5
19166
  8
0
  6
CONTINUOUS
 62
     7
 10
4187.6590266977145802
 20
231.9114301710800135
 30
0.0
 11
4187.7165956771150377
 21
233.2517443524799887
 31
0.0
  0
LINE
  5
19167
  8
0
  6
CONTINUOUS
 62
     7
 10
4187.723359699415596
 20
233.4092246673799877
 30
0.0
 11
4187.7757808725164068
 21
234.629697108379986
 31
0.0
  0
LINE
  5
19168
  8
0
  6
CONTINUOUS
 62
     7
 10
4188.3554203695139222
 20
231.9204600000799985
 30
0.0
 11
4188.5269626629151389
 21
233.2517443524799887
 31
0.0
  0
LINE
  5
19169
  8
0
  6
CONTINUOUS
 62
     7
 10
4188.5472547299150392
 20
233.4092246673799877
 30
0.0
 11
4188.7045182493147877
 21
234.629697108379986
 31
0.0
  0
LINE
  5
1916A
  8
0
  6
CONTINUOUS
 62
     7
 10
4188.3554203695139222
 20
231.9204600000799985
 30
0.0
 11
4188.3550868526162958
 21
231.9178705423800011
 31
0.0
  0
LINE
  5
1916B
  8
0
  6
CONTINUOUS
 62
     7
 10
4188.6266458780155517
 20
233.4092246673799877
 30
0.0
 11
4188.7839093974153002
 21
234.629697108379986
 31
0.0
  0
LINE
  5
1916C
  8
0
  6
CONTINUOUS
 62
     7
 10
4188.4331813317139677
 20
231.9078075051799885
 30
0.0
 11
4188.606353811014742
 21
233.2517443524799887
 31
0.0
  0
LINE
  5
1916D
  8
0
  6
CONTINUOUS
 62
     7
 10
4188.4331813089147545
 20
231.9078073273799987
 30
0.0
 11
4188.4327996478150453
 21
231.9054242576800107
 31
0.0
  0
POLYLINE
  5
1916E
  8
0
  6
CONTINUOUS
 62
     1
 66
     1
 10
0.0
 20
0.0
 30
0.0
  0
VERTEX
  5
19372
  8
0
  6
CONTINUOUS
 62
     1
 10
4188.4328002449137784
 20
231.9054241431799994
 30
0.0
  0
VERTEX
  5
19373
  8
0
  6
CONTINUOUS
 62
     1
 10
4188.4328957079151223
 20
231.90594088908
 30
0.0
  0
VERTEX
  5
19374
  8
0
  6
CONTINUOUS
 62
     1
 10
4188.4329955500152209
 20
231.9065287219800098
 30
0.0
  0
VERTEX
  5
19375
  8
0
  6
CONTINUOUS
 62
     1
 10
4188.4330766779148689
 20
231.9070518078800092
 30
0.0
  0
VERTEX
  5
19376
  8
0
  6
CONTINUOUS
 62
     1
 10
4188.4331315637145963
 20
231.9074349008799913
 30
0.0
  0
VERTEX
  5
19377
  8
0
  6
CONTINUOUS
 62
     1
 10
4188.4331554116142797
 20
231.9076101257799962
 30
0.0
  0
SEQEND
  5
19378
  8
0
  6
CONTINUOUS
 62
     1
  0
LINE
  5
1916F
  8
0
  6
CONTINUOUS
 62
     7
 10
4194.3879666411148719
 20
234.7478073439800141
 30
0.0
 11
4194.3485965622148797
 21
234.7084372651800095
 31
0.0
  0
LINE
  5
19170
  8
0
  6
CONTINUOUS
 62
     7
 10
4189.1305216577147803
 20
231.9230954745800091
 30
0.0
 11
4189.4158594380151044
 21
233.2517443524799887
 31
0.0
  0
LINE
  5
19171
  8
0
  6
CONTINUOUS
 62
     7
 10
4189.4496795497152561
 20
233.4092246673799877
 30
0.0
 11
4189.7117854154139422
 21
234.629697108379986
 31
0.0
  0
LINE
  5
19172
  8
0
  6
CONTINUOUS
 62
     7
 10
4189.1305216577147803
 20
231.9230954745800091
 30
0.0
 11
4189.1299753457151382
 21
231.9205507328800024
 31
0.0
  0
LINE
  5
19173
  8
0
  6
CONTINUOUS
 62
     7
 10
4189.5302150226152662
 20
233.4092246673799877
 30
0.0
 11
4189.7923208882148174
 21
234.629697108379986
 31
0.0
  0
LINE
  5
19174
  8
0
  6
CONTINUOUS
 62
     7
 10
4189.2069602011151801
 20
231.9040176011799872
 30
0.0
 11
4189.4963949109151145
 21
233.2517443524799887
 31
0.0
  0
LINE
  5
19175
  8
0
  6
CONTINUOUS
 62
     7
 10
4189.2069602011151801
 20
231.9040176011799872
 30
0.0
 11
4189.2063813780150667
 21
231.9016746253799965
 31
0.0
  0
POLYLINE
  5
19176
  8
0
  6
CONTINUOUS
 62
     1
 66
     1
 10
0.0
 20
0.0
 30
0.0
  0
VERTEX
  5
19379
  8
0
  6
CONTINUOUS
 62
     1
 10
4189.2063819636141488
 20
231.9016744614800132
 30
0.0
  0
VERTEX
  5
1937A
  8
0
  6
CONTINUOUS
 62
     1
 10
4189.2065413486152465
 20
231.9022617730799993
 30
0.0
  0
VERTEX
  5
1937B
  8
0
  6
CONTINUOUS
 62
     1
 10
4189.2066845350145741
 20
231.9028231980800001
 30
0.0
  0
VERTEX
  5
1937C
  8
0
  6
CONTINUOUS
 62
     1
 10
4189.2068028168150704
 20
231.9033153271799961
 30
0.0
  0
VERTEX
  5
1937D
  8
0
  6
CONTINUOUS
 62
     1
 10
4189.2068805206154138
 20
231.9036546707800142
 30
0.0
  0
VERTEX
  5
1937E
  8
0
  6
CONTINUOUS
 62
     1
 10
4189.206918044815211
 20
231.9038235765800096
 30
0.0
  0
SEQEND
  5
1937F
  8
0
  6
CONTINUOUS
 62
     1
  0
LINE
  5
19177
  8
0
  6
CONTINUOUS
 62
     7
 10
4190.6779409898153972
 20
234.629697108379986
 30
0.0
 11
4190.2337253495152254
 21
233.4092246673799877
 31
0.0
  0
LINE
  5
19178
  8
0
  6
CONTINUOUS
 62
     7
 10
4190.1764072024152483
 20
233.2517443524799887
 30
0.0
 11
4189.8076199346141948
 21
232.2385096616800126
 31
0.0
  0
LINE
  5
19179
  8
0
  6
CONTINUOUS
 62
     7
 10
4190.7617345152148118
 20
234.629697108379986
 30
0.0
 11
4190.31751887491464
 21
233.4092246673799877
 31
0.0
  0
LINE
  5
1917A
  8
0
  6
CONTINUOUS
 62
     7
 10
4190.2602007278155725
 20
233.2517443524799887
 30
0.0
 11
4189.8816114796163674
 21
232.2115789416799885
 31
0.0
  0
LINE
  5
1917B
  8
0
  6
CONTINUOUS
 62
     7
 10
4190.3723995744148851
 20
233.1231168987800118
 30
0.0
 11
4190.9581297709146384
 21
234.7084372658800078
 31
0.0
  0
LINE
  5
1917C
  8
0
  6
CONTINUOUS
 62
     7
 10
4191.0454064291152463
 20
234.9446577382800001
 30
0.0
 11
4191.2843409396145944
 21
235.591350956680003
 31
0.0
  0
LINE
  5
1917D
  8
0
  6
CONTINUOUS
 62
     7
 10
4191.4320611247139823
 20
235.5367726046800101
 30
0.0
 11
4191.213291742616093
 21
234.9446577382800001
 31
0.0
  0
LINE
  5
1917E
  8
0
  6
CONTINUOUS
 62
     7
 10
4191.1260150845164389
 20
234.7084372658800078
 30
0.0
 11
4190.5201197595151825
 21
233.0685385467799904
 31
0.0
  0
LINE
  5
1917F
  8
0
  6
CONTINUOUS
 62
     7
 10
4189.1290976649152071
 20
231.636693477179989
 30
0.0
 11
4189.1290976649152071
 21
231.912284028379986
 31
0.0
  0
LINE
  5
19180
  8
0
  6
CONTINUOUS
 62
     7
 10
4189.2078378224141488
 20
231.636693477179989
 30
0.0
 11
4189.2078378224141488
 21
231.9081034791799993
 31
0.0
  0
LINE
  5
19181
  8
0
  6
CONTINUOUS
 62
     7
 10
4189.6321109592154244
 20
232.8048939587800135
 30
0.0
 11
4189.6321109592154244
 21
232.9230041949799102
 31
0.0
  0
LINE
  5
19182
  8
0
  6
CONTINUOUS
 62
     7
 10
4179.4765493188151595
 20
231.6041065571799891
 30
0.0
 11
4179.4568642795138658
 21
231.6041065571799891
 31
0.0
  0
LINE
  5
19183
  8
0
  6
CONTINUOUS
 62
     7
 10
4179.1615886889148896
 20
231.6041065571799891
 30
0.0
 11
4179.4568642795138658
 21
231.6041065571799891
 31
0.0
  0
LINE
  5
19184
  8
0
  6
CONTINUOUS
 62
     7
 10
4194.9096201850152283
 20
231.6041065571799891
 30
0.0
 11
4195.0080453818145543
 21
231.6041065571799891
 31
0.0
  0
LINE
  5
19185
  8
0
  6
CONTINUOUS
 62
     7
 10
4195.0080453818145543
 20
231.6041065571799891
 30
0.0
 11
4195.3033209724153494
 21
231.6041065571799891
 31
0.0
  0
LINE
  5
19186
  8
0
  6
CONTINUOUS
 62
     7
 10
4189.1708649586153115
 20
231.8729869997800108
 30
0.0
 11
4189.1684677436151105
 21
231.8729139496799974
 31
0.0
  0
POLYLINE
  5
19187
  8
0
  6
CONTINUOUS
 62
     1
 66
     1
 10
0.0
 20
0.0
 30
0.0
  0
VERTEX
  5
19380
  8
0
  6
CONTINUOUS
 62
     1
 10
4189.1684668498155588
 20
231.8729146757800095
 30
0.0
  0
VERTEX
  5
19381
  8
0
  6
CONTINUOUS
 62
     1
 10
4189.1686270364152733
 20
231.8729149282800108
 30
0.0
  0
VERTEX
  5
19382
  8
0
  6
CONTINUOUS
 62
     1
 10
4189.1702039327146849
 20
231.8729523246799999
 30
0.0
  0
VERTEX
  5
19383
  8
0
  6
CONTINUOUS
 62
     1
 10
4189.1708649591146241
 20
231.8729869924800084
 30
0.0
  0
SEQEND
  5
19384
  8
0
  6
CONTINUOUS
 62
     1
  0
LINE
  5
19188
  8
0
  6
CONTINUOUS
 62
     7
 10
4189.511653754814688
 20
231.9525317540800131
 30
0.0
 11
4189.2173789994149047
 21
231.9525317540800131
 31
0.0
  0
LINE
  5
19189
  8
0
  6
CONTINUOUS
 62
     7
 10
4189.1368435324138773
 20
231.9525317540800131
 30
0.0
 11
4188.4389442663150476
 21
231.9525317540800131
 31
0.0
  0
LINE
  5
1918A
  8
0
  6
CONTINUOUS
 62
     7
 10
4188.3595531162163752
 20
231.9525317540800131
 30
0.0
 11
4187.6607920704145727
 21
231.9525317540800131
 31
0.0
  0
LINE
  5
1918B
  8
0
  6
CONTINUOUS
 62
     7
 10
4187.5819801598154299
 20
231.9525317540800131
 30
0.0
 11
4186.8879666417151384
 21
231.9525317540800131
 31
0.0
  0
LINE
  5
1918C
  8
0
  6
CONTINUOUS
 62
     7
 10
4186.8092264842152872
 20
231.9525317540800131
 30
0.0
 11
4186.1202501062152805
 21
231.9525317540800131
 31
0.0
  0
LINE
  5
1918D
  8
0
  6
CONTINUOUS
 62
     7
 10
4186.0415099488145643
 20
231.9525317540800131
 30
0.0
 11
4185.3525335708145576
 21
231.9525317540800131
 31
0.0
  0
LINE
  5
1918E
  8
0
  6
CONTINUOUS
 62
     7
 10
4185.2737934133147064
 20
231.9525317540800131
 30
0.0
 11
4184.5848170354138347
 21
231.9525317540800131
 31
0.0
  0
LINE
  5
1918F
  8
0
  6
CONTINUOUS
 62
     7
 10
4184.506076877914893
 20
231.9525317540800131
 30
0.0
 11
4184.0631634921146542
 21
231.9525317540800131
 31
0.0
  0
LINE
  5
19190
  8
0
  6
CONTINUOUS
 62
     7
 10
4189.511653754814688
 20
232.0312719114799904
 30
0.0
 11
4189.2342890439149414
 21
232.0312719114799904
 31
0.0
  0
LINE
  5
19191
  8
0
  6
CONTINUOUS
 62
     7
 10
4189.1537535759152888
 20
232.0312719114799904
 30
0.0
 11
4188.4490902893148814
 21
232.0312719114799904
 31
0.0
  0
LINE
  5
19192
  8
0
  6
CONTINUOUS
 62
     7
 10
4188.3696991469150817
 20
232.0312719114799904
 30
0.0
 11
4187.6641740813147408
 21
232.0312719114799904
 31
0.0
  0
LINE
  5
19193
  8
0
  6
CONTINUOUS
 62
     7
 10
4187.58536217141409
 20
232.0312719114799904
 30
0.0
 11
4186.8879666417151384
 21
232.0312719114799904
 31
0.0
  0
LINE
  5
19194
  8
0
  6
CONTINUOUS
 62
     7
 10
4186.8092264842152872
 20
232.0312719114799904
 30
0.0
 11
4186.1202501062152805
 21
232.0312719114799904
 31
0.0
  0
LINE
  5
19195
  8
0
  6
CONTINUOUS
 62
     7
 10
4186.0415099488145643
 20
232.0312719114799904
 30
0.0
 11
4185.3525335708145576
 21
232.0312719114799904
 31
0.0
  0
LINE
  5
19196
  8
0
  6
CONTINUOUS
 62
     7
 10
4185.2737934133147064
 20
232.0312719114799904
 30
0.0
 11
4184.5848170354138347
 21
232.0312719114799904
 31
0.0
  0
LINE
  5
19197
  8
0
  6
CONTINUOUS
 62
     7
 10
4184.506076877914893
 20
232.0312719114799904
 30
0.0
 11
4184.0631634921146542
 21
232.0312719114799904
 31
0.0
  0
LINE
  5
19198
  8
0
  6
CONTINUOUS
 62
     7
 10
4179.9096201850152283
 20
232.2340278169799888
 30
0.0
 11
4183.6864201837151995
 21
232.2340278169799888
 31
0.0
  0
LINE
  5
19199
  8
0
  6
CONTINUOUS
 62
     7
 10
4183.7689033858150651
 20
232.2340278169799888
 30
0.0
 11
4184.506076877914893
 21
232.2340278169799888
 31
0.0
  0
LINE
  5
1919A
  8
0
  6
CONTINUOUS
 62
     7
 10
4184.5848170354138347
 20
232.2340278169799888
 30
0.0
 11
4185.2737934133147064
 21
232.2340278169799888
 31
0.0
  0
LINE
  5
1919B
  8
0
  6
CONTINUOUS
 62
     7
 10
4185.3525335708145576
 20
232.2340278169799888
 30
0.0
 11
4186.0415099488145643
 21
232.2340278169799888
 31
0.0
  0
LINE
  5
1919C
  8
0
  6
CONTINUOUS
 62
     7
 10
4186.1202501062152805
 20
232.2340278169799888
 30
0.0
 11
4186.8092264842152872
 21
232.2340278169799888
 31
0.0
  0
LINE
  5
1919D
  8
0
  6
CONTINUOUS
 62
     7
 10
4186.8879666417151384
 20
232.2340278169799888
 30
0.0
 11
4187.5940708455145796
 21
232.2340278169799888
 31
0.0
  0
LINE
  5
1919E
  8
0
  6
CONTINUOUS
 62
     7
 10
4187.6728827647139042
 20
232.2340278169799888
 30
0.0
 11
4188.3958250692148795
 21
232.2340278169799888
 31
0.0
  0
LINE
  5
1919F
  8
0
  6
CONTINUOUS
 62
     7
 10
4188.4752164094152249
 20
232.2340278169799888
 30
0.0
 11
4189.1972968945146931
 21
232.2340278169799888
 31
0.0
  0
LINE
  5
191A0
  8
0
  6
CONTINUOUS
 62
     7
 10
4189.2778324879145657
 20
232.2340278169799888
 30
0.0
 11
4189.8056711731151154
 21
232.2340278169799888
 31
0.0
  0
LINE
  5
191A1
  8
0
  6
CONTINUOUS
 62
     7
 10
4189.8897822020153399
 20
232.2340278169799888
 30
0.0
 11
4194.5552894763150107
 21
232.2340278169799888
 31
0.0
  0
LINE
  5
191A2
  8
0
  6
CONTINUOUS
 62
     7
 10
4191.6583875735141191
 20
234.9647245755799929
 30
0.0
 11
4191.6609601113150347
 21
235.4952661437799861
 31
0.0
  0
LINE
  5
191A3
  8
0
  6
CONTINUOUS
 62
     7
 10
4191.8158660372164377
 20
234.9639609797800119
 30
0.0
 11
4191.8184385750146248
 21
235.4945025480799927
 31
0.0
  0
LINE
  5
191A4
  8
0
  6
CONTINUOUS
 62
     7
 10
4190.3368922636145726
 20
232.7458388406799941
 30
0.0
 11
4190.0760661801150491
 21
232.7458388406799941
 31
0.0
  0
LINE
  5
191A5
  8
0
  6
CONTINUOUS
 62
     7
 10
4188.461774397615045
 20
232.7458388406799941
 30
0.0
 11
4187.6948662553149916
 21
232.7458388406799941
 31
0.0
  0
LINE
  5
191A6
  8
0
  6
CONTINUOUS
 62
     7
 10
4187.6160535000153686
 20
232.7458388406799941
 30
0.0
 11
4186.8879666417151384
 21
232.7458388406799941
 31
0.0
  0
LINE
  5
191A7
  8
0
  6
CONTINUOUS
 62
     7
 10
4186.8092264842152872
 20
232.7458388406799941
 30
0.0
 11
4186.1202501062152805
 21
232.7458388406799941
 31
0.0
  0
LINE
  5
191A8
  8
0
  6
CONTINUOUS
 62
     7
 10
4184.506076877914893
 20
232.7458388406799941
 30
0.0
 11
4184.120780493314669
 21
232.7458285944800025
 31
0.0
  0
LINE
  5
191A9
  8
0
  6
CONTINUOUS
 62
     7
 10
4184.5848170354138347
 20
232.7458388406799941
 30
0.0
 11
4185.2737934133147064
 21
232.7458388406799941
 31
0.0
  0
LINE
  5
191AA
  8
0
  6
CONTINUOUS
 62
     7
 10
4185.3525335708145576
 20
232.7458388406799941
 30
0.0
 11
4186.0415099488145643
 21
232.7458388406799941
 31
0.0
  0
LINE
  5
191AB
  8
0
  6
CONTINUOUS
 62
     7
 10
4188.541165545714648
 20
232.7458388406799941
 30
0.0
 11
4189.3072123292140532
 21
232.7458388406799941
 31
0.0
  0
LINE
  5
191AC
  8
0
  6
CONTINUOUS
 62
     7
 10
4189.3877478021149727
 20
232.7458388406799941
 30
0.0
 11
4189.9922726547138154
 21
232.7458388406799941
 31
0.0
  0
LINE
  5
191AD
  8
0
  6
CONTINUOUS
 62
     7
 10
4195.0277304212149829
 20
232.7533516878800128
 30
0.0
 11
4190.9430139068163044
 21
232.7533517610800118
 31
0.0
  0
LINE
  5
191AE
  8
0
  6
CONTINUOUS
 62
     7
 10
4183.5219005548151472
 20
232.7533517023800016
 30
0.0
 11
4179.4371792401152561
 21
232.7533516878800128
 31
0.0
  0
LINE
  5
191AF
  8
0
  6
CONTINUOUS
 62
     7
 10
4179.0041083740152317
 20
232.8048939587800135
 30
0.0
 11
4179.0434784527142256
 21
232.8048939587800135
 31
0.0
  0
LINE
  5
191B0
  8
0
  6
CONTINUOUS
 62
     7
 10
4184.1280173977138475
 20
232.8048939587800135
 30
0.0
 11
4184.506076877914893
 21
232.8048939587800135
 31
0.0
  0
LINE
  5
191B1
  8
0
  6
CONTINUOUS
 62
     7
 10
4184.5848170354138347
 20
232.8048939587800135
 30
0.0
 11
4185.2737934133147064
 21
232.8048939587800135
 31
0.0
  0
LINE
  5
191B2
  8
0
  6
CONTINUOUS
 62
     7
 10
4185.3525335708145576
 20
232.8048939587800135
 30
0.0
 11
4186.0415099488145643
 21
232.8048939587800135
 31
0.0
  0
LINE
  5
191B3
  8
0
  6
CONTINUOUS
 62
     7
 10
4186.1202501062152805
 20
232.8048939587800135
 30
0.0
 11
4186.8092264842152872
 21
232.8048939587800135
 31
0.0
  0
LINE
  5
191B4
  8
0
  6
CONTINUOUS
 62
     7
 10
4186.8879666417151384
 20
232.8048939587800135
 30
0.0
 11
4187.6185900084146851
 21
232.8048939587800135
 31
0.0
  0
LINE
  5
191B5
  8
0
  6
CONTINUOUS
 62
     7
 10
4187.6974027637152176
 20
232.8048939587800135
 30
0.0
 11
4188.4693839227138596
 21
232.8048939587800135
 31
0.0
  0
LINE
  5
191B6
  8
0
  6
CONTINUOUS
 62
     7
 10
4188.5487750708152817
 20
232.8048939587800135
 30
0.0
 11
4189.3198948711151388
 21
232.8048939587800135
 31
0.0
  0
LINE
  5
191B7
  8
0
  6
CONTINUOUS
 62
     7
 10
4189.4004303440151489
 20
232.8048939587800135
 30
0.0
 11
4190.0137669599153014
 21
232.8048939587800135
 31
0.0
  0
LINE
  5
191B8
  8
0
  6
CONTINUOUS
 62
     7
 10
4190.0975604853147161
 20
232.8048939587800135
 30
0.0
 11
4190.3368922636145726
 21
232.8048939587800135
 31
0.0
  0
LINE
  5
191B9
  8
0
  6
CONTINUOUS
 62
     7
 10
4191.3323793813151497
 20
232.8580435650800098
 30
0.0
 11
4190.5570498058150406
 21
232.8580435650800098
 31
0.0
  0
LINE
  5
191BA
  8
0
  6
CONTINUOUS
 62
     7
 10
4179.0434784527142256
 20
232.9230041949799102
 30
0.0
 11
4179.0041083740152317
 21
232.9230041949799102
 31
0.0
  0
LINE
  5
191BB
  8
0
  6
CONTINUOUS
 62
     7
 10
4179.1025335708145576
 20
232.9820593130799864
 30
0.0
 11
4179.0631634921155637
 21
232.9820593130799864
 31
0.0
  0
LINE
  5
191BC
  8
0
  6
CONTINUOUS
 62
     7
 10
4179.1025335708145576
 20
232.9820593130799864
 30
0.0
 11
4183.6694627047163522
 21
232.9820593130799864
 31
0.0
  0
LINE
  5
191BD
  8
0
  6
CONTINUOUS
 62
     7
 10
4183.7482028622152939
 20
232.9820593130799864
 30
0.0
 11
4184.506076877914893
 21
232.9820593130799864
 31
0.0
  0
LINE
  5
191BE
  8
0
  6
CONTINUOUS
 62
     7
 10
4184.5848170354138347
 20
232.9820593130799864
 30
0.0
 11
4185.2737934133147064
 21
232.9820593130799864
 31
0.0
  0
LINE
  5
191BF
  8
0
  6
CONTINUOUS
 62
     7
 10
4185.3525335708145576
 20
232.9820593130799864
 30
0.0
 11
4186.0415099488145643
 21
232.9820593130799864
 31
0.0
  0
LINE
  5
191C0
  8
0
  6
CONTINUOUS
 62
     7
 10
4186.1202501062152805
 20
232.9820593130799864
 30
0.0
 11
4186.8092264842152872
 21
232.9820593130799864
 31
0.0
  0
LINE
  5
191C1
  8
0
  6
CONTINUOUS
 62
     7
 10
4186.8879666417151384
 20
232.9820593130799864
 30
0.0
 11
4187.6261995335153188
 21
232.9820593130799864
 31
0.0
  0
LINE
  5
191C2
  8
0
  6
CONTINUOUS
 62
     7
 10
4187.7050122888149417
 20
232.9820593130799864
 30
0.0
 11
4188.4922124981148954
 21
232.9820593130799864
 31
0.0
  0
LINE
  5
191C3
  8
0
  6
CONTINUOUS
 62
     7
 10
4188.5716036462163174
 20
232.9820593130799864
 30
0.0
 11
4189.3579424968147578
 21
232.9820593130799864
 31
0.0
  0
LINE
  5
191C4
  8
0
  6
CONTINUOUS
 62
     7
 10
4189.4384779696138139
 20
232.9820593130799864
 30
0.0
 11
4190.0782498754151675
 21
232.9820593130799864
 31
0.0
  0
LINE
  5
191C5
  8
0
  6
CONTINUOUS
 62
     7
 10
4190.1620434008164011
 20
232.9820593130799864
 30
0.0
 11
4190.3742764116150283
 21
232.9820593130799864
 31
0.0
  0
LINE
  5
191C6
  8
0
  6
CONTINUOUS
 62
     7
 10
4191.462491146915454
 20
232.9820593130799864
 30
0.0
 11
4195.3623760905138624
 21
232.9820593130799864
 31
0.0
  0
LINE
  5
191C7
  8
0
  6
CONTINUOUS
 62
     7
 10
4191.3323793813151497
 20
233.0155238799800088
 30
0.0
 11
4190.5570498058150406
 21
233.0155238799800088
 31
0.0
  0
LINE
  5
191C8
  8
0
  6
CONTINUOUS
 62
     7
 10
4179.6438721535150762
 20
233.0745789980799998
 30
0.0
 11
4179.899777665315014
 21
233.0745789980799998
 31
0.0
  0
LINE
  5
191C9
  8
0
  6
CONTINUOUS
 62
     7
 10
4194.565131996015225
 20
233.0745789980799998
 30
0.0
 11
4194.8210375078151628
 21
233.0745789980799998
 31
0.0
  0
LINE
  5
191CA
  8
0
  6
CONTINUOUS
 62
     7
 10
4194.8210375078151628
 20
233.1218230925800015
 30
0.0
 11
4194.565131996015225
 21
233.1218230925800015
 31
0.0
  0
LINE
  5
191CB
  8
0
  6
CONTINUOUS
 62
     7
 10
4179.6438721535150762
 20
233.1218230925800015
 30
0.0
 11
4179.899777665315014
 21
233.1218230925800015
 31
0.0
  0
LINE
  5
191CC
  8
0
  6
CONTINUOUS
 62
     7
 10
4194.8013524684147342
 20
233.1265475020800011
 30
0.0
 11
4194.5848170354147442
 21
233.1265475020800011
 31
0.0
  0
LINE
  5
191CD
  8
0
  6
CONTINUOUS
 62
     7
 10
4179.8800926259145854
 20
233.1265475020800011
 30
0.0
 11
4179.6635571929164144
 21
233.1265475020800011
 31
0.0
  0
LINE
  5
191CE
  8
0
  6
CONTINUOUS
 62
     7
 10
4183.590722547214682
 20
233.2517443524799887
 30
0.0
 11
4190.3650732749138115
 21
233.2517443524799887
 31
0.0
  0
LINE
  5
191CF
  8
0
  6
CONTINUOUS
 62
     7
 10
4183.590722547214682
 20
233.4092246673799877
 30
0.0
 11
4190.3650732749138115
 21
233.4092246673799877
 31
0.0
  0
LINE
  5
191D2
  8
0
  6
CONTINUOUS
 62
     7
 10
4178.9174942007148275
 20
233.7556813603800094
 30
0.0
 11
4180.0296989251155537
 21
233.7556813603800094
 31
0.0
  0
LINE
  5
191D3
  8
0
  6
CONTINUOUS
 62
     7
 10
4180.0769430196151006
 20
233.7556813603800094
 30
0.0
 11
4180.0828485314150385
 21
233.7556813603800094
 31
0.0
  0
LINE
  5
191D4
  8
0
  6
CONTINUOUS
 62
     7
 10
4194.3820611299152006
 20
233.7556813603800094
 30
0.0
 11
4194.3879666417151384
 21
233.7556813603800094
 31
0.0
  0
LINE
  5
191D5
  8
0
  6
CONTINUOUS
 62
     7
 10
4194.4352107362146853
 20
233.7556813603800094
 30
0.0
 11
4195.5474154606154116
 21
233.7556813603800094
 31
0.0
  0
LINE
  5
191D6
  8
0
  6
CONTINUOUS
 62
     7
 10
4194.5747683849149325
 20
233.2585911552799871
 30
0.0
 11
4194.5962577377149501
 21
233.2582160572800092
 31
0.0
  0
LINE
  5
191D7
  8
0
  6
CONTINUOUS
 62
     7
 10
4192.4235655525153561
 20
225.5778576056800091
 30
0.0
 11
4192.5299562875152333
 21
225.7284414151799865
 31
0.0
  0
LINE
  5
191D8
  8
0
  6
CONTINUOUS
 62
     7
 10
4183.590722547214682
 20
234.629697108379986
 30
0.0
 11
4190.8741871141146476
 21
234.629697108379986
 31
0.0
  0
LINE
  5
191D9
  8
0
  6
CONTINUOUS
 62
     7
 10
4194.3879666417151384
 20
234.6611931713800061
 30
0.0
 11
4191.1085597529154256
 21
234.6611931713800061
 31
0.0
  0
LINE
  5
191DA
  8
0
  6
CONTINUOUS
 62
     7
 10
4183.5277304212140734
 20
234.6611931713800061
 30
0.0
 11
4180.0769430196151006
 21
234.6611931713800061
 31
0.0
  0
LINE
  5
191DB
  8
0
  6
CONTINUOUS
 62
     7
 10
4178.3741871141146476
 20
234.6611931713800061
 30
0.0
 11
4180.0296989251155537
 21
234.6611931713800061
 31
0.0
  0
LINE
  5
191DC
  8
0
  6
CONTINUOUS
 62
     7
 10
4194.4352107362146853
 20
234.6611931713800061
 30
0.0
 11
4196.090722547214682
 21
234.6611931713800061
 31
0.0
  0
LINE
  5
191DD
  8
0
  6
CONTINUOUS
 62
     7
 10
4196.090722547214682
 20
234.7084372658800078
 30
0.0
 11
4194.4352107362146853
 21
234.7084372658800078
 31
0.0
  0
LINE
  5
191DE
  8
0
  6
CONTINUOUS
 62
     7
 10
4194.3879666417151384
 20
234.7084372658800078
 30
0.0
 11
4194.3485965622148797
 21
234.7084372658800078
 31
0.0
  0
LINE
  5
191DF
  8
0
  6
CONTINUOUS
 62
     7
 10
4180.0296989251155537
 20
234.7084372658800078
 30
0.0
 11
4178.3741871141146476
 21
234.7084372658800078
 31
0.0
  0
LINE
  5
191E0
  8
0
  6
CONTINUOUS
 62
     7
 10
4180.0769430196151006
 20
234.7084372658800078
 30
0.0
 11
4194.3485965622148797
 21
234.7084372658800078
 31
0.0
  0
LINE
  5
191E1
  8
0
  6
CONTINUOUS
 62
     7
 10
4180.0769430196151006
 20
234.7478073445799964
 30
0.0
 11
4194.3879666417151384
 21
234.7478073445799964
 31
0.0
  0
LINE
  5
191E2
  8
0
  6
CONTINUOUS
 62
     7
 10
4180.4706438070152217
 20
234.7972549567799945
 30
0.0
 11
4193.9942658543150174
 21
234.7972549567799945
 31
0.0
  0
LINE
  5
191E3
  8
0
  6
CONTINUOUS
 62
     7
 10
4193.6596201850152283
 20
234.9446577382800001
 30
0.0
 11
4193.6596201850152283
 21
234.9919018327800018
 31
0.0
  0
LINE
  5
191E4
  8
0
  6
CONTINUOUS
 62
     7
 10
4194.1222186103150307
 20
232.9820593130799864
 30
0.0
 11
4194.1222186102149863
 21
233.6848152185800132
 31
0.0
  0
LINE
  5
191E5
  8
0
  6
CONTINUOUS
 62
     7
 10
4180.4706438070152217
 20
234.8349646529800054
 30
0.0
 11
4193.9942658543150174
 21
234.8349646529800054
 31
0.0
  0
LINE
  5
191E6
  8
0
  6
CONTINUOUS
 62
     7
 10
4180.1084390826154049
 20
234.9446577382800001
 30
0.0
 11
4180.1163130984150484
 21
234.9446577382800001
 31
0.0
  0
LINE
  5
191E7
  8
0
  6
CONTINUOUS
 62
     7
 10
4180.1163130984150484
 20
234.9446577382800001
 30
0.0
 11
4194.3485965629151906
 21
234.9446577382800001
 31
0.0
  0
LINE
  5
191E8
  8
0
  6
CONTINUOUS
 62
     7
 10
4194.3485965629151906
 20
234.9446577382800001
 30
0.0
 11
4194.3564705787139246
 21
234.9446577382800001
 31
0.0
  0
LINE
  5
191E9
  8
0
  6
CONTINUOUS
 62
     7
 10
4194.3564705787139246
 20
234.9919018327800018
 30
0.0
 11
4193.6596201850152283
 21
234.9919018327800018
 31
0.0
  0
LINE
  5
191EA
  8
0
  6
CONTINUOUS
 62
     7
 10
4180.8052894763150107
 20
234.9919018327800018
 30
0.0
 11
4180.1084390826154049
 21
234.9919018327800018
 31
0.0
  0
LINE
  5
191EB
  8
0
  6
CONTINUOUS
 62
     7
 10
4194.3485965622148797
 20
234.9412638691800055
 30
0.0
 11
4194.3485965629151906
 21
234.9446577382800001
 31
0.0
  0
LINE
  5
191EC
  8
0
  6
CONTINUOUS
 62
     7
 10
4194.3879666417151384
 20
234.9131616752800085
 30
0.0
 11
4194.3879666417151384
 21
234.9052876595800115
 31
0.0
  0
LINE
  5
191ED
  8
0
  6
CONTINUOUS
 62
     7
 10
4194.3879666417151384
 20
234.7478073439800141
 30
0.0
 11
4194.3879666417151384
 21
233.2517443524799887
 31
0.0
  0
LINE
  5
191EE
  8
0
  6
CONTINUOUS
 62
     7
 10
4194.3879666417151384
 20
234.7478073439800141
 30
0.0
 11
4194.3879666417151384
 21
234.9052876595800115
 31
0.0
  0
LINE
  5
191EF
  8
0
  6
CONTINUOUS
 62
     7
 10
4194.4352107362146853
 20
233.2517443524799887
 30
0.0
 11
4194.4352107362146853
 21
234.9131616752800085
 31
0.0
  0
LINE
  5
191F0
  8
0
  6
CONTINUOUS
 62
     7
 10
4194.5631634921146542
 20
226.4013506516799907
 30
0.0
 11
4194.5631634921146542
 21
232.2339490689458898
 31
0.0
  0
LINE
  5
191F1
  8
0
  6
CONTINUOUS
 62
     7
 10
4194.5631634921146542
 20
232.9820593130799864
 30
0.0
 11
4194.5631634921146542
 21
233.0745789980799998
 31
0.0
  0
LINE
  5
191F2
  8
0
  6
CONTINUOUS
 62
     7
 10
4194.5631634921146542
 20
233.1218230925800015
 30
0.0
 11
4194.5631634921146542
 21
233.6848152185800132
 31
0.0
  0
LINE
  5
191F3
  8
0
  6
CONTINUOUS
 62
     7
 10
4194.5848170354147442
 20
233.1218230925800015
 30
0.0
 11
4194.5848170354147442
 21
233.1265475020800011
 31
0.0
  0
LINE
  5
191F4
  8
0
  6
CONTINUOUS
 62
     7
 10
4194.6419036496154149
 20
233.1281223051799998
 30
0.0
 11
4194.6419036496154149
 21
233.2117664398799946
 31
0.0
  0
LINE
  5
191F5
  8
0
  6
CONTINUOUS
 62
     7
 10
4194.6629193976150418
 20
233.1265475020800011
 30
0.0
 11
4194.6629193976150418
 21
233.1281223051799998
 31
0.0
  0
LINE
  5
191F6
  8
0
  6
CONTINUOUS
 62
     7
 10
4194.7129193976152237
 20
233.0745789980799998
 30
0.0
 11
4194.7129193976152237
 21
232.9820593130799864
 31
0.0
  0
LINE
  5
191F7
  8
0
  6
CONTINUOUS
 62
     7
 10
4194.8013524684147342
 20
233.1265475020800011
 30
0.0
 11
4194.8013524684147342
 21
233.1218230925800015
 31
0.0
  0
LINE
  5
191F8
  8
0
  6
CONTINUOUS
 62
     7
 10
4194.8210375078151628
 20
233.1218230925800015
 30
0.0
 11
4194.8210375078151628
 21
233.0745789980799998
 31
0.0
  0
LINE
  5
191F9
  8
0
  6
CONTINUOUS
 62
     7
 10
4194.8505650669139868
 20
232.1007356231309871
 30
0.0
 11
4194.8505650669139868
 21
231.6631616752800085
 31
0.0
  0
LINE
  5
191FA
  8
0
  6
CONTINUOUS
 62
     7
 10
4194.9489902637151317
 20
231.8403270295800098
 30
0.0
 11
4194.9489902637151317
 21
231.6631616752800085
 31
0.0
  0
LINE
  5
191FB
  8
0
  6
CONTINUOUS
 62
     7
 10
4195.421431208615104
 20
231.7222167933799994
 30
0.0
 11
4195.421431208615104
 21
232.9230041949799102
 31
0.0
  0
LINE
  5
191FC
  8
0
  6
CONTINUOUS
 62
     7
 10
4195.5474154606154116
 20
233.7556813603800094
 30
0.0
 11
4195.5474154606154116
 21
234.5903270295800098
 31
0.0
  0
LINE
  5
191FD
  8
0
  6
CONTINUOUS
 62
     7
 10
4196.090722547214682
 20
234.7084372658800078
 30
0.0
 11
4196.090722547214682
 21
234.6611931713800061
 31
0.0
  0
LINE
  5
191FE
  8
0
  6
CONTINUOUS
 62
     7
 10
4194.3485965629151906
 20
234.9446577382800001
 30
0.0
 11
4194.3879666417151384
 21
234.9052876595800115
 31
0.0
  0
ARC
  5
191FF
  8
0
  6
CONTINUOUS
 62
     7
 10
4184.294679897714559
 20
227.6964098258800107
 30
0.0
 40
5.1156474718
 50
97.020383962817661
 51
98.688469271020054
  0
ARC
  5
19200
  8
0
  6
CONTINUOUS
 62
     7
 10
4184.2916408965056689
 20
227.7016855280650987
 30
0.0
 40
5.0512032181663704
 50
97.0756777802039323
 51
98.6699975399528455
  0
ARC
  5
19201
  8
0
  6
CONTINUOUS
 62
     7
 10
4180.3426910511152528
 20
226.4013506516799907
 30
0.0
 40
0.4409448819
 50
180.0
 51
270.0
  0
ARC
  5
19202
  8
0
  6
CONTINUOUS
 62
     7
 10
4179.9096201850152283
 20
231.8403270295800098
 30
0.0
 40
0.3937007874
 50
90.0
 51
180.0
  0
ARC
  5
19203
  8
0
  6
CONTINUOUS
 62
     7
 10
4179.899777665315014
 20
233.2517443524799887
 30
0.0
 40
0.1771653543
 50
270.0
 51
0.0
  0
ARC
  5
19204
  8
0
  6
CONTINUOUS
 62
     7
 10
4179.899777665315014
 20
233.2517443524799887
 30
0.0
 40
0.1299212598
 50
270.0
 51
0.0
  0
ARC
  5
19205
  8
0
  6
CONTINUOUS
 62
     7
 10
4179.1615886889148896
 20
231.7222167933799994
 30
0.0
 40
0.1181102362
 50
180.0
 51
270.0
  0
ARC
  5
19206
  8
0
  6
CONTINUOUS
 62
     7
 10
4179.4765493188151595
 20
231.6631616752800085
 30
0.0
 40
0.0590551181
 50
270.0
 51
0.0
  0
ARC
  5
19207
  8
0
  6
CONTINUOUS
 62
     7
 10
4179.1025335708145576
 20
232.9230041949799102
 30
0.0
 40
0.0590551181
 50
90.0
 51
180.0
  0
ARC
  5
19208
  8
0
  6
CONTINUOUS
 62
     7
 10
4179.4568642795138658
 20
231.6631616752800085
 30
0.0
 40
0.0590551181
 50
270.0
 51
0.0
  0
ARC
  5
19209
  8
0
  6
CONTINUOUS
 62
     7
 10
4180.1084390826154049
 20
234.9131616752800085
 30
0.0
 40
0.0787401575
 50
90.0
 51
180.0
  0
ARC
  5
1920A
  8
0
  6
CONTINUOUS
 62
     7
 10
4178.8466280590146198
 20
234.5903270295800098
 30
0.0
 40
0.0708661417
 50
0.0
 51
90.0
  0
ARC
  5
1920B
  8
0
  6
CONTINUOUS
 62
     7
 10
4179.8308800275153772
 20
233.6848152185800132
 30
0.0
 40
0.0708661417
 50
0.0
 51
90.0
  0
ARC
  5
1920C
  8
0
  6
CONTINUOUS
 62
     7
 10
4180.1084390826154049
 20
234.9131616752800085
 30
0.0
 40
0.031496063
 50
89.9999999998957776
 51
180.0
  0
ARC
  5
1920D
  8
0
  6
CONTINUOUS
 62
     7
 10
4184.0631634921146542
 20
232.3462325414799921
 30
0.0
 40
0.3937007874
 50
180.0
 51
270.0
  0
ARC
  5
1920E
  8
0
  6
CONTINUOUS
 62
     7
 10
4184.0631634921146542
 20
232.3462325414799921
 30
0.0
 40
0.3149606299
 50
180.0
 51
270.0
  0
ARC
  5
1920F
  8
0
  6
CONTINUOUS
 62
     7
 10
4184.7738012949303084
 20
232.9230701528074974
 30
0.0
 40
0.0589974440549047
 50
359.9359445822099133
 51
89.0398469764117664
  0
ARC
  5
19210
  8
0
  6
CONTINUOUS
 62
     7
 10
4184.7738012945455921
 20
232.8048280010364977
 30
0.0
 40
0.0589974444392687
 50
270.960170430946107
 51
0.0640553358450897
  0
ARC
  5
19211
  8
0
  6
CONTINUOUS
 62
     7
 10
4186.8485965629151906
 20
231.9131616752800085
 30
0.0
 40
0.0393700787
 50
180.0
 51
0.0
  0
ARC
  5
19212
  8
0
  6
CONTINUOUS
 62
     7
 10
4186.0808800275153772
 20
231.9131616752800085
 30
0.0
 40
0.0393700787
 50
180.0
 51
0.0
  0
ARC
  5
19213
  8
0
  6
CONTINUOUS
 62
     7
 10
4185.3131634921146542
 20
231.9131616752800085
 30
0.0
 40
0.0393700787
 50
180.0
 51
0.0
  0
ARC
  5
19214
  8
0
  6
CONTINUOUS
 62
     7
 10
4184.5454469566138869
 20
231.636693477179989
 30
0.0
 40
0.0393700787
 50
180.0
 51
0.0
  0
ARC
  5
19215
  8
0
  6
CONTINUOUS
 62
     7
 10
4184.5454469566138869
 20
231.9131616752800085
 30
0.0
 40
0.0393700787
 50
180.0
 51
0.0
  0
ARC
  5
19216
  8
0
  6
CONTINUOUS
 62
     7
 10
4183.590722547214682
 20
234.7084372658800078
 30
0.0
 40
0.0787401575
 50
180.0
 51
270.0
  0
ARC
  5
19217
  8
0
  6
CONTINUOUS
 62
     7
 10
4183.590722547214682
 20
233.3304845099800104
 30
0.0
 40
0.0787401575
 50
90.0
 51
270.0
  0
ARC
  5
19218
  8
0
  6
CONTINUOUS
 62
     7
 10
4194.1219040725172817
 20
226.4014805514113959
 30
0.0
 40
0.4412594387180701
 50
270.3089915267743777
 51
359.9831330373440892
  0
ARC
  5
19219
  8
0
  6
CONTINUOUS
 62
     7
 10
4188.001518400014902
 20
225.6164778362800121
 30
0.0
 40
0.0669291339
 50
215.2420365595947942
 51
261.8057366653918052
  0
ARC
  5
1921A
  8
0
  6
CONTINUOUS
 62
     7
 10
4192.3689030723153337
 20
225.6164778362800121
 30
0.0
 40
0.0669291339
 50
278.1942633346080811
 51
324.7579634405983029
  0
ARC
  5
1921B
  8
0
  6
CONTINUOUS
 62
     7
 10
4187.8263122063062838
 20
225.7121934832138948
 30
0.0
 40
0.0209389542130042
 50
36.4082243302454671
 51
86.5393653101537979
  0
ARC
  5
1921C
  8
0
  6
CONTINUOUS
 62
     7
 10
4188.3941340696146653
 20
231.9128388489799875
 30
0.0
 40
0.0393700787
 50
172.6573617438976953
 51
349.1446230178996757
  0
ARC
  5
1921D
  8
0
  6
CONTINUOUS
 62
     7
 10
4189.1684677436151105
 20
231.912284028379986
 30
0.0
 40
0.0393700787
 50
273.4908569526032807
 51
344.3667429894056795
  0
ARC
  5
1921E
  8
0
  6
CONTINUOUS
 62
     7
 10
4189.1684677436151105
 20
231.636693477179989
 30
0.0
 40
0.0393700787
 50
180.0
 51
0.0
  0
ARC
  5
1921F
  8
0
  6
CONTINUOUS
 62
     7
 10
4189.1684677436151105
 20
231.912284028379986
 30
0.0
 40
0.0393700787
 50
167.8794513264963939
 51
270.0
  0
ARC
  5
19220
  8
0
  6
CONTINUOUS
 62
     7
 10
4187.6196935092148124
 20
231.9131195549799997
 30
0.0
 40
0.039369869
 50
177.5405717333985081
 51
357.5405675255984193
  0
ARC
  5
19221
  8
0
  6
CONTINUOUS
 62
     7
 10
4189.511653754814688
 20
232.3462325414799921
 30
0.0
 40
0.3937007874
 50
270.0
 51
339.999999999992724
  0
ARC
  5
19222
  8
0
  6
CONTINUOUS
 62
     7
 10
4189.511653754814688
 20
232.3462325414799921
 30
0.0
 40
0.3149606299
 50
270.0
 51
339.999999999992724
  0
ARC
  5
19223
  8
0
  6
CONTINUOUS
 62
     7
 10
4190.5570498058150406
 20
233.0548939587800135
 30
0.0
 40
0.1968503937
 50
159.7221812400055967
 51
270.0
  0
ARC
  5
19224
  8
0
  6
CONTINUOUS
 62
     7
 10
4191.3323793813151497
 20
232.9367837225800031
 30
0.0
 40
0.1377952756
 50
214.9628545564935109
 51
145.0400672667103095
  0
ARC
  5
19225
  8
0
  6
CONTINUOUS
 62
     7
 10
4191.3323793813151497
 20
232.9367837225800031
 30
0.0
 40
0.0787401575
 50
270.0
 51
90.0
  0
ARC
  5
19226
  8
0
  6
CONTINUOUS
 62
     7
 10
4190.3650732749138115
 20
233.3304845099800104
 30
0.0
 40
0.0787401575
 50
270.0
 51
90.0
  0
ARC
  5
19227
  8
0
  6
CONTINUOUS
 62
     7
 10
4189.6911083740897084
 20
232.8048280133241121
 30
0.0
 40
0.0589974517316577
 50
179.9359566053597916
 51
269.0401191705502129
  0
ARC
  5
19228
  8
0
  6
CONTINUOUS
 62
     7
 10
4189.6911083744753341
 20
232.9230701403519106
 30
0.0
 40
0.058997452116004
 50
90.9598978338336082
 51
180.0640433127097992
  0
ARC
  5
19229
  8
0
  6
CONTINUOUS
 62
     7
 10
4190.5570498058150406
 20
233.0548939587800135
 30
0.0
 40
0.0393700787
 50
159.7221812398989016
 51
270.0
  0
ARC
  5
1922A
  8
0
  6
CONTINUOUS
 62
     7
 10
4191.5428512635153311
 20
235.4958388406799941
 30
0.0
 40
0.2755905512
 50
359.7221812397999088
 51
159.7221812397052076
  0
ARC
  5
1922B
  8
0
  6
CONTINUOUS
 62
     7
 10
4191.5428512635153311
 20
235.4958388406799941
 30
0.0
 40
0.1181102362
 50
359.7221812397999088
 51
159.7221812397052076
  0
ARC
  5
1922C
  8
0
  6
CONTINUOUS
 62
     7
 10
4190.8741871141146476
 20
234.7084372658800078
 30
0.0
 40
0.0787401575
 50
270.0
 51
0.0
  0
ARC
  5
1922D
  8
0
  6
CONTINUOUS
 62
     7
 10
4194.5552894763150107
 20
231.8403270295800098
 30
0.0
 40
0.3937007874
 50
0.0
 51
90.0
  0
ARC
  5
1922E
  8
0
  6
CONTINUOUS
 62
     7
 10
4194.565131996015225
 20
233.2517443524799887
 30
0.0
 40
0.1771653543
 50
180.0
 51
270.0
  0
ARC
  5
1922F
  8
0
  6
CONTINUOUS
 62
     7
 10
4194.565131996015225
 20
233.2517443524799887
 30
0.0
 40
0.1299212598
 50
180.0
 51
270.0
  0
ARC
  5
19230
  8
0
  6
CONTINUOUS
 62
     7
 10
4195.3033209724153494
 20
231.7222167933799994
 30
0.0
 40
0.1181102362
 50
270.0
 51
0.0
  0
ARC
  5
19231
  8
0
  6
CONTINUOUS
 62
     7
 10
4194.9096201850152283
 20
231.6631616752800085
 30
0.0
 40
0.0590551181
 50
180.0
 51
270.0
  0
ARC
  5
19232
  8
0
  6
CONTINUOUS
 62
     7
 10
4195.3623760905138624
 20
232.9230041949799102
 30
0.0
 40
0.0590551181
 50
0.0
 51
90.0
  0
ARC
  5
19233
  8
0
  6
CONTINUOUS
 62
     7
 10
4195.0080453818145543
 20
231.6631616752800085
 30
0.0
 40
0.0590551181
 50
180.0
 51
270.0
  0
ARC
  5
19234
  8
0
  6
CONTINUOUS
 62
     7
 10
4194.6629193976150418
 20
233.0781223051799884
 30
0.0
 40
0.05
 50
76.0794822014095757
 51
90.0
  0
ARC
  5
19235
  8
0
  6
CONTINUOUS
 62
     7
 10
4194.5954469566149783
 20
233.2117664398799946
 30
0.0
 40
0.0464566929
 50
0.0
 51
89.0000000000243006
  0
ARC
  5
19236
  8
0
  6
CONTINUOUS
 62
     7
 10
4194.5749745157163488
 20
233.270400380079991
 30
0.0
 40
0.0118110236
 50
180.0000000002002878
 51
269.0000000051838924
  0
ARC
  5
19237
  8
0
  6
CONTINUOUS
 62
     7
 10
4191.7371268054139364
 20
234.9643427776800024
 30
0.0
 40
0.1377952756
 50
351.773387324600094
 51
54.7804249155056624
  0
ARC
  5
19238
  8
0
  6
CONTINUOUS
 62
     7
 10
4191.7371268054139364
 20
234.9643427776800024
 30
0.0
 40
0.1377952756
 50
124.6470084588869014
 51
188.2292814120995956
  0
ARC
  5
19239
  8
0
  6
CONTINUOUS
 62
     7
 10
4194.3564705787139246
 20
234.9131616752800085
 30
0.0
 40
0.0787401575
 50
0.0
 51
90.0
  0
ARC
  5
1923A
  8
0
  6
CONTINUOUS
 62
     7
 10
4191.7371268054139364
 20
234.9643427776800024
 30
0.0
 40
0.0787401575
 50
345.4946266766020244
 51
359.7221812398992142
  0
ARC
  5
1923B
  8
0
  6
CONTINUOUS
 62
     7
 10
4191.7371268054139364
 20
234.9643427776800024
 30
0.0
 40
0.0787401575
 50
179.7221812398991858
 51
194.4967022290933869
  0
ARC
  5
1923C
  8
0
  6
CONTINUOUS
 62
     7
 10
4195.6182816023147097
 20
234.5903270295800098
 30
0.0
 40
0.0708661417
 50
90.0
 51
180.0
  0
ARC
  5
1923D
  8
0
  6
CONTINUOUS
 62
     7
 10
4194.6340296338148619
 20
233.6848152185800132
 30
0.0
 40
0.0708661417
 50
90.000000637203641
 51
180.0
  0
ARC
  5
1923E
  8
0
  6
CONTINUOUS
 62
     7
 10
4194.3564705787139246
 20
234.9131616752800085
 30
0.0
 40
0.031496063
 50
0.0
 51
90.0
  0
ARC
  5
1923F
  8
0
 10
4180.0624192423356362
 20
233.2466303060344046
 30
0.0
 40
0.5094608245808797
 50
68.9856044560230828
 51
87.701833173834757
  0
ARC
  5
19240
  8
0
 10
4179.5014168347843224
 20
231.6354394594528969
 30
0.0
 40
2.2153291649686149
 50
67.6817191342570652
 51
70.3846061151677134
  0
ARC
  5
19241
  8
0
 10
4179.4293261722714306
 20
235.81784276821611
 30
0.0
 40
3.0645011424592541
 50
265.737970366570778
 51
270.1468258993119775
  0
ARC
  5
19242
  8
0
 10
4179.2492979549433585
 20
233.5751863674040862
 30
0.0
 40
0.8147687720366275
 50
257.5601853069737786
 51
266.6424077889427053
  0
ARC
  5
19243
  8
0
 10
4179.1049801418103016
 20
232.9063663985886876
 30
0.0
 40
0.1306005730513517
 50
247.3780155291292999
 51
256.1809578567459766
  0
ARC
  5
19244
  8
0
 10
4179.0673490792169105
 20
232.8167306149879039
 30
0.0
 40
0.0333873472760352
 50
224.3600575462938025
 51
247.8198586195483131
  0
ARC
  5
19245
  8
0
 10
4184.2685715513216564
 20
227.938068113493614
 30
0.0
 40
4.8140613296050558
 50
98.8226654921111276
 51
105.896797763524205
  0
ARC
  5
19246
  8
0
 10
4183.6469554029117717
 20
230.0419542864960079
 30
0.0
 40
2.6204596534873201
 50
105.4250046378896997
 51
115.0844641822201027
  0
ARC
  5
19247
  8
0
 10
4182.7971016054589199
 20
231.8278002962753135
 30
0.0
 40
0.6428722220014107
 50
113.9629817418018973
 51
131.7739574660477899
  0
ARC
  5
19248
  8
0
 10
4182.4634528592168863
 20
232.2051719938087047
 30
0.0
 40
0.1391855437690312
 50
132.833773426874501
 51
154.037891746467011
  0
ARC
  5
19249
  8
0
 10
4182.2901109740223546
 20
232.2862495355186923
 30
0.0
 40
0.0522427906168823
 50
271.6273941431708181
 51
337.3183628058329759
  0
ARC
  5
1924A
  8
0
 10
4184.151558079134702
 20
229.1340143153516919
 30
0.0
 40
3.6709551236997671
 50
90.3674223440801967
 51
96.308251602869035
  0
ARC
  5
1924B
  8
0
 10
4184.1537246746866003
 20
229.0724546614592896
 30
0.0
 40
3.673521657875729
 50
90.5138360489213909
 51
96.3381034354606385
  0
ARC
  5
1924C
  8
0
  6
CONTINUOUS
 62
     7
 10
4190.1732687648218416
 20
227.7016855280494951
 30
0.0
 40
5.0512032181822013
 50
81.3300024600471545
 51
82.9243222197960677
  0
ARC
  5
1924D
  8
0
 10
4190.1963381100076731
 20
227.9380681134946087
 30
0.0
 40
4.8140613296040149
 50
74.1032034438758416
 51
81.1773345078888866
  0
ARC
  5
1924E
  8
0
 10
4190.8179542130410482
 20
230.0419541778553878
 30
0.0
 40
2.6204597711194841
 50
64.9155359262382348
 51
74.5749972555265117
  0
ARC
  5
1924F
  8
0
 10
4191.6678080558704096
 20
231.8278002962755977
 30
0.0
 40
0.6428722220010642
 50
48.2260496771250615
 51
66.0370182581980458
  0
ARC
  5
19250
  8
0
 10
4192.0014568393853551
 20
232.205172016438496
 30
0.0
 40
0.1391855003505261
 50
25.9621065951456309
 51
47.1662644790226082
  0
ARC
  5
19251
  8
0
 10
4192.1747987023027235
 20
232.286249557359298
 30
0.0
 40
0.0522428128745927
 50
202.6816529530985918
 51
268.372590446314689
  0
ARC
  5
19252
  8
0
 10
4190.3031391057083965
 20
228.818285879334411
 30
0.0
 40
3.9867509647292469
 50
80.7640622989883781
 51
89.5149091040135261
  0
ARC
  5
19253
  8
0
 10
4190.3085993355853134
 20
228.9704053308994105
 30
0.0
 40
3.7755395212539118
 50
82.5907434788074397
 51
89.5706360562308532
  0
ARC
  5
19254
  8
0
 10
4195.0299259354424066
 20
236.1479067637590958
 30
0.0
 40
3.3945557858811841
 50
269.9629425121729014
 51
272.6093837560474071
  0
ARC
  5
19255
  8
0
 10
4195.0983897277328651
 20
234.7476006529086021
 30
0.0
 40
1.9925900974754629
 50
272.4759161561177052
 51
276.2742481369061807
  0
ARC
  5
19256
  8
0
 10
4195.2470195342420993
 20
233.4170111776620899
 30
0.0
 40
0.653731356763578
 50
276.0706796496032212
 51
281.9857436443962797
  0
ARC
  5
19257
  8
0
 10
4195.3465716829168741
 20
232.9486193023373062
 30
0.0
 40
0.1748769607968564
 50
281.9491477065923846
 51
290.3674752480840766
  0
ARC
  5
19258
  8
0
 10
4195.3822373453403998
 20
232.8474850713108992
 30
0.0
 40
0.0676755619957395
 50
291.860171568878684
 51
305.3903250086710841
  0
ARC
  5
19259
  8
0
 10
4194.7598901633846253
 20
232.160249434783708
 30
0.0
 40
1.6525513120156861
 50
108.0008111437537934
 51
112.6978208681559011
  0
ARC
  5
1925A
  8
0
 10
4194.3968286300523687
 20
233.2899432880311963
 30
0.0
 40
0.4659721355354649
 50
91.8161110224360471
 51
108.4704569380122052
  0
ARC
  5
1925B
  8
0
 10
4180.460967600280128
 20
235.7981376531143951
 30
0.0
 40
0.9632216033523745
 50
256.637546279486628
 51
270.5755841966048934
  0
ARC
  5
1925C
  8
0
 10
4180.2976973994191212
 20
235.1371585838394083
 30
0.0
 40
0.2824691051091281
 50
236.7756302366227033
 51
257.873123879143975
  0
ARC
  5
1925D
  8
0
 10
4180.1804334806456609
 20
234.9581062503997089
 30
0.0
 40
0.0684350792292294
 50
206.6976725596275912
 51
236.766214738859901
  0
ARC
  5
1925E
  8
0
 10
4180.1492859830032103
 20
234.941061753614207
 30
0.0
 40
0.0329735040194447
 50
179.6488018035624918
 51
204.5540745762822894
  0
ARC
  5
1925F
  8
0
 10
4180.4695254496609778
 20
236.1817507607057109
 30
0.0
 40
1.3844962556161251
 50
263.6264524157916753
 51
270.0462820060329818
  0
ARC
  5
19260
  8
0
 10
4180.3955053654126459
 20
235.5801010984054926
 30
0.0
 40
0.7783777167737451
 50
252.5126171268921098
 51
264.1250425314725021
  0
ARC
  5
19261
  8
0
 10
4180.2290225458837085
 20
235.0556039792568868
 30
0.0
 40
0.2280968694507709
 50
236.643130623707691
 51
252.8088574445515064
  0
ARC
  5
19262
  8
0
 10
4180.1460171811595501
 20
234.9298242850260863
 30
0.0
 40
0.0773973807876855
 50
216.8475412787059895
 51
236.7697147529524955
  0
ARC
  5
19263
  8
0
 10
4180.1121901707383586
 20
234.9047073205026948
 30
0.0
 40
0.0352660094109824
 50
181.8738290230367909
 51
217.1500491174770957
  0
LINE
  5
19264
  8
0
  6
CONTINUOUS
 62
     7
 10
4194.3485965629151906
 20
234.9446577382800001
 30
0.0
 11
4194.3485965629151906
 21
234.9412638655799981
 31
0.0
  0
ARC
  5
19265
  8
0
 10
4194.0039420610501111
 20
235.7981376531143951
 30
0.0
 40
0.9632216033523745
 50
269.4244158033951066
 51
283.362453720513372
  0
ARC
  5
19266
  8
0
 10
4194.1672122619111178
 20
235.1371585838394083
 30
0.0
 40
0.2824691051091281
 50
282.126876120856025
 51
303.2243697633772967
  0
ARC
  5
19267
  8
0
 10
4194.2844761806836686
 20
234.9581062503997089
 30
0.0
 40
0.0684350792292294
 50
303.233785261140099
 51
333.3023274403723804
  0
ARC
  5
19268
  8
0
 10
4194.3156236783270288
 20
234.941061753614207
 30
0.0
 40
0.0329735040194447
 50
335.4459254237175969
 51
0.3511981964374796
  0
ARC
  5
19269
  8
0
 10
4193.9953842116683518
 20
236.1817507607057109
 30
0.0
 40
1.3844962556161251
 50
269.9537179939670182
 51
276.3735475842083247
  0
ARC
  5
1926A
  8
0
 10
4194.0694042959157741
 20
235.5801010984054926
 30
0.0
 40
0.7783777167737451
 50
275.8749574685274979
 51
287.4873828731078902
  0
ARC
  5
1926B
  8
0
 10
4194.235887115445621
 20
235.0556039792568868
 30
0.0
 40
0.2280968694507709
 50
287.1911425554486073
 51
303.3568693762913995
  0
ARC
  5
1926C
  8
0
 10
4194.3188924801706889
 20
234.9298242850260863
 30
0.0
 40
0.0773973807876855
 50
303.230285247048414
 51
323.1524587212938968
  0
ARC
  5
1926D
  8
0
 10
4194.3527194905918805
 20
234.9047073205026948
 30
0.0
 40
0.0352660094109824
 50
322.8499508825215116
 51
358.1261709769631807
  0
ARC
  5
1926E
  8
0
 10
4192.5460504704224149
 20
225.7170530296401125
 30
0.0
 40
0.0197159338771396
 50
98.067493184172875
 51
144.7164389445495942
  0
ATTDEF
  5
19270
  8
DEFPOINTS
 10
4187.2325502701833102
 20
234.6601451006698937
 30
0.0
 40
0.001
  1
K-99064T-F
  3

  2
MODELNUMBER
 70
     0
1001
ACDBATTR
1070
     0
1070
     1
  0
ATTDEF
  5
19271
  8
DEFPOINTS
 10
4187.2324244605260901
 20
234.6584782602907069
 30
0.0
 40
0.001
  1
ELATE
  3

  2
TRADENAME
 70
     0
1001
ACDBATTR
1070
     0
1070
     1
  0
ATTDEF
  5
19272
  8
DEFPOINTS
 10
4187.2325502701833102
 20
234.6568117673365919
 30
0.0
 40
0.001
  1
KITCHEN SINK
  3

  2
PRODUCT
 70
     0
1001
ACDBATTR
1070
     0
1070
     1
  0
ENDSEC
  0
EOF
