  0
SECTION
  2
HEADER
  9
$ACADVER
  1
AC1009
  9
$INSBASE
 10
3724.8056808792839547
 20
99.8508475099571768
 30
0.0
  9
$EXTMIN
 10
3720.6688534933950905
 20
95.3344517464925048
 30
-0.0015258207003583
  9
$EXTMAX
 10
3728.918921522591063
 20
99.8598211641361218
 30
0.0000000349246037
  9
$LIMMIN
 10
0.0
 20
0.0
  9
$LIMMAX
 10
11.6929133858000007
 20
8.2677165353999982
  9
$ORTHOMODE
 70
     0
  9
$REGENMODE
 70
     1
  9
$FILLMODE
 70
     1
  9
$QTEXTMODE
 70
     0
  9
$MIRRTEXT
 70
     0
  9
$DRAGMODE
 70
     2
  9
$LTSCALE
 40
0.6431102362
  9
$OSMODE
 70
  4095
  9
$ATTMODE
 70
     1
  9
$TEXTSIZE
 40
0.2
  9
$TRACEWID
 40
0.05
  9
$TEXTSTYLE
  7
STANDARD
  9
$CLAYER
  8
0
  9
$CELTYPE
  6
BYLAYER
  9
$CECOLOR
 62
   256
  9
$DIMSCALE
 40
1.0
  9
$DIMASZ
 40
0.1875
  9
$DIMEXO
 40
0.0625
  9
$DIMDLI
 40
0.4443307087
  9
$DIMRND
 40
0.0
  9
$DIMDLE
 40
0.0
  9
$DIMEXE
 40
0.125
  9
$DIMTP
 40
0.01
  9
$DIMTM
 40
0.01
  9
$DIMTXT
 40
2.0
  9
$DIMCEN
 40
0.1052362205
  9
$DIMTSZ
 40
0.0
  9
$DIMTOL
 70
     1
  9
$DIMLIM
 70
     0
  9
$DIMTIH
 70
     1
  9
$DIMTOH
 70
     1
  9
$DIMSE1
 70
     0
  9
$DIMSE2
 70
     0
  9
$DIMTAD
 70
     0
  9
$DIMZIN
 70
     0
  9
$DIMBLK
  1

  9
$DIMASO
 70
     1
  9
$DIMSHO
 70
     1
  9
$DIMPOST
  1
\X
  9
$DIMAPOST
  1

  9
$DIMALT
 70
     1
  9
$DIMALTD
 70
     2
  9
$DIMALTF
 40
25.3999999999999986
  9
$DIMLFAC
 40
1.0
  9
$DIMTOFL
 70
     0
  9
$DIMTVP
 40
0.0
  9
$DIMTIX
 70
     0
  9
$DIMSOXD
 70
     0
  9
$DIMSAH
 70
     0
  9
$DIMBLK1
  1

  9
$DIMBLK2
  1

  9
$DIMSTYLE
  2
STANDARD
  9
$DIMCLRD
 70
     0
  9
$DIMCLRE
 70
     0
  9
$DIMCLRT
 70
     0
  9
$DIMTFAC
 40
1.0
  9
$DIMGAP
 40
0.09
  9
$LUNITS
 70
     2
  9
$LUPREC
 70
     4
  9
$SKETCHINC
 40
0.1
  9
$FILLETRAD
 40
0.0
  9
$AUNITS
 70
     0
  9
$AUPREC
 70
     0
  9
$MENU
  1
.
  9
$ELEVATION
 40
0.0
  9
$PELEVATION
 40
0.0
  9
$THICKNESS
 40
0.0
  9
$LIMCHECK
 70
     0
  9
$BLIPMODE
 70
     0
  9
$CHAMFERA
 40
0.0
  9
$CHAMFERB
 40
0.0
  9
$SKPOLY
 70
     0
  9
$TDCREATE
 40
2458060.468368056230247
  9
$TDUPDATE
 40
2459389.3857638891786337
  9
$TDINDWG
 40
0.3878890046
  9
$TDUSRTIMER
 40
0.3878890046
  9
$USRTIMER
 70
     1
  9
$ANGBASE
 50
0.0
  9
$ANGDIR
 70
     0
  9
$PDMODE
 70
     0
  9
$PDSIZE
 40
0.3125
  9
$PLINEWID
 40
0.0
  9
$COORDS
 70
     1
  9
$SPLFRAME
 70
     0
  9
$SPLINETYPE
 70
     6
  9
$SPLINESEGS
 70
     8
  9
$ATTDIA
 70
     1
  9
$ATTREQ
 70
     1
  9
$HANDLING
 70
     1
  9
$HANDSEED
  5
14AA7
  9
$SURFTAB1
 70
     6
  9
$SURFTAB2
 70
     6
  9
$SURFTYPE
 70
     6
  9
$SURFU
 70
     6
  9
$SURFV
 70
     6
  9
$UCSNAME
  2

  9
$UCSORG
 10
0.0
 20
0.0
 30
0.0
  9
$UCSXDIR
 10
1.0
 20
0.0
 30
0.0
  9
$UCSYDIR
 10
0.0
 20
1.0
 30
0.0
  9
$PUCSNAME
  2

  9
$PUCSORG
 10
0.0
 20
0.0
 30
0.0
  9
$PUCSXDIR
 10
1.0
 20
0.0
 30
0.0
  9
$PUCSYDIR
 10
0.0
 20
1.0
 30
0.0
  9
$USERI1
 70
     0
  9
$USERI2
 70
     0
  9
$USERI3
 70
     0
  9
$USERI4
 70
     0
  9
$USERI5
 70
     0
  9
$USERR1
 40
0.0
  9
$USERR2
 40
0.0
  9
$USERR3
 40
0.0
  9
$USERR4
 40
0.0
  9
$USERR5
 40
0.0
  9
$WORLDVIEW
 70
     1
  9
$SHADEDGE
 70
     3
  9
$SHADEDIF
 70
    70
  9
$TILEMODE
 70
     1
  9
$MAXACTVP
 70
    64
  9
$PLIMCHECK
 70
     0
  9
$PEXTMIN
 10
1.0000000000000000E+20
 20
1.0000000000000000E+20
 30
1.0000000000000000E+20
  9
$PEXTMAX
 10
-1.0000000000000000E+20
 20
-1.0000000000000000E+20
 30
-1.0000000000000000E+20
  9
$PLIMMIN
 10
0.0
 20
0.0
  9
$PLIMMAX
 10
12.0
 20
9.0
  9
$UNITMODE
 70
     0
  9
$VISRETAIN
 70
     1
  9
$PLINEGEN
 70
     0
  9
$PSLTSCALE
 70
     1
  0
ENDSEC
  0
SECTION
  2
TABLES
  0
TABLE
  2
VPORT
 70
     1
  0
VPORT
  2
*ACTIVE
 70
     0
 10
0.0
 20
0.0
 11
1.0
 21
1.0
 12
-540.2124601482572643
 22
-6.7068758432696711
 13
0.0
 23
0.0
 14
1.0
 24
1.0
 15
0.0
 25
0.0
 16
0.0
 26
0.0
 36
122.0237731519760018
 17
4265.00634765625
 27
104.3040122985839986
 37
0.0
 40
4.9160705319583631
 41
2.6159122085048012
 42
50.0
 43
0.0
 44
0.0
 50
0.0
 51
0.0
 71
     0
 72
   100
 73
     1
 74
     1
 75
     0
 76
     0
 77
     0
 78
     0
  0
ENDTAB
  0
TABLE
  2
LTYPE
 70
     2
  0
LTYPE
  2
CONTINUOUS
 70
     0
  3
Solid line
 72
    65
 73
     0
 40
0.0
  0
LTYPE
  2
PHANTOM2
 70
     0
  3
___ _ _ ___ _ _ ___ _ _ ___ _ _
 72
    65
 73
     6
 40
1.25
 49
0.625
 49
-0.125
 49
0.125
 49
-0.125
 49
0.125
 49
-0.125
  0
ENDTAB
  0
TABLE
  2
LAYER
 70
     2
  0
LAYER
  2
0
 70
     0
 62
   255
  6
CONTINUOUS
  0
LAYER
  2
DEFPOINTS
 70
     0
 62
     7
  6
CONTINUOUS
  0
ENDTAB
  0
TABLE
  2
STYLE
 70
     1
  0
STYLE
  2
STANDARD
 70
     0
 40
0.0
 41
0.8
 50
0.0
 71
     0
 42
0.2
  3
txt
  4

  0
ENDTAB
  0
TABLE
  2
VIEW
 70
     0
  0
ENDTAB
  0
TABLE
  2
UCS
 70
     0
  0
ENDTAB
  0
TABLE
  2
APPID
 70
     9
  0
APPID
  2
ACAD
 70
     0
  0
APPID
  2
ACAD_MLEADERVER
 70
     0
  0
APPID
  2
ACAD_EXEMPT_FROM_CAD_STANDARDS
 70
     0
  0
APPID
  2
ACAD_NAV_VCDISPLAY
 70
     0
  0
APPID
  2
ACAECLAYERSTANDARD
 70
     0
  0
APPID
  2
ACCMTRANSPARENCY
 70
     0
  0
APPID
  2
ACAD_DSTYLE_DIMJAG
 70
     0
  0
APPID
  2
ACAD_DSTYLE_DIMTALN
 70
     0
  0
APPID
  2
ACDBATTR
 70
     0
  0
ENDTAB
  0
TABLE
  2
DIMSTYLE
 70
     1
  0
DIMSTYLE
  2
STANDARD
 70
     0
  3

  4

  5

  6

  7

 40
1.0
 41
0.1875
 42
0.0625
 43
0.38
 44
0.125
 45
0.0
 46
0.0
 47
0.01
 48
0.01
140
0.15625
141
0.09
142
0.0
143
25.3999999999999986
144
1.0
145
0.0
146
1.0
147
0.09
 71
     1
 72
     0
 73
     1
 74
     1
 75
     0
 76
     0
 77
     0
 78
     4
170
     0
171
     2
172
     0
173
     0
174
     0
175
     0
176
     0
177
     0
178
     0
  0
ENDTAB
  0
ENDSEC
  0
SECTION
  2
BLOCKS
  0
BLOCK
  8
0
  2
$MODEL_SPACE
 70
     0
 10
0.0
 20
0.0
 30
0.0
  3
$MODEL_SPACE
  1

  0
ENDBLK
  5
21
  8
0
  0
BLOCK
 67
     1
  8
0
  2
$PAPER_SPACE
 70
     0
 10
0.0
 20
0.0
 30
0.0
  3
$PAPER_SPACE
  1

  0
ENDBLK
  5
1D
 67
     1
  8
0
  0
BLOCK
  8
0
  2
_FILLED
 70
     0
 10
0.0
 20
0.0
 30
0.0
  3
_FILLED
  1

  0
SOLID
  5
10F92
  8
0
  6
BYBLOCK
 62
     0
 10
0.0
 20
0.0
 30
0.0
 11
-1.0
 21
0.1666666667
 31
0.0
 12
-1.0
 22
-0.1666666667
 32
0.0
 13
-1.0
 23
-0.1666666667
 33
0.0
  0
ENDBLK
  5
10F93
  8
0
  6
BYBLOCK
 62
     0
  0
BLOCK
  8
0
  2
A$CD5C563C5
 70
     0
 10
0.0
 20
0.0
 30
0.0
  3
A$CD5C563C5
  1

  0
ARC
  5
1422A
  8
0
 10
0.0000009689918583
 20
2.0275590550999998
 30
0.0
 40
0.8889784426678655
 50
344.8942115592378173
 51
71.1377383771188505
  0
ARC
  5
1422B
  8
0
 10
0.0000009689918583
 20
2.0275590550999998
 30
0.0
 40
0.8889784426678655
 50
108.8622438043988012
 51
195.1049209242191864
  0
ARC
  5
1422C
  8
0
 10
-0.0000000000000009
 20
2.0247267076574329
 30
0.0
 40
0.868974079742566
 50
359.9371001882710175
 51
180.0628998117288972
  0
ARC
  5
1422D
  8
0
 10
0.0046611295737051
 20
3.2477181027169171
 30
0.0
 40
2.5285585690561101
 50
263.1833102239123718
 51
269.8943812467480257
  0
ARC
  5
1422E
  8
0
 10
-0.1954607200646245
 20
1.4449488076310499
 30
0.0
 40
0.7149430639331561
 50
244.3150076722197923
 51
261.9595316310521866
  0
ARC
  5
1422F
  8
0
 10
-0.3330860137423075
 20
1.1587927784833389
 30
0.0
 40
0.3974119717902703
 50
213.5081241648163086
 51
244.3150076722197923
  0
ARC
  5
14230
  8
0
 10
-0.1137611083374752
 20
1.304005493772785
 30
0.0
 40
0.660452171783679
 50
191.3214505807158901
 51
213.5081241648161949
  0
ARC
  5
14231
  8
0
 10
6.2154457296625409
 20
2.5711701621271472
 30
0.0
 40
7.1152616573465011
 50
186.5667815767262994
 51
191.3214505807160037
  0
ARC
  5
14232
  8
0
 10
0.6893469245419866
 20
1.9828280509903671
 30
0.0
 40
1.5588582963183779
 50
178.4949063478134121
 51
188.3125142956189961
  0
ARC
  5
14233
  8
0
 10
-0.0870210651347332
 20
4.609441655937407
 30
0.0
 40
3.8912509852499371
 50
271.2814273518616801
 51
275.6408811774779224
  0
ARC
  5
14234
  8
0
 10
0.1954607200646245
 20
1.4449488076310499
 30
0.0
 40
0.7149430639331561
 50
278.040468368947927
 51
295.684992327780094
  0
ARC
  5
14235
  8
0
 10
0.3330860137423075
 20
1.1587927784833389
 30
0.0
 40
0.3974119717902703
 50
295.684992327780094
 51
326.4918758351836914
  0
ARC
  5
14236
  8
0
 10
0.1137611083374752
 20
1.304005493772785
 30
0.0
 40
0.660452171783679
 50
326.4918758351839188
 51
348.6785494192840815
  0
ARC
  5
14237
  8
0
 10
-6.2154457296625409
 20
2.5711701621271472
 30
0.0
 40
7.1152616573465011
 50
348.6785494192840247
 51
353.4332184232736154
  0
ARC
  5
14238
  8
0
 10
-0.6893469245419866
 20
1.9828280509903671
 30
0.0
 40
1.5588582963183779
 50
351.6874857043810039
 51
1.505093652186632
  0
ARC
  5
14239
  8
0
 10
-0.0002977353601823
 20
2.089646378327445
 30
0.0
 40
0.8644219530123015
 50
89.980265448108895
 51
108.4510860884712002
  0
ARC
  5
1423A
  8
0
 10
0.2676409229768089
 20
2.8908820248900979
 30
0.0
 40
0.0197617055098939
 50
0.1677467305193951
 51
71.5870724965085685
  0
LINE
  5
1423B
  8
0
 10
0.2874025437918579
 20
2.8909398817999992
 30
0.0
 11
0.2874025437918579
 21
2.844797271137435
 31
0.0
  0
ARC
  5
1423C
  8
0
 10
-0.2677183911525658
 20
2.8909401010123652
 30
0.0
 40
0.0196822105569066
 50
108.2523597166199067
 51
180.0006663739513897
  0
LINE
  5
1423D
  8
0
 10
-0.287400601708141
 20
2.8909398720999988
 30
0.0
 11
-0.2874000650604378
 21
2.8447981398312989
 31
0.0
  0
ARC
  5
1423E
  8
0
 10
0.0002977353601823
 20
2.089646378327445
 30
0.0
 40
0.8644219530123015
 50
71.5489139115288282
 51
90.019734551891176
  0
ENDBLK
  5
14242
  8
0
  0
ENDSEC
  0
SECTION
  2
ENTITIES
  0
ATTDEF
  5
1419E
  8
DEFPOINTS
 10
3724.8072098433090105
 20
99.8557735447474215
 30
0.0
 40
0.001
  1
K-99105T
  3

  2
MODELNUMBER
 70
     0
1001
ACDBATTR
1070
     0
1070
     1
  0
ATTDEF
  5
1419F
  8
DEFPOINTS
 10
3724.8072098433090105
 20
99.8541068780807706
 30
0.0
 40
0.001
  1
MOXIE
  3

  2
TRADENAME
 70
     0
1001
ACDBATTR
1070
     0
1070
     1
  0
ATTDEF
  5
141A0
  8
DEFPOINTS
 10
3724.8072098433090105
 20
99.8524402114141054
 30
0.0
 40
0.001
  1
SHOWERHEAD
  3

  2
PRODUCT
 70
     0
1001
ACDBATTR
1070
     0
1070
     1
  0
LINE
  5
148DB
  8
0
 10
3728.7726409728720682
 20
95.7163514474464563
 30
0.0
 11
3720.8387207857958856
 21
95.7163514474464563
 31
0.0
  0
LINE
  5
148DC
  8
0
 10
3728.7340771530339225
 20
95.7153438734464572
 30
0.0
 11
3720.8772846056331218
 21
95.7153438734464572
 31
0.0
  0
ARC
  5
148DD
  8
0
 10
3728.7340771530339225
 20
95.7212493852464519
 30
0.0
 40
0.0059055118000005
 50
270.0
 51
303.9644742689961845
  0
ARC
  5
148DE
  8
0
 10
3728.7726384241341293
 20
95.7488317623464553
 30
0.0
 40
0.032480315
 50
270.0044960144173842
 51
56.4193709259447473
  0
LINE
  5
148DF
  8
0
 10
3728.7906036085078085
 20
95.7758913819464368
 30
0.0
 11
3725.7854577092211912
 21
97.7710413859156802
 31
0.0
  0
ARC
  5
148E0
  8
0
 10
3726.1267805530910664
 20
98.3131087838705326
 30
0.0
 40
0.6405765744018747
 50
213.9384194990153105
 51
237.8026652971549879
  0
ARC
  5
148E1
  8
0
 10
3725.9060171575952154
 20
98.1576700597366738
 30
0.0
 40
0.3706850785921093
 50
183.9050148814837939
 51
213.0565253227219955
  0
LINE
  5
148E2
  8
0
 10
3725.5361926904338361
 20
98.1324254369464768
 30
0.0
 11
3725.4996223495131744
 21
98.8302291100444847
 31
0.0
  0
ARC
  5
148E3
  8
0
 10
3725.4406435033138223
 20
98.8272252916981415
 30
0.0
 40
0.0590552895483975
 50
2.9155798511618678
 51
89.9999044155744627
  0
ARC
  5
148E4
  8
0
 10
3724.7971825445720242
 20
98.628189007954461
 30
0.0
 40
0.4900599827103182
 50
31.7807808057118315
 51
44.7105190293755683
  0
ARC
  5
148E5
  8
0
 10
3725.1856808792340416
 20
99.0061624710198913
 30
0.0
 40
0.0521606353060005
 50
120.9234012947845969
 51
219.5365630547265994
  0
ARC
  5
148E6
  8
0
 10
3725.0406808784878194
 20
99.2482154084593304
 30
0.0
 40
0.2300000011039647
 50
300.9228138728836939
 51
0.0000000000008142
  0
LINE
  5
148E7
  8
0
 10
3725.2706808787929731
 20
99.2482154077464571
 30
0.0
 11
3725.2706808794341669
 21
99.8311624710464542
 31
0.0
  0
ARC
  5
148E8
  8
0
 10
3725.2509958400551113
 20
99.8311624710680832
 30
0.0
 40
0.0196850393783716
 50
359.9999999370484147
 51
90.0000000629491268
  0
LINE
  5
148E9
  8
0
 10
3725.2509958400328287
 20
99.8508475104464566
 30
0.0
 11
3724.3603659187338053
 21
99.8508475094678829
 31
0.0
  0
ARC
  5
148EA
  8
0
 10
3726.2639199581849425
 20
95.4420608593417228
 30
0.0
 40
0.0196855492315666
 50
275.9859917241620906
 51
315.1678394244254946
  0
ARC
  5
148EB
  8
0
 10
3724.8106721529870811
 20
109.3013845979764938
 30
0.0
 40
13.9549926386214693
 50
272.7631232848012814
 51
275.9859917241620906
  0
LINE
  5
148EC
  8
0
 10
3726.2583874311058025
 20
95.7153438734464572
 30
0.0
 11
3726.3687877393340386
 21
95.4785896504464375
 31
0.0
  0
ARC
  5
148ED
  8
0
 10
3726.3366744661038865
 20
95.4636149850847175
 30
0.0
 40
0.0354330766400948
 50
270.0146223087575095
 51
25.0000001854849394
  0
LINE
  5
148EE
  8
0
 10
3726.3366835088891094
 20
95.4281819095985355
 30
0.0
 11
3723.274678249777935
 21
95.4281819095985355
 31
0.0
  0
ARC
  5
148EF
  8
0
 10
3720.8772846056331218
 20
95.7212493852464519
 30
0.0
 40
0.0059055118000005
 50
236.0355257310037871
 51
270.0
  0
ARC
  5
148F0
  8
0
 10
3720.8387233345338245
 20
95.7488317623464553
 30
0.0
 40
0.032480315
 50
123.5806290740551958
 51
269.9955039855826158
  0
LINE
  5
148F1
  8
0
 10
3720.8207581501587811
 20
95.7758913819464368
 30
0.0
 11
3723.8259040494472174
 21
97.7710413859156802
 31
0.0
  0
ARC
  5
148F2
  8
0
 10
3723.4845812055768874
 20
98.3131087838705326
 30
0.0
 40
0.6405765744018747
 50
302.1973347028450121
 51
326.0615805009845758
  0
ARC
  5
148F3
  8
0
 10
3723.7053446010731932
 20
98.1576700597366738
 30
0.0
 40
0.3706850785921093
 50
326.9434746772780045
 51
356.0949851185160924
  0
LINE
  5
148F4
  8
0
 10
3724.0751690682341177
 20
98.1324254369464768
 30
0.0
 11
3724.1117394091538699
 21
98.8302291100444847
 31
0.0
  0
ARC
  5
148F5
  8
0
 10
3724.170718255353222
 20
98.8272252916981415
 30
0.0
 40
0.0590552895483975
 50
90.000095584425523
 51
177.0844201488380918
  0
LINE
  5
148F6
  8
0
 10
3724.1707181568340275
 20
98.8862805812464529
 30
0.0
 11
3725.4406436017329725
 21
98.8862805812464529
 31
0.0
  0
ARC
  5
148F7
  8
0
 10
3724.8141792140950201
 20
98.628189007954461
 30
0.0
 40
0.4900599827103182
 50
135.2894809706243962
 51
148.2192191942880868
  0
ARC
  5
148F8
  8
0
 10
3724.4256808794330027
 20
99.0061624710198913
 30
0.0
 40
0.0521606353060005
 50
320.4634369452733722
 51
59.0765987052153676
  0
ARC
  5
148F9
  8
0
 10
3724.5706808801792249
 20
99.2482154084593304
 30
0.0
 40
0.2300000011039653
 50
179.9999999999992042
 51
239.0765985438434029
  0
LINE
  5
148FA
  8
0
 10
3724.3406808798740713
 20
99.2482154077464571
 30
0.0
 11
3724.340680879233787
 21
99.8311624710464542
 31
0.0
  0
ARC
  5
148FB
  8
0
 10
3724.360365918611933
 20
99.8311624710680832
 30
0.0
 40
0.0196850393783716
 50
89.999999937050859
 51
180.0000000629515
  0
LINE
  5
148FC
  8
0
 10
3724.4524857953338142
 20
99.0509087374464769
 30
0.0
 11
3725.1588759632059009
 21
99.0509087374464769
 31
0.0
  0
ARC
  5
148FD
  8
0
 10
3723.3474418004821018
 20
95.4420608593417228
 30
0.0
 40
0.0196855492315666
 50
224.8321605755743917
 51
264.0140082758379094
  0
ARC
  5
148FE
  8
0
 10
3724.8006896056799633
 20
109.3013845979764938
 30
0.0
 40
13.9549926386214693
 50
264.0140082758379094
 51
267.2368767151987186
  0
LINE
  5
148FF
  8
0
 10
3723.3529743275607871
 20
95.7153438734464572
 30
0.0
 11
3723.2425740193339152
 21
95.4785896504464375
 31
0.0
  0
ARC
  5
14900
  8
0
 10
3723.2746872925631578
 20
95.4636149850847175
 30
0.0
 40
0.0354330766400948
 50
154.9999998145150073
 51
269.9853776912426042
  0
LINE
  5
14901
  8
0
 10
3725.5361926904338361
 20
98.1324254369464484
 30
0.0
 11
3724.0751690682341177
 21
98.1324254369464484
 31
0.0
  0
LINE
  5
14902
  8
0
 10
3725.7936565701338623
 20
95.3810212820464756
 30
0.0
 11
3725.7936538627341179
 21
95.3556416317464652
 31
0.0
  0
ARC
  5
14903
  8
0
 10
3725.8136529875928318
 20
95.3556394983194764
 30
0.0
 40
0.0199991249731817
 50
179.9938879144928876
 51
270.0099267580224023
  0
LINE
  5
14904
  8
0
 10
3725.8136564525339054
 20
95.3356403736464557
 30
0.0
 11
3725.9249039670980892
 21
95.3437930008146282
 31
0.0
  0
ARC
  5
14905
  8
0
 10
3725.9236451451170069
 20
95.3637629506687432
 30
0.0
 40
0.0200095859516897
 50
273.6069135982265834
 51
359.9735348078166908
  0
LINE
  5
14906
  8
0
 10
3725.9436547289328701
 20
95.3637537081464615
 30
0.0
 11
3725.9436679892291977
 21
95.3924615634983581
 31
0.0
  0
LINE
  5
14907
  8
0
 10
3724.6495146295328595
 20
99.6933671954457168
 30
0.0
 11
3724.9618471291091737
 21
99.6933671954607661
 31
0.0
  0
LINE
  5
14908
  8
0
 10
3724.9618471291091737
 20
99.6933671954607661
 30
0.0
 11
3724.9618471291328206
 21
99.2482154077464571
 31
0.0
  0
ARC
  5
14909
  8
0
 10
3724.8777893800311176
 20
99.2482154077418528
 30
0.0
 40
0.0840577491029517
 50
310.2119720663106932
 51
0.0000000031363831
  0
ARC
  5
1490A
  8
0
 10
3724.8026201635170764
 20
99.352557732004172
 30
0.0
 40
0.2125040768870543
 50
270.825264931210711
 51
307.5251756230421734
  0
ARC
  5
1490B
  8
0
 10
3724.7335723786368362
 20
99.2482154077418528
 30
0.0
 40
0.0840577491029517
 50
179.9999999968636075
 51
229.7880279336893068
  0
ARC
  5
1490C
  8
0
 10
3724.8087415951499679
 20
99.352557732004172
 30
0.0
 40
0.2125040768870543
 50
232.474824376957713
 51
269.1747350687891753
  0
LINE
  5
1490D
  8
0
 10
3724.6495146295328595
 20
99.6933671954457168
 30
0.0
 11
3724.6495146295328595
 21
99.2482154077464571
 31
0.0
  0
ARC
  5
1490E
  8
0
 10
3724.8056808793339769
 20
99.4552447422873627
 30
0.0
 40
0.2847634110533566
 50
56.7422045484198208
 51
123.257795451580094
  0
ARC
  5
14910
  8
0
 10
3724.8099992348061278
 20
109.4314889964997946
 30
0.0
 40
14.0853948876827602
 50
267.224564163893092
 51
269.6978993302660115
  0
ARC
  5
14911
  8
0
 10
3724.8056826896608982
 20
109.349831068682505
 30
0.0
 40
14.00371587457043
 50
269.7137985091405881
 51
270.2861667447721743
  0
ARC
  5
14912
  8
0
 10
3724.8043004769911022
 20
94.9202057328627831
 30
0.0
 40
0.4468946120423273
 50
83.671036420972456
 51
96.0101533711248152
  0
ARC
  5
14913
  8
0
 10
3724.806901333100086
 20
95.8550421338341039
 30
0.0
 40
0.4928793510602035
 50
264.2485750941497145
 51
275.432614697937197
  0
ARC
  5
14914
  8
0
 10
3724.8056859793819058
 20
94.5606126226537924
 30
0.0
 40
0.7958171992958543
 50
85.9527992401997665
 51
94.0476845662393259
  0
ARC
  5
14915
  8
0
 10
3724.8056792055022015
 20
96.16503416551339
 30
0.0
 40
0.8125330314352124
 50
266.0361997517214263
 51
273.964284054714426
  0
ARC
  5
14916
  8
0
 10
3724.8061973958729141
 20
95.8493279822881448
 30
0.0
 40
0.5139131322443528
 50
264.0749840003782083
 51
269.9424139589543188
  0
ARC
  5
14917
  8
0
 10
3724.8013625238609166
 20
109.4314889964997946
 30
0.0
 40
14.0853948876827602
 50
270.3021006697341022
 51
272.775435836106908
  0
ARC
  5
14918
  8
0
 10
3725.388091948409965
 20
94.6629418798285087
 30
0.0
 40
0.7046578784592983
 50
88.3480841740916958
 51
96.1905592525622666
  0
ARC
  5
14919
  8
0
 10
3725.3326433711131358
 20
96.062174083327406
 30
0.0
 40
0.6989851766589452
 50
268.3162104918728801
 51
276.2224329347982916
  0
ARC
  5
1491A
  8
0
 10
3725.4689975136029716
 20
94.5109930238104567
 30
0.0
 40
0.8559217017463344
 50
89.4116341275450992
 51
95.8532291653726958
  0
ARC
  5
1491B
  8
0
 10
3725.3844196154209385
 20
96.3505645643546416
 30
0.0
 40
0.9881159905025553
 50
269.8428930685370233
 51
275.4219702243992742
  0
ARC
  5
1491C
  8
0
 10
3725.5575609547800013
 20
94.2080936130230953
 30
0.0
 40
1.159779434012409
 50
90.5158427935207044
 51
95.2669359518539522
  0
ARC
  5
1491D
  8
0
 10
3725.4251511241118351
 20
96.8296994705318923
 30
0.0
 40
1.4669526859143449
 50
271.0134733271107734
 51
274.7693054182553851
  0
ARC
  5
1491E
  8
0
 10
3725.4094514550079111
 20
94.0539163400424911
 30
0.0
 40
1.307211193757114
 50
89.8617736216307748
 51
94.4420931949599947
  0
ARC
  5
1491F
  8
0
 10
3725.2953354911169299
 20
97.0908543759382638
 30
0.0
 40
1.7337013211989101
 50
270.4253508669240773
 51
273.8785159496435995
  0
ARC
  5
14920
  8
0
 10
3725.3259743441390128
 20
94.3527531891767666
 30
0.0
 40
1.0084440645149071
 50
89.0185479394023247
 51
94.9546163862808044
  0
ARC
  5
14921
  8
0
 10
3725.2559412338559923
 20
96.3717955632219088
 30
0.0
 40
1.0145099382905081
 50
269.0363099120148718
 51
274.9368544136710852
  0
ARC
  5
14922
  8
0
 10
3725.2440452184719106
 20
94.6102889357231902
 30
0.0
 40
0.752466288952172
 50
87.7277834120836957
 51
95.6801667483537841
  0
ARC
  5
14923
  8
0
 10
3725.19926020374578
 20
96.1157310066159454
 30
0.0
 40
0.7572527553509137
 50
267.7529562872836095
 51
275.6549938731814109
  0
ARC
  5
14924
  8
0
 10
3725.2686552065579235
 20
93.8798923848367366
 30
0.0
 40
1.476287761336321
 50
89.6365385806805364
 51
94.0003517204376777
  0
ARC
  5
14925
  8
0
 10
3725.1777221894690229
 20
96.7440583030643069
 30
0.0
 40
1.3915271842622301
 50
269.5035642050531237
 51
274.1333260960593066
  0
ARC
  5
14926
  8
0
 10
3725.166585391118133
 20
94.6909824082896563
 30
0.0
 40
0.6746763713188403
 50
86.7847650443818566
 51
95.782133621542215
  0
ARC
  5
14927
  8
0
 10
3725.1382250278547872
 20
95.9568347366626426
 30
0.0
 40
0.5959264900989454
 50
266.1887982576319018
 51
276.3781004082807726
  0
ARC
  5
14928
  8
0
 10
3725.0987800827770116
 20
94.4841198188182005
 30
0.0
 40
0.8751226999131771
 50
87.3523632474261262
 51
94.6667344998097775
  0
ARC
  5
14929
  8
0
 10
3725.0701654662711917
 20
96.1079412404165367
 30
0.0
 40
0.7528053971277997
 50
266.7571198642414743
 51
275.2619778830080008
  0
ARC
  5
1492A
  8
0
 10
3725.1797244923968719
 20
94.2438341080963653
 30
0.0
 40
1.113073801101057
 50
88.5121649995752762
 51
94.2104906169379603
  0
ARC
  5
1492B
  8
0
 10
3725.1292252375819771
 20
96.3688547465795438
 30
0.0
 40
1.015431126702087
 50
268.2379330641655883
 51
274.4847225523453176
  0
ARC
  5
1492C
  8
0
 10
3725.1163335381270372
 20
93.6706396663936545
 30
0.0
 40
1.681816224326367
 50
89.0969675900026203
 51
93.178841741175674
  0
ARC
  5
1492D
  8
0
 10
3725.0486101299998154
 20
97.0802024025365569
 30
0.0
 40
1.7305227506653329
 50
269.15443417418129
 51
273.1213739496050721
  0
ARC
  5
1492E
  8
0
 10
3724.8768753135491352
 20
94.7225172038545224
 30
0.0
 40
0.6389085133030176
 50
85.4819364474735011
 51
94.920712601401334
  0
ARC
  5
1492F
  8
0
 10
3724.8725381018698499
 20
95.9557489554033225
 30
0.0
 40
0.5988084330964505
 50
265.1654791482529845
 51
275.2374995942099076
  0
ARC
  5
14930
  8
0
 10
3724.8808930347690875
 20
94.1930619831988025
 30
0.0
 40
1.1595309818157831
 50
87.3255637291836848
 51
93.2603252406416061
  0
ARC
  5
14931
  8
0
 10
3724.8689968062640219
 20
96.5197749995436425
 30
0.0
 40
1.170307582287101
 50
267.3529125258999102
 51
273.2329764439069208
  0
ARC
  5
14932
  8
0
 10
3724.9491134401059753
 20
94.9008772429875336
 30
0.0
 40
0.4669336016306288
 50
84.7350852021536554
 51
96.7568802876547238
  0
ARC
  5
14933
  8
0
 10
3724.9365561768508996
 20
95.8652930243332833
 30
0.0
 40
0.5025156549584811
 50
265.1621087045705281
 51
276.3298567852380074
  0
ARC
  5
14934
  8
0
 10
3725.022239146730044
 20
94.7299329621715174
 30
0.0
 40
0.6329033312755774
 50
86.0491635503308743
 51
95.6320598264814521
  0
ARC
  5
14935
  8
0
 10
3725.0038731766771889
 20
95.9816599200341756
 30
0.0
 40
0.6234157060195838
 50
265.9760691643198811
 51
275.7051554199085786
  0
ARC
  5
14936
  8
0
 10
3724.9525522989902129
 20
94.5329577321574135
 30
0.0
 40
0.824130824428161
 50
86.6611993253709301
 51
94.4944715122785937
  0
ARC
  5
14937
  8
0
 10
3724.9359617731411163
 20
96.1779501512876038
 30
0.0
 40
0.8247932392561823
 50
266.6643497896424719
 51
274.4913210479811028
  0
ARC
  5
14938
  8
0
 10
3725.0195683900369659
 20
94.7186983190747469
 30
0.0
 40
0.6367453502921664
 50
85.1062913548266096
 51
96.0878852456267651
  0
ARC
  5
14939
  8
0
 10
3725.0015434369679497
 20
96.4482856351537237
 30
0.0
 40
1.0975499605482379
 50
267.4148315193879171
 51
273.7793450810455056
  0
ARC
  5
1493A
  8
0
 10
3724.8571182433029207
 20
95.3632264880971547
 30
0.0
 40
0.0250901709299263
 50
272.503023953453976
 51
317.5436170859313734
  0
ARC
  5
1493B
  8
0
 10
3724.8051643627941303
 20
95.849327982288159
 30
0.0
 40
0.5139131322443653
 50
270.0575860410456244
 51
275.925015999621678
  0
ARC
  5
1493C
  8
0
 10
3724.2232698102570794
 20
94.6629418798285087
 30
0.0
 40
0.7046578784592983
 50
83.8094407474377618
 51
91.6519158259083042
  0
ARC
  5
1493D
  8
0
 10
3724.2787183875539085
 20
96.062174083327406
 30
0.0
 40
0.6989851766589452
 50
263.7775670652017084
 51
271.6837895081271199
  0
ARC
  5
1493E
  8
0
 10
3724.1423642450649822
 20
94.5109930238104567
 30
0.0
 40
0.8559217017463344
 50
84.1467708346273184
 51
90.588365872454915
  0
ARC
  5
1493F
  8
0
 10
3724.2269421432461058
 20
96.3505645643546416
 30
0.0
 40
0.9881159905025553
 50
264.5780297756007258
 51
270.1571069314629767
  0
ARC
  5
14940
  8
0
 10
3724.0538008038879525
 20
94.2080936130230953
 30
0.0
 40
1.159779434012409
 50
84.7330640481460478
 51
89.4841572064792956
  0
ARC
  5
14941
  8
0
 10
3724.1862106345561187
 20
96.8296994705318923
 30
0.0
 40
1.4669526859143449
 50
265.2306945817446149
 51
268.9865266728891129
  0
ARC
  5
14942
  8
0
 10
3724.2019103036591332
 20
94.0539163400424911
 30
0.0
 40
1.307211193757114
 50
85.5579068050400338
 51
90.1382263783692252
  0
ARC
  5
14943
  8
0
 10
3724.3160262675510239
 20
97.0908543759382638
 30
0.0
 40
1.7337013211989101
 50
266.1214840503562868
 51
269.5746491330759227
  0
ARC
  5
14944
  8
0
 10
3724.2853874145280315
 20
94.3527531891767666
 30
0.0
 40
1.0084440645149071
 50
85.0453836137191956
 51
90.9814520605976753
  0
ARC
  5
14945
  8
0
 10
3724.355420524811052
 20
96.3717955632219088
 30
0.0
 40
1.0145099382905081
 50
265.0631455863289148
 51
270.9636900879851282
  0
ARC
  5
14946
  8
0
 10
3724.3673165401960432
 20
94.6102889357231902
 30
0.0
 40
0.752466288952172
 50
84.3198332516462159
 51
92.2722165879162901
  0
ARC
  5
14947
  8
0
 10
3724.4121015549221738
 20
96.1157310066159454
 30
0.0
 40
0.7572527553509137
 50
264.3450061268187028
 51
272.2470437127165042
  0
ARC
  5
14948
  8
0
 10
3724.3427065521100303
 20
93.8798923848367366
 30
0.0
 40
1.476287761336321
 50
85.9996482795623081
 51
90.3634614193194352
  0
ARC
  5
14949
  8
0
 10
3724.433639569198931
 20
96.7440583030643069
 30
0.0
 40
1.3915271842622301
 50
265.8666739039405797
 51
270.4964357949468763
  0
ARC
  5
1494A
  8
0
 10
3724.4447763675489114
 20
94.6909824082896563
 30
0.0
 40
0.6746763713188403
 50
84.2178663784577992
 51
93.2152349556181576
  0
ARC
  5
1494B
  8
0
 10
3724.4731367308131667
 20
95.9568347366626426
 30
0.0
 40
0.5959264900989454
 50
263.6218995917192274
 51
273.8112017423680982
  0
ARC
  5
1494C
  8
0
 10
3724.5125816758909423
 20
94.4841198188182005
 30
0.0
 40
0.8751226999131771
 50
85.3332655001902225
 51
92.6476367525738596
  0
ARC
  5
1494D
  8
0
 10
3724.5411962923972169
 20
96.1079412404165367
 30
0.0
 40
0.7528053971277997
 50
264.7380221169919992
 51
273.2428801357585257
  0
ARC
  5
1494E
  8
0
 10
3724.4316372662701724
 20
94.2438341080963653
 30
0.0
 40
1.113073801101057
 50
85.7895093830620539
 51
91.4878350004247096
  0
ARC
  5
1494F
  8
0
 10
3724.4821365210859767
 20
96.3688547465795438
 30
0.0
 40
1.015431126702087
 50
265.5152774476546824
 51
271.7620669358344117
  0
ARC
  5
14950
  8
0
 10
3724.4950282205409167
 20
93.6706396663936545
 30
0.0
 40
1.681816224326367
 50
86.821158258824326
 51
90.9030324099973939
  0
ARC
  5
14951
  8
0
 10
3724.5627516286667742
 20
97.0802024025365569
 30
0.0
 40
1.7305227506653329
 50
266.8786260503948142
 51
270.84556582581871
  0
ARC
  5
14952
  8
0
 10
3724.7344864451179092
 20
94.7225172038545224
 30
0.0
 40
0.6389085133030176
 50
85.0792873985986944
 51
94.5180635525265131
  0
ARC
  5
14953
  8
0
 10
3724.7388236567971944
 20
95.9557489554033225
 30
0.0
 40
0.5988084330964505
 50
264.7625004057902061
 51
274.8345208517469018
  0
ARC
  5
14954
  8
0
 10
3724.7304687238979568
 20
94.1930619831988025
 30
0.0
 40
1.1595309818157831
 50
86.7396747593583939
 51
92.6744362708163152
  0
ARC
  5
14955
  8
0
 10
3724.742364952402113
 20
96.5197749995436425
 30
0.0
 40
1.170307582287101
 50
266.7670235560930223
 51
272.6470874741000898
  0
ARC
  5
14956
  8
0
 10
3724.662248318561069
 20
94.9008772429875336
 30
0.0
 40
0.4669336016306288
 50
83.2431197123452762
 51
95.2649147978463446
  0
ARC
  5
14957
  8
0
 10
3724.6748055818161447
 20
95.8652930243332833
 30
0.0
 40
0.5025156549584811
 50
263.6701432147618789
 51
274.8378912954294719
  0
ARC
  5
14958
  8
0
 10
3724.5891226119370003
 20
94.7299329621715174
 30
0.0
 40
0.6329033312755774
 50
84.3679401735185479
 51
93.9508364496691257
  0
ARC
  5
14959
  8
0
 10
3724.6074885819898554
 20
95.9816599200341756
 30
0.0
 40
0.6234157060195838
 50
264.2948445800914214
 51
274.0239308356801189
  0
ARC
  5
1495A
  8
0
 10
3724.6588094596781957
 20
94.5329577321574135
 30
0.0
 40
0.824130824428161
 50
85.5055284877214063
 51
93.3388006746290557
  0
ARC
  5
1495B
  8
0
 10
3724.6753999855259281
 20
96.1779501512876038
 30
0.0
 40
0.8247932392561823
 50
265.5086789520188972
 51
273.3356502103575281
  0
ARC
  5
1495C
  8
0
 10
3724.5917933686300785
 20
94.7186983190747469
 30
0.0
 40
0.6367453502921664
 50
83.9121147543732064
 51
94.8937086451734046
  0
ARC
  5
1495D
  8
0
 10
3724.6098183216990947
 20
96.4482856351537237
 30
0.0
 40
1.0975499605482379
 50
266.2206549189544944
 51
272.5851684806120829
  0
ARC
  5
1495E
  8
0
 10
3724.7542435153641236
 20
95.3632264880971547
 30
0.0
 40
0.0250901709299263
 50
222.4563829140685982
 51
267.496976046546024
  0
ENDSEC
  0
EOF
