  0
SECTION
  2
HEADER
  9
$ACADVER
  1
AC1009
  9
$INSBASE
 10
167.8399318370948947
 20
-22.0498366639175885
 30
0.0
  9
$EXTMIN
 10
161.6910685420367031
 20
-22.0555234373154789
 30
0.0
  9
$EXTMAX
 10
169.4833685420366862
 20
-11.7050595362739305
 30
0.0
  9
$LIMMIN
 10
0.0
 20
0.0
  9
$LIMMAX
 10
11.6929133858000007
 20
8.2677165353999982
  9
$ORTHOMODE
 70
     0
  9
$REGENMODE
 70
     1
  9
$FILLMODE
 70
     1
  9
$QTEXTMODE
 70
     0
  9
$MIRRTEXT
 70
     0
  9
$DRAGMODE
 70
     2
  9
$LTSCALE
 40
0.6431102362
  9
$OSMODE
 70
  3839
  9
$ATTMODE
 70
     1
  9
$TEXTSIZE
 40
0.2
  9
$TRACEWID
 40
0.05
  9
$TEXTSTYLE
  7
STANDARD
  9
$CLAYER
  8
0
  9
$CELTYPE
  6
BYLAYER
  9
$CECOLOR
 62
   256
  9
$DIMSCALE
 40
1.0
  9
$DIMASZ
 40
0.1875
  9
$DIMEXO
 40
0.0625
  9
$DIMDLI
 40
0.4443307087
  9
$DIMRND
 40
0.0
  9
$DIMDLE
 40
0.0
  9
$DIMEXE
 40
0.125
  9
$DIMTP
 40
0.01
  9
$DIMTM
 40
0.01
  9
$DIMTXT
 40
1.0
  9
$DIMCEN
 40
0.1052362205
  9
$DIMTSZ
 40
0.0
  9
$DIMTOL
 70
     1
  9
$DIMLIM
 70
     0
  9
$DIMTIH
 70
     1
  9
$DIMTOH
 70
     1
  9
$DIMSE1
 70
     0
  9
$DIMSE2
 70
     0
  9
$DIMTAD
 70
     0
  9
$DIMZIN
 70
     0
  9
$DIMBLK
  1

  9
$DIMASO
 70
     1
  9
$DIMSHO
 70
     1
  9
$DIMPOST
  1
\X
  9
$DIMAPOST
  1

  9
$DIMALT
 70
     1
  9
$DIMALTD
 70
     2
  9
$DIMALTF
 40
25.3999999999999986
  9
$DIMLFAC
 40
1.0
  9
$DIMTOFL
 70
     0
  9
$DIMTVP
 40
0.0
  9
$DIMTIX
 70
     0
  9
$DIMSOXD
 70
     0
  9
$DIMSAH
 70
     0
  9
$DIMBLK1
  1

  9
$DIMBLK2
  1

  9
$DIMSTYLE
  2
STANDARD
  9
$DIMCLRD
 70
     0
  9
$DIMCLRE
 70
     0
  9
$DIMCLRT
 70
     0
  9
$DIMTFAC
 40
1.0
  9
$DIMGAP
 40
0.09
  9
$LUNITS
 70
     2
  9
$LUPREC
 70
     4
  9
$SKETCHINC
 40
0.1
  9
$FILLETRAD
 40
0.0
  9
$AUNITS
 70
     0
  9
$AUPREC
 70
     0
  9
$MENU
  1
.
  9
$ELEVATION
 40
0.0
  9
$PELEVATION
 40
0.0
  9
$THICKNESS
 40
0.0
  9
$LIMCHECK
 70
     0
  9
$BLIPMODE
 70
     0
  9
$CHAMFERA
 40
0.0
  9
$CHAMFERB
 40
0.0
  9
$SKPOLY
 70
     0
  9
$TDCREATE
 40
2458172.4620254631154239
  9
$TDUPDATE
 40
2459029.6359953698702157
  9
$TDINDWG
 40
0.0810013079
  9
$TDUSRTIMER
 40
0.0810013079
  9
$USRTIMER
 70
     1
  9
$ANGBASE
 50
0.0
  9
$ANGDIR
 70
     0
  9
$PDMODE
 70
     0
  9
$PDSIZE
 40
0.3125
  9
$PLINEWID
 40
0.0
  9
$COORDS
 70
     1
  9
$SPLFRAME
 70
     0
  9
$SPLINETYPE
 70
     6
  9
$SPLINESEGS
 70
     8
  9
$ATTDIA
 70
     1
  9
$ATTREQ
 70
     1
  9
$HANDLING
 70
     1
  9
$HANDSEED
  5
3382
  9
$SURFTAB1
 70
     6
  9
$SURFTAB2
 70
     6
  9
$SURFTYPE
 70
     6
  9
$SURFU
 70
     6
  9
$SURFV
 70
     6
  9
$UCSNAME
  2

  9
$UCSORG
 10
0.0
 20
0.0
 30
0.0
  9
$UCSXDIR
 10
1.0
 20
0.0
 30
0.0
  9
$UCSYDIR
 10
0.0
 20
1.0
 30
0.0
  9
$PUCSNAME
  2

  9
$PUCSORG
 10
0.0
 20
0.0
 30
0.0
  9
$PUCSXDIR
 10
1.0
 20
0.0
 30
0.0
  9
$PUCSYDIR
 10
0.0
 20
1.0
 30
0.0
  9
$USERI1
 70
     0
  9
$USERI2
 70
     0
  9
$USERI3
 70
     0
  9
$USERI4
 70
     0
  9
$USERI5
 70
     0
  9
$USERR1
 40
0.0
  9
$USERR2
 40
0.0
  9
$USERR3
 40
0.0
  9
$USERR4
 40
0.0
  9
$USERR5
 40
0.0
  9
$WORLDVIEW
 70
     1
  9
$SHADEDGE
 70
     3
  9
$SHADEDIF
 70
    70
  9
$TILEMODE
 70
     1
  9
$MAXACTVP
 70
    64
  9
$PLIMCHECK
 70
     0
  9
$PEXTMIN
 10
1.0000000000000000E+20
 20
1.0000000000000000E+20
 30
1.0000000000000000E+20
  9
$PEXTMAX
 10
-1.0000000000000000E+20
 20
-1.0000000000000000E+20
 30
-1.0000000000000000E+20
  9
$PLIMMIN
 10
0.0
 20
0.0
  9
$PLIMMAX
 10
12.0
 20
9.0
  9
$UNITMODE
 70
     0
  9
$VISRETAIN
 70
     1
  9
$PLINEGEN
 70
     0
  9
$PSLTSCALE
 70
     1
  0
ENDSEC
  0
SECTION
  2
TABLES
  0
TABLE
  2
VPORT
 70
     1
  0
VPORT
  2
*ACTIVE
 70
     0
 10
0.0
 20
0.0
 11
1.0
 21
1.0
 12
0.0
 22
0.0
 13
0.0
 23
0.0
 14
1.0
 24
1.0
 15
0.0
 25
0.0
 16
0.0
 26
0.0
 36
53.7709641733851527
 17
165.5872192382811932
 27
-16.8826339453728309
 37
0.0
 40
12.9520284504475498
 41
3.314341846758349
 42
50.0
 43
0.0
 44
0.0
 50
0.0
 51
0.0
 71
     0
 72
   100
 73
     1
 74
     1
 75
     0
 76
     0
 77
     0
 78
     0
  0
ENDTAB
  0
TABLE
  2
LTYPE
 70
     2
  0
LTYPE
  2
CONTINUOUS
 70
     0
  3
Solid line
 72
    65
 73
     0
 40
0.0
  0
LTYPE
  2
PHANTOM2
 70
     0
  3
___ _ _ ___ _ _ ___ _ _ ___ _ _
 72
    65
 73
     6
 40
1.25
 49
0.625
 49
-0.125
 49
0.125
 49
-0.125
 49
0.125
 49
-0.125
  0
ENDTAB
  0
TABLE
  2
LAYER
 70
     2
  0
LAYER
  2
0
 70
     0
 62
   255
  6
CONTINUOUS
  0
LAYER
  2
DEFPOINTS
 70
     0
 62
     7
  6
CONTINUOUS
  0
ENDTAB
  0
TABLE
  2
STYLE
 70
     1
  0
STYLE
  2
STANDARD
 70
     0
 40
0.0
 41
0.8
 50
0.0
 71
     0
 42
0.2
  3
txt
  4

  0
ENDTAB
  0
TABLE
  2
VIEW
 70
     0
  0
ENDTAB
  0
TABLE
  2
UCS
 70
     0
  0
ENDTAB
  0
TABLE
  2
APPID
 70
    10
  0
APPID
  2
ACAD
 70
     0
  0
APPID
  2
ACAD_MLEADERVER
 70
     0
  0
APPID
  2
ACAD_EXEMPT_FROM_CAD_STANDARDS
 70
     0
  0
APPID
  2
ACAD_DSTYLE_DIMJAG
 70
     0
  0
APPID
  2
ACAD_DSTYLE_DIMTALN
 70
     0
  0
APPID
  2
ACAD_NAV_VCDISPLAY
 70
     0
  0
APPID
  2
ACAECLAYERSTANDARD
 70
     0
  0
APPID
  2
ACCMTRANSPARENCY
 70
     0
  0
APPID
  2
ACDBATTR
 70
     0
  0
APPID
  2
ACADANNOTATIVE
 70
     0
  0
ENDTAB
  0
TABLE
  2
DIMSTYLE
 70
     2
  0
DIMSTYLE
  2
STANDARD
 70
     0
  3

  4

  5

  6

  7

 40
1.0
 41
0.1875
 42
0.0625
 43
0.38
 44
0.125
 45
0.0
 46
0.0
 47
0.01
 48
0.01
140
0.15625
141
0.09
142
0.0
143
25.3999999999999986
144
1.0
145
0.0
146
1.0
147
0.09
 71
     1
 72
     0
 73
     1
 74
     1
 75
     0
 76
     0
 77
     0
 78
     4
170
     0
171
     2
172
     0
173
     0
174
     0
175
     0
176
     0
177
     0
178
     0
  0
DIMSTYLE
  2
ANNOTATIVE
 70
     0
  3

  4

  5

  6

  7

 40
0.0
 41
0.18
 42
0.0625
 43
0.38
 44
0.18
 45
0.0
 46
0.0
 47
0.0
 48
0.0
140
0.18
141
0.09
142
0.0
143
25.3999999999999986
144
1.0
145
0.0
146
1.0
147
0.09
 71
     0
 72
     0
 73
     1
 74
     1
 75
     0
 76
     0
 77
     0
 78
     0
170
     0
171
     2
172
     0
173
     0
174
     0
175
     0
176
     0
177
     0
178
     0
  0
ENDTAB
  0
ENDSEC
  0
SECTION
  2
BLOCKS
  0
BLOCK
  8
0
  2
$MODEL_SPACE
 70
     0
 10
0.0
 20
0.0
 30
0.0
  3
$MODEL_SPACE
  1

  0
ENDBLK
  5
21
  8
0
  0
BLOCK
 67
     1
  8
0
  2
$PAPER_SPACE
 70
     0
 10
0.0
 20
0.0
 30
0.0
  3
$PAPER_SPACE
  1

  0
ENDBLK
  5
1D
 67
     1
  8
0
  0
BLOCK
  8
0
  2
_FILLED
 70
     0
 10
0.0
 20
0.0
 30
0.0
  3
_FILLED
  1

  0
SOLID
  5
2F2B
  8
0
  6
BYBLOCK
 62
     0
 10
0.0
 20
0.0
 30
0.0
 11
-1.0
 21
0.1666666667
 31
0.0
 12
-1.0
 22
-0.1666666667
 32
0.0
 13
-1.0
 23
-0.1666666667
 33
0.0
  0
ENDBLK
  5
2F2C
  8
0
  6
BYBLOCK
 62
     0
  0
BLOCK
  8
0
  2
A$CBC74E0AA
 70
     0
 10
0.0
 20
0.0
 30
0.0
  3
A$CBC74E0AA
  1

  0
ARC
  5
3264
  8
0
 62
     3
 10
-61.9647946134706729
 20
0.5679703708157513
 30
0.0
 40
62.1265672047464719
 50
359.476186115906728
 51
4.1356679026520551
  0
ENDBLK
  5
3268
  8
0
  0
ENDSEC
  0
SECTION
  2
ENTITIES
  0
ATTDEF
  5
2E1C
  8
DEFPOINTS
 10
167.8291804393294058
 20
-22.0521901039821486
 30
0.0
 40
0.001
  1
K-99108T-4
  3

  2
MODELNUMBER
 70
     0
1001
ACDBATTR
1070
     0
1070
     1
  0
ATTDEF
  5
2E1D
  8
DEFPOINTS
 10
167.8291804393294058
 20
-22.0538567706488209
 30
0.0
 40
0.001
  1
REFINIA
  3

  2
TRADENAME
 70
     0
1001
ACDBATTR
1070
     0
1070
     1
  0
ATTDEF
  5
2E1E
  8
DEFPOINTS
 10
167.8291804393294058
 20
-22.0555234373154789
 30
0.0
 40
0.001
  1
BATHROOM SINK FAUCET
  3

  2
PRODUCT
 70
     0
1001
ACDBATTR
1070
     0
1070
     1
  0
LINE
  5
3182
  8
0
 10
166.9005246115449097
 20
-22.0498366639175885
 30
0.0
 11
168.7793390626449082
 21
-22.0498366639175885
 31
0.0
  0
LINE
  5
3183
  8
0
 10
166.9005246115449097
 20
-22.0104665852175891
 30
0.0
 11
168.7793390626449082
 21
-22.0104665852175891
 31
0.0
  0
LINE
  5
3184
  8
0
 10
166.8375324855284987
 20
-21.9907815458160307
 30
0.0
 11
168.842331188622893
 21
-21.9907815458160307
 31
0.0
  0
LINE
  5
3185
  8
0
 10
166.9005246115449097
 20
-22.0498366639175885
 30
0.0
 11
166.9005246115449097
 21
-22.0104665852175891
 31
0.0
  0
LINE
  5
3186
  8
0
 10
166.9083986272449067
 20
-22.0104665852175891
 30
0.0
 11
166.9083986272449067
 21
-21.9907815458160307
 31
0.0
  0
LINE
  5
3187
  8
0
 10
168.7793390626449082
 20
-22.0498366639175885
 30
0.0
 11
168.7793390626449082
 21
-22.0104665852175891
 31
0.0
  0
LINE
  5
3188
  8
0
 10
168.7714650469449964
 20
-22.0104665852175891
 30
0.0
 11
168.7714650469449964
 21
-21.9907815458175904
 31
0.0
  0
ARC
  5
3189
  8
0
 10
161.7513287976715901
 20
-12.1372396254785198
 30
0.0
 40
0.0602602556349073
 50
111.8775918918004066
 51
213.1149132834204067
  0
ARC
  5
318A
  8
0
 10
163.4158014824992904
 20
-16.2574735854092083
 30
0.0
 40
4.5039969767012638
 50
97.042799010926089
 51
111.9958866404062974
  0
ARC
  5
318B
  8
0
 10
164.2635252741991962
 20
-24.0855353303835003
 30
0.0
 40
12.3775018140142201
 50
90.9527545775420663
 51
96.4943586797372745
  0
ARC
  5
318C
  8
0
 10
164.3569166581276022
 20
-21.2611632764762284
 30
0.0
 40
9.5561037402023015
 50
83.1144474369153556
 51
91.7942367383985953
  0
ARC
  5
318D
  8
0
 10
162.9677261049764923
 20
-11.3290954631284304
 30
0.0
 40
1.5206414940215589
 50
213.5798897164675054
 51
215.8248327934086035
  0
ARC
  5
318E
  8
0
 10
162.8012010401569114
 20
-11.4618574612589601
 30
0.0
 40
1.307954045566408
 50
215.3790558259354952
 51
233.0338151323097975
  0
ARC
  5
318F
  8
0
 10
161.401082154119905
 20
-10.6991053431528602
 30
0.0
 40
1.9090873570391029
 50
288.7478798219901819
 51
291.0873196001683141
  0
ARC
  5
3190
  8
0
 10
162.4281222473346133
 20
-13.3725375661719301
 30
0.0
 40
0.9548395444802918
 50
97.1450285614846365
 51
110.8705453840235009
  0
ARC
  5
3191
  8
0
 10
162.4250151458373068
 20
-13.3975599168811605
 30
0.0
 40
0.9793007152227561
 50
75.0694686898582404
 51
96.7825596042363259
  0
ARC
  5
3192
  8
0
 10
162.4290526058956914
 20
-13.3734630184125898
 30
0.0
 40
0.9549798990979877
 50
57.8927408595585078
 51
74.9310342576752362
  0
ARC
  5
3193
  8
0
 10
162.4325130185488035
 20
-13.3685917737018602
 30
0.0
 40
0.9490145208114789
 50
45.1473961618716615
 51
57.9133925693578107
  0
ARC
  5
3194
  8
0
 10
162.5310655416504062
 20
-13.2768266085879905
 30
0.0
 40
0.8144686391017488
 50
40.517020032316168
 51
45.5093762976829765
  0
ARC
  5
3195
  8
0
 10
163.1574391364449923
 20
-12.7409520562175604
 30
0.0
 40
0.0098622587000327
 50
223.0754222749829978
 51
277.7859835921440776
  0
ARC
  5
3196
  8
0
 10
170.8935298418683999
 20
-69.6777170592187076
 30
0.0
 40
57.4500568920919505
 50
96.8336500864379275
 51
97.7374802490347179
  0
ARC
  5
3197
  8
0
 10
164.9472421340832113
 20
-18.3898103246049196
 30
0.0
 40
5.8223647717479494
 50
80.6015282859790858
 51
98.7879495405198043
  0
ARC
  5
3198
  8
0
 10
165.4216767391014002
 20
-14.2650071184612202
 30
0.0
 40
1.6880129220324509
 50
0.6847583863376109
 51
73.6085100444871756
  0
ARC
  5
3199
  8
0
 10
162.0313127779442937
 20
-12.5156121204026203
 30
0.0
 40
0.0050137687395317
 50
115.1963336226269945
 51
234.0885959565993915
  0
ARC
  5
319A
  8
0
 10
163.1544306421859005
 20
-10.8974316701190297
 30
0.0
 40
1.9747593740679921
 50
235.2340318266041095
 51
240.1822733482773913
  0
ARC
  5
319B
  8
0
 10
162.1783472242894106
 20
-12.6001139690172703
 30
0.0
 40
0.0121442059782513
 50
241.1990084899071007
 51
287.0488110020867225
  0
ARC
  5
319C
  8
0
 10
162.4077121890871069
 20
-13.6505115746144696
 30
0.0
 40
1.063045733779203
 50
87.4877530945548756
 51
102.2637821794355943
  0
ARC
  5
319D
  8
0
 10
162.4160144059125059
 20
-13.4028551468614694
 30
0.0
 40
0.8152674475587138
 50
65.7499860073156412
 51
87.3077505697667533
  0
ARC
  5
319E
  8
0
 10
162.0467145268281115
 20
-14.1471938345950505
 30
0.0
 40
1.6458975948070449
 50
56.7408506790230405
 51
64.6707911159409718
  0
ARC
  5
319F
  8
0
 10
162.9573399096038884
 20
-12.7604469181330593
 30
0.0
 40
0.0131428232034504
 50
232.6633272392816991
 51
269.6674848090632963
  0
ARC
  5
31A0
  8
0
 10
162.5883937248015911
 20
-9.0815653787025958
 30
0.0
 40
3.7104052704888701
 50
275.7054841332326873
 51
278.4844686196794896
  0
ARC
  5
31A1
  8
0
 10
161.7906029440028988
 20
-6.3700005247810649
 30
0.0
 40
5.8008547733532776
 50
269.1135248480720179
 51
275.4555057968603933
  0
ARC
  5
31A2
  8
0
 10
161.6404865196226126
 20
-1.191504852142415
 30
0.0
 40
10.9755232487596892
 50
273.6651798867279126
 51
276.6247141681931225
  0
ARC
  5
31A3
  8
0
 10
164.4366585606285014
 20
-26.4421895461596606
 30
0.0
 40
14.4297839353379196
 50
85.4535433516643934
 51
96.0864484254181548
  0
ARC
  5
31A4
  8
0
 10
163.1351595919684883
 20
-12.7464163404969693
 30
0.0
 40
0.0049926974289418
 50
277.7374373217595007
 51
41.711090466226203
  0
ARC
  5
31A5
  8
0
 10
162.4280234847713871
 20
-13.3732502929277004
 30
0.0
 40
0.9499594922017255
 50
41.5558933626227898
 51
114.8254289097913983
  0
LINE
  5
31A6
  8
0
 10
162.0879533108488886
 20
-12.4803471995160802
 30
0.0
 11
162.0860519477105868
 21
-12.4869780409281201
 31
0.0
  0
ARC
  5
31A7
  8
0
 10
165.0272493413725101
 20
-15.7441261431254595
 30
0.0
 40
3.998495868124647
 50
54.7258382752047794
 51
83.1728619279969763
  0
ARC
  5
31A8
  8
0
 10
165.2920288006654914
 20
-14.7634071682061201
 30
0.0
 40
3.0650024297772349
 50
11.0039470908330195
 51
48.1652264428239292
  0
ARC
  5
31A9
  8
0
 10
143.8714739982187041
 20
-19.0145064888217092
 30
0.0
 40
24.9032976873198884
 50
0.2174389691475278
 51
11.1977970975882002
  0
ARC
  5
31AA
  8
0
 10
169.1152239345622093
 20
-18.8978393267394793
 30
0.0
 40
0.3413515529254235
 50
183.721954581593991
 51
224.7278158435053115
  0
ARC
  5
31AB
  8
0
 10
168.8516424680975945
 20
-19.1578564291574089
 30
0.0
 40
0.0289063741796259
 50
347.2762009760951969
 51
43.2181906990825269
  0
ARC
  5
31AC
  8
0
 10
169.8821891875678034
 20
-19.3843113412434391
 30
0.0
 40
1.0262284093211449
 50
167.6159628408352944
 51
170.6514579785524006
  0
LINE
  5
31AD
  8
0
 10
168.842331188622893
 20
-21.9907815458160307
 30
0.0
 11
168.8193932738176102
 21
-20.8403092593147186
 31
0.0
  0
ARC
  5
31AE
  8
0
 10
169.7562190821388981
 20
-20.7935741015565014
 30
0.0
 40
0.9379908155773495
 50
142.762505172800104
 51
182.8559303584409008
  0
ARC
  5
31AF
  8
0
 10
168.9857566331189105
 20
-20.2075643819602213
 30
0.0
 40
0.0300086552524179
 50
322.1517179504966748
 51
54.6562122535208275
  0
ARC
  5
31B0
  8
0
 10
169.3768849718547926
 20
-19.6662592999585506
 30
0.0
 40
0.6378193247006257
 50
218.0659789558378066
 51
234.125582358108403
  0
ARC
  5
31B1
  8
0
 10
168.9781477992497969
 20
-19.9684348922196691
 30
0.0
 40
0.1378103359126485
 50
196.7485519624632957
 51
221.3712413697070929
  0
ARC
  5
31B2
  8
0
 10
170.9686057509144916
 20
-19.5154913207814111
 30
0.0
 40
2.178849816356248
 50
179.3060656088354108
 51
193.068075827159106
  0
ARC
  5
31B3
  8
0
 10
169.3521083437773882
 20
-19.4698270073765514
 30
0.0
 40
0.5625229678000148
 50
147.0932299430290868
 51
181.963736407389689
  0
ARC
  5
31B4
  8
0
 10
168.9120022597745958
 20
-19.2013984140094216
 30
0.0
 40
0.0150454781499508
 50
27.0740162739358183
 51
126.8264855717454935
  0
ARC
  5
31B5
  8
0
 10
169.7445605500674048
 20
-18.6225383585950013
 30
0.0
 40
0.9991113926536827
 50
214.9262095024820951
 51
253.8064241369056049
  0
ARC
  5
31B6
  8
0
 10
169.4599965160174975
 20
-19.604622194324179
 30
0.0
 40
0.023376461226327
 50
1.1161230226171499
 51
75.3089820024715948
  0
LINE
  5
31B7
  8
0
 10
169.4833685420366862
 20
-19.6041668491541792
 30
0.0
 11
169.4582199832742901
 21
-19.7009407041997484
 31
0.0
  0
ARC
  5
31B8
  8
0
 10
169.4301667004448859
 20
-19.690283488217581
 30
0.0
 40
0.0300093807000099
 50
266.8223145240083909
 51
339.198619435523824
  0
ARC
  5
31B9
  8
0
 10
169.3587609718449869
 20
-20.309320977175279
 30
0.0
 40
0.5931883767689921
 50
83.2480147258397807
 51
103.4140274065185992
  0
ARC
  5
31BA
  8
0
 10
169.2747942197804889
 20
-19.8972231502223309
 30
0.0
 40
0.17341380752258
 50
108.0197565712340975
 51
155.5341829618425038
  0
ARC
  5
31BB
  8
0
 10
169.4596959909368934
 20
-19.9917116278903215
 30
0.0
 40
0.380962061020714
 50
154.1162255228454114
 51
202.5354774418092916
  0
ARC
  5
31BC
  8
0
 10
169.0782176318004133
 20
-20.1483256387342493
 30
0.0
 40
0.0314488314665605
 50
332.7002812957783249
 51
19.713513324602971
  0
LINE
  5
31BD
  8
0
 10
169.1061636762032947
 20
-20.1627494940734593
 30
0.0
 11
169.0949693251120038
 21
-20.1844384132495485
 31
0.0
  0
ARC
  5
31BE
  8
0
 10
169.068282648408001
 20
-20.1706645582196913
 30
0.0
 40
0.030031613274788
 50
252.1907202108741899
 51
332.7002812957765059
  0
ARC
  5
31BF
  8
0
 10
169.2152473751334014
 20
-19.7131776147088402
 30
0.0
 40
0.5105448122447923
 50
242.9021875079617985
 51
252.1907202108741899
  0
ARC
  5
31C0
  8
0
 10
168.9804191248273924
 20
-19.3125420810477202
 30
0.0
 40
0.1455032393852349
 50
122.1533862167249964
 51
218.8496701097305106
  0
ARC
  5
31C1
  8
0
 10
169.4537838271043881
 20
-18.7059215688570291
 30
0.0
 40
0.9117282135697674
 50
229.947951374101109
 51
271.6453692725579003
  0
ARC
  5
31C2
  8
0
 10
169.2746947749774904
 20
-21.2872694891846912
 30
0.0
 40
1.596909676892253
 50
83.4006876803704955
 51
95.5518622194177567
  0
ARC
  5
31C3
  8
0
 10
169.3347166440237004
 20
-19.8935455775466217
 30
0.0
 40
0.3531390770969643
 50
165.471313071929103
 51
229.6688861378850106
  0
ARC
  5
31C4
  8
0
 10
169.1253699222756097
 20
-19.8332364385049011
 30
0.0
 40
0.1354842902918987
 50
92.1872883596397941
 51
167.9514763216938036
  0
LINE
  5
31C5
  8
0
 10
168.8369107343812061
 20
-19.2885309473148183
 30
0.0
 11
168.7919385015781018
 21
-19.4184282020109507
 31
0.0
  0
LINE
  5
31C6
  8
0
 10
166.8375324855284987
 20
-21.9907815458160307
 30
0.0
 11
167.1095691103450065
 21
-14.2448336694175897
 31
0.0
  0
ARC
  5
31C7
  8
0
 10
167.8335749724082859
 20
-16.2678469527157787
 30
0.0
 40
0.7258630883247136
 50
126.6523792066907959
 51
53.0977248012457324
  0
ARC
  5
31C8
  8
0
 10
167.7115945745331089
 20
-16.9725511168396714
 30
0.0
 40
0.0106989713399142
 50
263.638326648048178
 51
340.0843323378595073
  0
ARC
  5
31C9
  8
0
 10
167.6071763947157933
 20
-16.9347199651907196
 30
0.0
 40
0.1217591006008351
 50
340.0843323378595073
 51
356.2218010117205154
  0
ARC
  5
31CA
  8
0
 10
167.8290684044193029
 20
-17.0784921603981985
 30
0.0
 40
0.1688414918474225
 50
49.3188312305711278
 51
126.4859741449594992
  0
ARC
  5
31CB
  8
0
 10
168.0549060164001105
 20
-16.9350412942284088
 30
0.0
 40
0.1167994679940434
 50
187.5815299340351885
 51
201.8218380103315042
  0
ARC
  5
31CC
  8
0
 10
167.9549251645570109
 20
-16.9736152659197614
 30
0.0
 40
0.0097387827284326
 50
209.8203635805529075
 51
279.1539079592415078
  0
ARC
  5
31CD
  8
0
 10
168.6591987271850996
 20
-15.2966251323633209
 30
0.0
 40
0.5519364531722128
 50
190.5770143026877008
 51
225.0733836510520973
  0
ARC
  5
31CE
  8
0
 10
164.0653663123432011
 20
-15.5442898000233001
 30
0.0
 40
4.0539165244948201
 50
2.0689187819619681
 51
33.4172174082470335
  0
ARC
  5
31CF
  8
0
 10
167.3655393965777023
 20
-13.3842619033846493
 30
0.0
 40
0.1106879495364928
 50
40.9822776745760819
 51
147.4447975884997959
  0
ARC
  5
31D0
  8
0
 10
168.2484050941806117
 20
-13.9278467175440408
 30
0.0
 40
1.147465994147286
 50
148.2890557659528099
 51
215.1598023317513935
  0
ARC
  5
31D1
  8
0
 10
164.327521210740997
 20
-16.6888686688358412
 30
0.0
 40
3.648008201171955
 50
26.2544386458644716
 51
35.1503039382717191
  0
ARC
  5
31D2
  8
0
 10
167.0332455168731087
 20
-15.3112384026027808
 30
0.0
 40
0.6132214007080007
 50
333.2298979458033159
 51
22.6443195280742309
  0
ARC
  5
31D3
  8
0
 10
165.3956313329451007
 20
-14.5729455486079793
 30
0.0
 40
2.4091306696053492
 50
315.2889021109057808
 51
335.0956824171406083
  0
ARC
  5
31D4
  8
0
 10
166.9652083610320972
 20
-15.1199979830654101
 30
0.0
 40
0.7134948124724683
 50
307.5717294943327147
 51
342.6041934150421753
  0
ARC
  5
31D5
  8
0
 10
156.4786460206069023
 20
-17.3270005120422717
 30
0.0
 40
11.6821967443921206
 50
8.6578879684920853
 51
20.1032925319558586
  0
ARC
  5
31D6
  8
0
 10
163.6767000501569953
 20
-16.3575258654204205
 30
0.0
 40
4.4219975432597707
 50
352.1924083066556932
 51
10.2793650234673297
  0
ARC
  5
31D7
  8
0
 10
167.8420921244600095
 20
-16.1796996683348588
 30
0.0
 40
0.805550216173551
 50
261.4014241551499254
 51
277.4453647373285889
  0
ARC
  5
31D8
  8
0
 10
165.3799940362887924
 20
-14.5725124049599497
 30
0.0
 40
2.5226803512888321
 50
10.2241910785487793
 51
85.4419332450609943
  0
ARC
  5
3273
  8
0
 10
-237.7238236809855039
 20
-22.0051488730760987
 30
0.0
 40
405.8574164028577229
 50
0.0020282670263383
 51
0.7147591630652944
  0
LINE
  5
3274
  8
0
 10
163.0947430386574979
 20
-12.6965612407847495
 30
0.0
 11
163.0960158532201092
 21
-12.6900694460705505
 31
0.0
  0
ENDSEC
  0
EOF
