  0
SECTION
  2
HEADER
  9
$ACADVER
  1
AC1009
  9
$INSBASE
 10
4421.8865193332967465
 20
249.5838603177118955
 30
0.0
  9
$EXTMIN
 10
4420.9810075222467276
 20
249.5792512751812922
 30
0.0
  9
$EXTMAX
 10
4425.349566892447001
 20
260.7649626799118892
 30
0.0
  9
$LIMMIN
 10
0.0
 20
0.0
  9
$LIMMAX
 10
11.6929133858000007
 20
8.2677165353999982
  9
$ORTHOMODE
 70
     0
  9
$REGENMODE
 70
     1
  9
$FILLMODE
 70
     1
  9
$QTEXTMODE
 70
     0
  9
$MIRRTEXT
 70
     0
  9
$DRAGMODE
 70
     2
  9
$LTSCALE
 40
0.6431102362
  9
$OSMODE
 70
   563
  9
$ATTMODE
 70
     1
  9
$TEXTSIZE
 40
0.2
  9
$TRACEWID
 40
0.05
  9
$TEXTSTYLE
  7
STANDARD
  9
$CLAYER
  8
0
  9
$CELTYPE
  6
BYLAYER
  9
$CECOLOR
 62
   256
  9
$DIMSCALE
 40
1.0
  9
$DIMASZ
 40
0.1875
  9
$DIMEXO
 40
0.0625
  9
$DIMDLI
 40
0.4443307087
  9
$DIMRND
 40
0.0
  9
$DIMDLE
 40
0.0
  9
$DIMEXE
 40
0.125
  9
$DIMTP
 40
0.01
  9
$DIMTM
 40
0.01
  9
$DIMTXT
 40
2.0
  9
$DIMCEN
 40
0.1052362205
  9
$DIMTSZ
 40
0.0
  9
$DIMTOL
 70
     1
  9
$DIMLIM
 70
     0
  9
$DIMTIH
 70
     1
  9
$DIMTOH
 70
     1
  9
$DIMSE1
 70
     0
  9
$DIMSE2
 70
     0
  9
$DIMTAD
 70
     0
  9
$DIMZIN
 70
     0
  9
$DIMBLK
  1

  9
$DIMASO
 70
     1
  9
$DIMSHO
 70
     1
  9
$DIMPOST
  1
\X
  9
$DIMAPOST
  1

  9
$DIMALT
 70
     1
  9
$DIMALTD
 70
     2
  9
$DIMALTF
 40
25.3999999999999986
  9
$DIMLFAC
 40
1.0
  9
$DIMTOFL
 70
     0
  9
$DIMTVP
 40
0.0
  9
$DIMTIX
 70
     0
  9
$DIMSOXD
 70
     0
  9
$DIMSAH
 70
     0
  9
$DIMBLK1
  1

  9
$DIMBLK2
  1

  9
$DIMSTYLE
  2
STANDARD
  9
$DIMCLRD
 70
     0
  9
$DIMCLRE
 70
     0
  9
$DIMCLRT
 70
     0
  9
$DIMTFAC
 40
1.0
  9
$DIMGAP
 40
0.09
  9
$LUNITS
 70
     2
  9
$LUPREC
 70
     4
  9
$SKETCHINC
 40
0.1
  9
$FILLETRAD
 40
0.0
  9
$AUNITS
 70
     0
  9
$AUPREC
 70
     0
  9
$MENU
  1
.
  9
$ELEVATION
 40
0.0
  9
$PELEVATION
 40
0.0
  9
$THICKNESS
 40
0.0
  9
$LIMCHECK
 70
     0
  9
$BLIPMODE
 70
     0
  9
$CHAMFERA
 40
0.0
  9
$CHAMFERB
 40
0.0
  9
$SKPOLY
 70
     0
  9
$TDCREATE
 40
2458060.468368056230247
  9
$TDUPDATE
 40
2459270.4829398151487112
  9
$TDINDWG
 40
0.4741274306
  9
$TDUSRTIMER
 40
0.4741274306
  9
$USRTIMER
 70
     1
  9
$ANGBASE
 50
0.0
  9
$ANGDIR
 70
     0
  9
$PDMODE
 70
     0
  9
$PDSIZE
 40
0.3125
  9
$PLINEWID
 40
0.0
  9
$COORDS
 70
     1
  9
$SPLFRAME
 70
     0
  9
$SPLINETYPE
 70
     6
  9
$SPLINESEGS
 70
     8
  9
$ATTDIA
 70
     1
  9
$ATTREQ
 70
     1
  9
$HANDLING
 70
     1
  9
$HANDSEED
  5
1D66C
  9
$SURFTAB1
 70
     6
  9
$SURFTAB2
 70
     6
  9
$SURFTYPE
 70
     6
  9
$SURFU
 70
     6
  9
$SURFV
 70
     6
  9
$UCSNAME
  2

  9
$UCSORG
 10
0.0
 20
0.0
 30
0.0
  9
$UCSXDIR
 10
1.0
 20
0.0
 30
0.0
  9
$UCSYDIR
 10
0.0
 20
1.0
 30
0.0
  9
$PUCSNAME
  2

  9
$PUCSORG
 10
0.0
 20
0.0
 30
0.0
  9
$PUCSXDIR
 10
1.0
 20
0.0
 30
0.0
  9
$PUCSYDIR
 10
0.0
 20
1.0
 30
0.0
  9
$USERI1
 70
     0
  9
$USERI2
 70
     0
  9
$USERI3
 70
     0
  9
$USERI4
 70
     0
  9
$USERI5
 70
     0
  9
$USERR1
 40
0.0
  9
$USERR2
 40
0.0
  9
$USERR3
 40
0.0
  9
$USERR4
 40
0.0
  9
$USERR5
 40
0.0
  9
$WORLDVIEW
 70
     1
  9
$SHADEDGE
 70
     3
  9
$SHADEDIF
 70
    70
  9
$TILEMODE
 70
     1
  9
$MAXACTVP
 70
    64
  9
$PLIMCHECK
 70
     0
  9
$PEXTMIN
 10
1.0000000000000000E+20
 20
1.0000000000000000E+20
 30
1.0000000000000000E+20
  9
$PEXTMAX
 10
-1.0000000000000000E+20
 20
-1.0000000000000000E+20
 30
-1.0000000000000000E+20
  9
$PLIMMIN
 10
0.0
 20
0.0
  9
$PLIMMAX
 10
12.0
 20
9.0
  9
$UNITMODE
 70
     0
  9
$VISRETAIN
 70
     1
  9
$PLINEGEN
 70
     0
  9
$PSLTSCALE
 70
     1
  0
ENDSEC
  0
SECTION
  2
TABLES
  0
TABLE
  2
VPORT
 70
     1
  0
VPORT
  2
*ACTIVE
 70
     0
 10
0.0
 20
0.0
 11
1.0
 21
1.0
 12
511.7999307371254076
 22
122.7227735602173055
 13
0.0
 23
0.0
 14
1.0
 24
1.0
 15
0.0
 25
0.0
 16
0.0
 26
0.0
 36
60.4960186965801583
 17
3911.3653564453120453
 27
132.5796051025390057
 37
0.0
 40
12.7591823381420504
 41
1.8614190687361409
 42
50.0
 43
0.0
 44
0.0
 50
0.0
 51
0.0
 71
     0
 72
   100
 73
     1
 74
     1
 75
     0
 76
     0
 77
     0
 78
     0
  0
ENDTAB
  0
TABLE
  2
LTYPE
 70
     2
  0
LTYPE
  2
CONTINUOUS
 70
     0
  3
Solid line
 72
    65
 73
     0
 40
0.0
  0
LTYPE
  2
PHANTOM2
 70
     0
  3
___ _ _ ___ _ _ ___ _ _ ___ _ _
 72
    65
 73
     6
 40
1.25
 49
0.625
 49
-0.125
 49
0.125
 49
-0.125
 49
0.125
 49
-0.125
  0
ENDTAB
  0
TABLE
  2
LAYER
 70
     2
  0
LAYER
  2
0
 70
     0
 62
   255
  6
CONTINUOUS
  0
LAYER
  2
DEFPOINTS
 70
     0
 62
     7
  6
CONTINUOUS
  0
ENDTAB
  0
TABLE
  2
STYLE
 70
     1
  0
STYLE
  2
STANDARD
 70
     0
 40
0.0
 41
0.8
 50
0.0
 71
     0
 42
0.2
  3
txt
  4

  0
ENDTAB
  0
TABLE
  2
VIEW
 70
     0
  0
ENDTAB
  0
TABLE
  2
UCS
 70
     0
  0
ENDTAB
  0
TABLE
  2
APPID
 70
    11
  0
APPID
  2
ACAD
 70
     0
  0
APPID
  2
ACAD_MLEADERVER
 70
     0
  0
APPID
  2
ACAD_EXEMPT_FROM_CAD_STANDARDS
 70
     0
  0
APPID
  2
ACAD_NAV_VCDISPLAY
 70
     0
  0
APPID
  2
ACAECLAYERSTANDARD
 70
     0
  0
APPID
  2
ACCMTRANSPARENCY
 70
     0
  0
APPID
  2
ACAD_DSTYLE_DIMJAG
 70
     0
  0
APPID
  2
ACAD_DSTYLE_DIMTALN
 70
     0
  0
APPID
  2
ACDBATTR
 70
     0
  0
APPID
  2
ACADANNOTATIVE
 70
     0
  0
APPID
  2
DCO15
 70
     0
  0
ENDTAB
  0
TABLE
  2
DIMSTYLE
 70
     1
  0
DIMSTYLE
  2
STANDARD
 70
     0
  3

  4

  5

  6

  7

 40
1.0
 41
0.1875
 42
0.0625
 43
0.38
 44
0.125
 45
0.0
 46
0.0
 47
0.01
 48
0.01
140
0.15625
141
0.09
142
0.0
143
25.3999999999999986
144
1.0
145
0.0
146
1.0
147
0.09
 71
     1
 72
     0
 73
     1
 74
     1
 75
     0
 76
     0
 77
     0
 78
     4
170
     0
171
     2
172
     0
173
     0
174
     0
175
     0
176
     0
177
     0
178
     0
  0
ENDTAB
  0
ENDSEC
  0
SECTION
  2
BLOCKS
  0
BLOCK
  8
0
  2
$MODEL_SPACE
 70
     0
 10
0.0
 20
0.0
 30
0.0
  3
$MODEL_SPACE
  1

  0
ENDBLK
  5
21
  8
0
  0
BLOCK
 67
     1
  8
0
  2
$PAPER_SPACE
 70
     0
 10
0.0
 20
0.0
 30
0.0
  3
$PAPER_SPACE
  1

  0
ENDBLK
  5
1D
 67
     1
  8
0
  0
ENDSEC
  0
SECTION
  2
ENTITIES
  0
LINE
  5
1D36C
  8
0
 10
4420.9810075222467276
 20
249.5838603177118955
 30
0.0
 11
4422.7920311443458559
 21
249.5838603177118955
 31
0.0
  0
LINE
  5
1D36D
  8
0
 10
4422.2376421701474101
 20
259.6383727894119033
 30
0.0
 11
4422.234812431645878
 21
259.636292592711925
 31
0.0
  0
LINE
  5
1D36E
  8
0
 10
4422.2178835130471271
 20
259.6270508745118946
 30
0.0
 11
4422.2153260203467653
 21
259.6252310444119189
 31
0.0
  0
LINE
  5
1D36F
  8
0
 10
4422.2178835130471271
 20
259.6270508745118946
 30
0.0
 11
4422.2201036521455535
 21
259.6283227887118983
 31
0.0
  0
LINE
  5
1D370
  8
0
 10
4422.2153260203467653
 20
259.6252310444119189
 30
0.0
 11
4422.234812431645878
 21
259.636292592711925
 31
0.0
  0
LINE
  5
1D371
  8
0
 10
4423.14636189484645
 20
251.1977322938118959
 30
0.0
 11
4423.9062043726471529
 21
251.1977322938118959
 31
0.0
  0
LINE
  5
1D372
  8
0
 10
4424.4442237430466776
 20
251.1977594047118032
 30
0.0
 11
4425.3298818735465829
 21
251.1977594047118032
 31
0.0
  0
LINE
  5
1D373
  8
0
 10
4420.9810075222467276
 20
254.0444902389118056
 30
0.0
 11
4420.9810075222467276
 21
249.5838603177118955
 31
0.0
  0
LINE
  5
1D374
  8
0
 10
4423.1463618933466933
 20
253.0087559159119053
 30
0.0
 11
4423.9062043726471529
 21
253.0087559159119053
 31
0.0
  0
LINE
  5
1D375
  8
0
 10
4421.3943933490472773
 20
254.0720492941119062
 30
0.0
 11
4421.3943933490472773
 21
260.2728366956118862
 31
0.0
  0
LINE
  5
1D376
  8
0
 10
4421.5341571285462123
 20
259.7080648983118749
 30
0.0
 11
4421.5341571285462123
 21
259.9292834085488835
 31
0.0
  0
LINE
  5
1D377
  8
0
 10
4421.5353964964469924
 20
259.6383727894119033
 30
0.0
 11
4421.5353964964469924
 21
259.7106383946119195
 31
0.0
  0
LINE
  5
1D378
  8
0
 10
4421.6105353621469476
 20
259.6270508745118946
 30
0.0
 11
4421.6105353621469476
 21
259.6321978672119144
 31
0.0
  0
LINE
  5
1D379
  8
0
 10
4422.1625033044465454
 20
259.6321978672119144
 30
0.0
 11
4422.1625033044465454
 21
259.6270508745118946
 31
0.0
  0
LINE
  5
1D37A
  8
0
 10
4422.2376421701474101
 20
259.6383727894119033
 30
0.0
 11
4422.2376421701474101
 21
259.7106383946119195
 31
0.0
  0
LINE
  5
1D37B
  8
0
 10
4422.2388815380481901
 20
259.7081964678259283
 30
0.0
 11
4422.2388815380481901
 21
259.9292834084463948
 31
0.0
  0
LINE
  5
1D37C
  8
0
 10
4422.3786453175471252
 20
254.0720492941119062
 30
0.0
 11
4422.3786453175471252
 21
260.2728366956118862
 31
0.0
  0
LINE
  5
1D37D
  8
0
 10
4422.7644312705469929
 20
254.0720492941119062
 30
0.0
 11
4421.0085665774467998
 21
254.0720492941119062
 31
0.0
  0
LINE
  5
1D37E
  8
0
 10
4422.7920311443458559
 20
249.5838603177118955
 30
0.0
 11
4422.7920311443458559
 21
250.8532828555119067
 31
0.0
  0
LINE
  5
1D37F
  8
0
 10
4422.7920311443458559
 20
253.3532053542118945
 30
0.0
 11
4422.7920311443458559
 21
254.0444902389118056
 31
0.0
  0
LINE
  5
1D380
  8
0
 10
4424.4442237430466776
 20
251.1977594047118032
 30
0.0
 11
4424.0046293285458887
 21
252.1404726688973881
 31
0.0
  0
LINE
  5
1D381
  8
0
 10
4423.9337634278472251
 20
252.9811968608119059
 30
0.0
 11
4423.9337634278472251
 21
251.2252918370118948
 31
0.0
  0
LINE
  5
1D382
  8
0
 10
4424.0046293285458887
 20
253.0087559324838082
 30
0.0
 11
4424.0046293285458887
 21
252.1404726688973881
 31
0.0
  0
LINE
  5
1D383
  8
0
 10
4425.0882470572469174
 20
253.9821263818215868
 30
0.0
 11
4425.0754208777470922
 21
253.7758407243119052
 31
0.0
  0
LINE
  5
1D384
  8
0
 10
4425.349566892447001
 20
251.2174196448119119
 30
0.0
 11
4425.349566892447001
 21
255.6958245184119107
 31
0.0
  0
LINE
  5
1D385
  8
0
 10
4421.5577016409470161
 20
259.6252308969118872
 30
0.0
 11
4421.5551551535472754
 21
259.6270508745118946
 31
0.0
  0
LINE
  5
1D386
  8
0
 10
4421.538226234945796
 20
259.636292592711925
 30
0.0
 11
4421.5353964964469924
 21
259.6383727894119033
 31
0.0
  0
LINE
  5
1D387
  8
0
 10
4421.5576839499472044
 20
259.6252306607119067
 30
0.0
 11
4421.538226234945796
 21
259.636292592711925
 31
0.0
  0
LINE
  5
1D388
  8
0
 10
4421.5529350145470744
 20
259.6283227887118983
 30
0.0
 11
4421.5551551535472754
 21
259.6270508745118946
 31
0.0
  0
LINE
  5
1D389
  8
0
 10
4422.2178835130471271
 20
259.6270508745118946
 30
0.0
 11
4422.1625033044465454
 21
259.6270508745118946
 31
0.0
  0
LINE
  5
1D38A
  8
0
 10
4421.5551551535472754
 20
259.6270508745118946
 30
0.0
 11
4421.6105353621469476
 21
259.6270508745118946
 31
0.0
  0
LINE
  5
1D38B
  8
0
 10
4422.2178835130471271
 20
259.6321978672119144
 30
0.0
 11
4422.1625033044465454
 21
259.6321978672119144
 31
0.0
  0
LINE
  5
1D38C
  8
0
 10
4421.5551551535472754
 20
259.6321978672119144
 30
0.0
 11
4421.6105353621469476
 21
259.6321978672119144
 31
0.0
  0
ARC
  5
1D38D
  8
0
 10
4423.8650810138469751
 20
252.1991310718119053
 30
0.0
 40
0.9448425336999999
 50
274.1686167387657065
 51
301.1781162626044193
  0
ARC
  5
1D38E
  8
0
 10
4423.8650686398468679
 20
252.0075809442118953
 30
0.0
 40
0.9446209781999998
 50
81.5038748222500118
 51
85.8296512719087019
  0
CIRCLE
  5
1D38F
  8
0
 10
4421.8865193333467687
 20
260.2728366956118862
 30
0.0
 40
0.4921259843
  0
ARC
  5
1D390
  8
0
 10
4421.0085665774467998
 20
254.0444902389118056
 30
0.0
 40
0.0275590551
 50
90.0
 51
180.0
  0
ARC
  5
1D391
  8
0
 10
4422.7644720376019905
 20
254.0444902175200923
 30
0.0
 40
0.0275591067442983
 50
0.0000444737858789
 51
90.0847553263852348
  0
ARC
  5
1D392
  8
0
 10
4423.9062043726471529
 20
252.9811968608119059
 30
0.0
 40
0.0275590551
 50
0.0
 51
90.0
  0
ARC
  5
1D393
  8
0
 10
4423.9062043725725744
 20
251.2252913490899005
 30
0.0
 40
0.0275590552780853
 50
270.0000001533604177
 51
0.0010143985761628
  0
ARC
  5
1D394
  8
0
 10
4425.3298979799137669
 20
251.217428312559889
 30
0.0
 40
0.0196689144426067
 50
269.953081957142615
 51
359.9747507469568859
  0
LINE
  5
1D395
  8
0
 10
4422.2383305277471663
 20
259.7063481145119113
 30
0.0
 11
4422.2376421701474101
 21
259.7054914020118872
 31
0.0
  0
LINE
  5
1D396
  8
0
 10
4422.2376421701474101
 20
259.6435197821119232
 30
0.0
 11
4422.2178835130471271
 21
259.6321978672119144
 31
0.0
  0
LINE
  5
1D397
  8
0
 10
4421.5551551535472754
 20
259.6321978672119144
 30
0.0
 11
4421.5353964964469924
 21
259.6435197821119232
 31
0.0
  0
LINE
  5
1D398
  8
0
 10
4422.2201036521455535
 20
259.6283227887118983
 30
0.0
 11
4422.2376421701474101
 21
259.6383727894119033
 31
0.0
  0
LINE
  5
1D399
  8
0
 10
4421.5353964964469924
 20
259.6383727894119033
 30
0.0
 11
4421.5529350145470744
 21
259.6283227887118983
 31
0.0
  0
ARC
  5
1D39A
  8
0
 10
4423.1146078243164084
 20
253.646286840800002
 30
0.0
 40
0.6383212365954157
 50
257.0106127861902792
 51
272.8514253751343972
  0
ARC
  5
1D39B
  8
0
 10
4423.0219316081493162
 20
253.2289237768339092
 30
0.0
 40
0.210836046701839
 50
204.8664592895871124
 51
256.0577564968816091
  0
ARC
  5
1D39C
  8
0
 10
4423.2040989225561134
 20
253.3086456719142063
 30
0.0
 40
0.4096603942753913
 50
185.0074684581094004
 51
204.2690548061607956
  0
ARC
  5
1D39D
  8
0
 10
4423.5629721024079117
 20
253.3510643666319879
 30
0.0
 40
0.7709439309343392
 50
179.8408837464444048
 51
185.8199760395347937
  0
ARC
  5
1D39E
  8
0
 10
4423.4479549523803144
 20
250.8608119502794978
 30
0.0
 40
0.6559670183884251
 50
169.0434155273053989
 51
180.6576471287027061
  0
ARC
  5
1D39F
  8
0
 10
4423.1041635973933808
 20
250.930873716228092
 30
0.0
 40
0.3051455832046293
 50
146.4867409060749139
 51
169.6896988132685919
  0
ARC
  5
1D3A0
  8
0
 10
4423.0150592419286113
 20
250.9850758809180888
 30
0.0
 40
0.2009673940666113
 50
116.1383380388850952
 51
145.34464343069709
  0
ARC
  5
1D3A1
  8
0
 10
4423.0703737074800301
 20
250.8418032408445129
 30
0.0
 40
0.3542120237824209
 50
92.3515460149394158
 51
113.9606314431733978
  0
ARC
  5
1D3A2
  8
0
 10
4423.1335221951394487
 20
249.7404657267213111
 30
0.0
 40
1.4573231300739651
 50
89.4951908014749336
 51
93.0555778909491522
  0
ARC
  5
1D3A3
  8
0
 10
4424.0599600441810253
 20
259.4118587500827857
 30
0.0
 40
6.4033418759923668
 50
269.5049060323769936
 51
272.8520978040223781
  0
ARC
  5
1D3A4
  8
0
 10
4424.3076769361487095
 20
254.4435642691582871
 30
0.0
 40
1.4288757204965079
 50
272.8441608123782771
 51
283.3939584368380906
  0
ARC
  5
1D3A5
  8
0
 10
4424.5235041891091896
 20
253.5632844266297923
 30
0.0
 40
0.5225787965029396
 50
282.7312651119962084
 51
312.0980733221646801
  0
ARC
  5
1D3A6
  8
0
 10
4424.4794851991573523
 20
253.5590921787660079
 30
0.0
 40
0.5501234024175974
 50
315.7951276803607925
 51
343.9015703565697777
  0
ARC
  5
1D3A7
  8
0
 10
4423.5123461049743128
 20
253.8702607035127983
 30
0.0
 40
1.5659239693385929
 50
342.7749106301545794
 51
356.543159254693478
  0
ARC
  5
1D3A8
  8
0
 10
4384.0930050935457984
 20
255.22227468757319
 30
0.0
 40
41.0139955561824792
 50
358.2672720645505819
 51
359.6403454231482897
  0
ARC
  5
1D3A9
  8
0
 10
4428.367513853670971
 20
254.9640375384798006
 30
0.0
 40
3.2613213273441342
 50
174.8954637184818921
 51
179.9861637642688947
  0
ARC
  5
1D3AA
  8
0
 10
4426.0282875783150303
 20
255.1849715789981019
 30
0.0
 40
0.9117932109513406
 50
154.3666704536531995
 51
175.6451163374661917
  0
ARC
  5
1D3AB
  8
0
 10
4425.5678519990842688
 20
255.4120818306246861
 30
0.0
 40
0.3984619202102452
 50
137.2040204821163059
 51
155.1674946066094947
  0
ARC
  5
1D3AC
  8
0
 10
4425.3938080425923545
 20
255.5535503867870943
 30
0.0
 40
0.1752358145443622
 50
112.7951569177980957
 51
132.4782072724071043
  0
ARC
  5
1D3AD
  8
0
 10
4425.3298606968983222
 20
255.6957923826122112
 30
0.0
 40
0.0197062217514296
 50
0.0934347806032474
 51
101.5499100426882961
  0
ARC
  5
1D3AE
  8
0
 10
4421.5374486919308765
 20
259.7080648983118749
 30
0.0
 40
0.0032915633839091
 50
128.5700767429374025
 51
231.429923263880994
  0
ARC
  5
1D3AF
  8
0
 10
4422.2357265739956347
 20
259.7081306830688163
 30
0.0
 40
0.0031556498216872
 50
325.6059293887274748
 51
358.8054878713127778
  0
ARC
  5
1D3B0
  8
0
 10
4422.2357265739956347
 20
259.7081306830688163
 30
0.0
 40
0.0031556498216872
 50
1.1945121286856071
 51
52.6244353846869188
  0
ARC
  5
1D3B1
  8
0
 10
4421.6581772549388916
 20
259.5263480268511103
 30
0.0
 40
0.1160772960281083
 50
95.1809068014153752
 51
114.2320055810949953
  0
ARC
  5
1D3B2
  8
0
 10
4421.8641719964907679
 20
257.6700848053571917
 30
0.0
 40
1.9837133819352351
 50
89.772099310191706
 51
96.2649908826318068
  0
ARC
  5
1D3B3
  8
0
 10
4421.8965178779226335
 20
257.2205142381204723
 30
0.0
 40
2.4333911476658279
 50
85.6997041974865539
 51
90.575829177391455
  0
ARC
  5
1D3B4
  8
0
 10
4422.0543223316508374
 20
259.2033772129444174
 30
0.0
 40
0.4443623795253685
 50
77.9004390427272
 51
86.8186390683565037
  0
ARC
  5
1D3B5
  8
0
 10
4422.1403623716469156
 20
259.5962539531932975
 30
0.0
 40
0.0422159431994193
 50
58.3675295486667665
 51
80.3133611713986681
  0
ARC
  5
1D3B6
  8
0
 10
4421.6211863007238208
 20
259.6412492689303235
 30
0.0
 40
0.0177492787638309
 50
233.1245687752081892
 51
249.0081044734085083
  0
ARC
  5
1D3B7
  8
0
 10
4421.6451183657100046
 20
259.7037611493988152
 30
0.0
 40
0.0846856545576068
 50
249.0421216478283952
 51
258.1336414637228813
  0
ARC
  5
1D3B8
  8
0
 10
4421.7540249480080092
 20
260.3132054470327716
 30
0.0
 40
0.7037500498053103
 50
259.6595836474772909
 51
267.1912618007806941
  0
ARC
  5
1D3B9
  8
0
 10
4421.8831340639972041
 20
262.3281474276918743
 30
0.0
 40
2.7227657339347222
 50
266.5553722616754726
 51
270.6143565036488781
  0
ARC
  5
1D3BA
  8
0
 10
4421.8972765857752165
 20
262.141487866633895
 30
0.0
 40
2.5359943213434661
 50
270.3400697824469034
 51
273.5812656693493068
  0
ARC
  5
1D3BB
  8
0
 10
4422.0268521160205637
 20
260.2561637066510798
 30
0.0
 40
0.6463613139706182
 50
272.5567344055099284
 51
280.1487569902390078
  0
ARC
  5
1D3BC
  8
0
 10
4422.1338111095510612
 20
259.6778036488071848
 30
0.0
 40
0.0583016821935834
 50
276.8292889993666108
 51
299.480888971705383
  0
ARC
  5
1D3BD
  8
0
 10
4421.5762623568552954
 20
259.6024459744610908
 30
0.0
 40
0.0364786122785604
 50
103.5655494403358006
 51
125.353440368880797
  0
ARC
  5
1D3BE
  8
0
 10
4421.6516842886248924
 20
259.3058333097069976
 30
0.0
 40
0.3425277046710029
 50
96.0121569436368816
 51
104.1920101922762001
  0
ARC
  5
1D3BF
  8
0
 10
4421.7701052594711655
 20
258.3213044643642888
 30
0.0
 40
1.334125135442142
 50
93.4056526102311011
 51
96.6413583618013234
  0
ARC
  5
1D3C0
  8
0
 10
4421.8579693404917634
 20
256.9434932214588798
 30
0.0
 40
2.7147290035444689
 50
91.4434978655044262
 51
93.5293359703904059
  0
ARC
  5
1D3C1
  8
0
 10
4421.8862589040154489
 20
255.9512465065984941
 30
0.0
 40
3.7073749332461801
 50
89.7235809565372051
 51
91.4942625559323091
  0
ARC
  5
1D3C2
  8
0
 10
4421.8903227483915543
 20
256.2098800387615825
 30
0.0
 40
3.4487259550212741
 50
87.5884694543252067
 51
89.7703656200836519
  0
ARC
  5
1D3C3
  8
0
 10
4421.9568585919669204
 20
257.7196032150857832
 30
0.0
 40
1.9375424555514491
 50
84.977826705900668
 51
87.6757853187635163
  0
ARC
  5
1D3C4
  8
0
 10
4422.0555013270695781
 20
258.8302505913190998
 30
0.0
 40
0.8225243155613741
 50
81.4519299147351035
 51
85.0500321717442205
  0
ARC
  5
1D3C5
  8
0
 10
4422.1563015297715538
 20
259.4740924171304073
 30
0.0
 40
0.1708981086025539
 50
71.2040276172680677
 51
82.7865235505681341
  0
ARC
  5
1D3C6
  8
0
 10
4422.2054730113823098
 20
259.6178225937111961
 30
0.0
 40
0.0189912885241486
 50
49.1952075572178487
 51
71.9266662502192986
  0
ARC
  5
1D3C7
  8
0
 10
4421.5505491756503034
 20
259.6255021574241937
 30
0.0
 40
0.0235422702054154
 50
107.6492241440394935
 51
130.0635688237233012
  0
ARC
  5
1D3C8
  8
0
 10
4421.6008422966169746
 20
259.4727004650189883
 30
0.0
 40
0.1844069001385007
 50
98.1983728847424118
 51
108.1457668677272039
  0
ARC
  5
1D3C9
  8
0
 10
4421.7057280692451968
 20
258.8151833552668108
 30
0.0
 40
0.8502205838131004
 50
94.7364996285556771
 51
98.8757447029818479
  0
ARC
  5
1D3CA
  8
0
 10
4422.1936294162005652
 20
259.6662739521643175
 30
0.0
 40
0.0464248091888183
 50
284.8776794499997891
 51
297.8623738643477168
  0
ARC
  5
1D3CB
  8
0
 10
4422.1257390462042167
 20
259.9297214129730946
 30
0.0
 40
0.318478237373103
 50
275.9458423774736957
 51
284.5129430257281911
  0
ARC
  5
1D3CC
  8
0
 10
4421.9827640870125833
 20
261.1534559081324005
 30
0.0
 40
1.5505167833719691
 50
272.6671705631530926
 51
276.5164433658579242
  0
ARC
  5
1D3CD
  8
0
 10
4421.8986971058448034
 20
262.751000371391001
 30
0.0
 40
3.1502573473590871
 50
270.8867562466214736
 51
272.8424201623216163
  0
ARC
  5
1D3CE
  8
0
 10
4421.8865107137708037
 20
263.3856379258426159
 30
0.0
 40
3.7850082321120482
 50
269.1182464510970931
 51
270.9225286577616885
  0
ARC
  5
1D3CF
  8
0
 10
4421.8742818676437309
 20
262.7477136681526986
 30
0.0
 40
3.1469722496185999
 50
267.1621676833152037
 51
269.162132615068117
  0
ARC
  5
1D3D0
  8
0
 10
4421.8107345817170426
 20
261.4744486718340113
 30
0.0
 40
1.8721225736825651
 50
265.0098324224122166
 51
267.1753563585327811
  0
ARC
  5
1D3D1
  8
0
 10
4421.7058538370101815
 20
260.3238031037791984
 30
0.0
 40
0.7167288098220524
 50
260.5111739770957229
 51
265.3611378875277751
  0
ARC
  5
1D3D2
  8
0
 10
4421.6021891052896535
 20
259.7269893504844731
 30
0.0
 40
0.1110581710511039
 50
246.3856805577061095
 51
262.5021966605955868
  0
ARC
  5
1D3D3
  8
0
 10
4421.8334125602277709
 20
257.2894512293228217
 30
0.0
 40
2.3812859904216039
 50
91.7975164061378877
 51
94.7669023283689427
  0
ARC
  5
1D3D4
  8
0
 10
4421.8861937553228927
 20
255.8000804789870983
 30
0.0
 40
3.8715841708316492
 50
89.5309985948462241
 51
91.8868654963089142
  0
ARC
  5
1D3D5
  8
0
 10
4421.8997802754938675
 20
256.4354211028239092
 30
0.0
 40
3.236164483460588
 50
86.4839285394217541
 51
89.6794621253014412
  0
ARC
  5
1D3D6
  8
0
 10
4422.0249321044448152
 20
258.4329511656562772
 30
0.0
 40
1.2347214788903029
 50
82.475314790858377
 51
86.5957941530030979
  0
ARC
  5
1D3D7
  8
0
 10
4422.1479483762796008
 20
259.3572535285906042
 30
0.0
 40
0.3022707131568282
 50
75.5963727682101592
 51
82.6490286557188369
  0
ARC
  5
1D3D8
  8
0
 10
4422.2167411051996169
 20
259.6163310277664209
 30
0.0
 40
0.0342940647747376
 50
52.4491019381899619
 51
79.2486262656478431
  0
ATTDEF
  5
1D3DA
  8
0
 10
4421.8865828561392846
 20
249.582584608514594
 30
0.0
 40
0.001
  1
K-99176M-4
  3

  2
MODELNUMBER
 70
     0
1001
ACDBATTR
1070
     0
1070
     1
  0
ATTDEF
  5
1D3DB
  8
0
 10
4421.8864570464820645
 20
249.5809177681354072
 30
0.0
 40
0.001
  1
ALEO 
  3

  2
TRADENAME
 70
     0
1001
ACDBATTR
1070
     0
1070
     1
  0
ATTDEF
  5
1D3DC
  8
0
 10
4421.8865828561392846
 20
249.5792512751812922
 30
0.0
 40
0.001
  1
KITCHEN SINK FAUCET
  3

  2
PRODUCT
 70
     0
1001
ACDBATTR
1070
     0
1070
     1
  0
ENDSEC
  0
EOF
